ISO-10303-21;
HEADER;
FILE_DESCRIPTION (( 'STEP AP214' ),
    '1' );
FILE_NAME ('Micro_SFPM-030-20.STEP',
    '2021-09-02T06:45:34',
    ( '' ),
    ( '' ),
    'SwSTEP 2.0',
    'SolidWorks 2020',
    '' );
FILE_SCHEMA (( 'AUTOMOTIVE_DESIGN' ));
ENDSEC;

DATA;
#1 = VERTEX_POINT ( 'NONE', #117 ) ;
#2 = DIRECTION ( 'NONE',  ( 1.224646799147353207E-16, 0.0000000000000000000, 1.000000000000000000 ) ) ;
#3 = PRODUCT_DEFINITION ( 'UNKNOWN', '', #292, #254 ) ;
#4 = CARTESIAN_POINT ( 'NONE',  ( 5.789835141389368266E-17, 0.0000000000000000000, 0.4727759175478575826 ) ) ;
#5 = AXIS2_PLACEMENT_3D ( 'NONE', #217, #216, #233 ) ;
#6 = COLOUR_RGB ( '',0.7921568627450980005, 0.8196078431372548767, 0.9333333333333333481 ) ;
#7 = ORIENTED_EDGE ( 'NONE', *, *, #35, .T. ) ;
#8 = DIRECTION ( 'NONE',  ( -1.000000000000000000, 0.0000000000000000000, 1.224646799147352961E-16 ) ) ;
#9 = FACE_OUTER_BOUND ( 'NONE', #61, .T. ) ;
#10 = ORIENTED_EDGE ( 'NONE', *, *, #161, .T. ) ;
#11 = DIRECTION ( 'NONE',  ( 0.0000000000000000000, 0.0000000000000000000, -1.000000000000000000 ) ) ;
#12 = AXIS2_PLACEMENT_3D ( 'NONE', #123, #284, #8 ) ;
#13 = VERTEX_POINT ( 'NONE', #70 ) ;
#14 = ORIENTED_EDGE ( 'NONE', *, *, #91, .F. ) ;
#15 = EDGE_CURVE ( 'NONE', #13, #103, #39, .T. ) ;
#16 = FACE_OUTER_BOUND ( 'NONE', #144, .T. ) ;
#17 = LINE ( 'NONE', #109, #257 ) ;
#18 = EDGE_CURVE ( 'NONE', #1, #24, #222, .T. ) ;
#19 = FILL_AREA_STYLE_COLOUR ( '', #6 ) ;
#20 = DIRECTION ( 'NONE',  ( 0.0000000000000000000, 0.0000000000000000000, 1.000000000000000000 ) ) ;
#21 = DIRECTION ( 'NONE',  ( -1.000000000000000000, 0.0000000000000000000, 0.0000000000000000000 ) ) ;
#22 = EDGE_CURVE ( 'NONE', #183, #48, #176, .T. ) ;
#23 = DIRECTION ( 'NONE',  ( 1.000000000000000000, 0.0000000000000000000, 0.0000000000000000000 ) ) ;
#24 = VERTEX_POINT ( 'NONE', #101 ) ;
#25 = DIRECTION ( 'NONE',  ( 1.000000000000000000, 0.0000000000000000000, 0.0000000000000000000 ) ) ;
#26 = CARTESIAN_POINT ( 'NONE',  ( -0.05899594499999994551, 7.228535596528513326E-18, 0.4724409999999999998 ) ) ;
#27 = LENGTH_MEASURE_WITH_UNIT ( LENGTH_MEASURE( 0.02539999999999999897 ), #289 );
#28 = DIRECTION ( 'NONE',  ( -0.1736481776669310251, 2.126576849575781468E-17, 0.9848077530122080203 ) ) ;
#29 = DIMENSIONAL_EXPONENTS ( 1.000000000000000000, 0.0000000000000000000, 0.0000000000000000000, 0.0000000000000000000, 0.0000000000000000000, 0.0000000000000000000, 0.0000000000000000000 ) ;
#30 = VERTEX_POINT ( 'NONE', #26 ) ;
#31 = SURFACE_STYLE_FILL_AREA ( #150 ) ;
#32 = LINE ( 'NONE', #263, #67 ) ;
#33 = DIRECTION ( 'NONE',  ( 1.000000000000000000, 0.0000000000000000000, 0.0000000000000000000 ) ) ;
#34 =( NAMED_UNIT ( * ) PLANE_ANGLE_UNIT ( ) SI_UNIT ( $, .RADIAN. ) );
#35 = EDGE_CURVE ( 'NONE', #48, #103, #193, .T. ) ;
#36 = AXIS2_PLACEMENT_3D ( 'NONE', #247, #83, #23 ) ;
#37 =( NAMED_UNIT ( * ) SI_UNIT ( $, .STERADIAN. ) SOLID_ANGLE_UNIT ( ) );
#38 = EDGE_CURVE ( 'NONE', #30, #13, #214, .T. ) ;
#39 = CIRCLE ( 'NONE', #154, 0.05905500000000001720 ) ;
#40 = ORIENTED_EDGE ( 'NONE', *, *, #215, .F. ) ;
#41 = ADVANCED_FACE ( 'NONE', ( #9 ), #127, .T. ) ;
#42 = ORIENTED_EDGE ( 'NONE', *, *, #161, .F. ) ;
#43 = ORIENTED_EDGE ( 'NONE', *, *, #143, .F. ) ;
#44 = VECTOR ( 'NONE', #242, 39.37007874015748143 ) ;
#45 = EDGE_LOOP ( 'NONE', ( #279, #298 ) ) ;
#46 = CARTESIAN_POINT ( 'NONE',  ( 0.04405499999999974020, 5.395181473643631161E-18, 1.496062999999999921 ) ) ;
#47 = ORIENTED_EDGE ( 'NONE', *, *, #143, .T. ) ;
#48 = VERTEX_POINT ( 'NONE', #94 ) ;
#49 =( LENGTH_UNIT ( ) NAMED_UNIT ( * ) SI_UNIT ( $, .METRE. ) );
#50 = VERTEX_POINT ( 'NONE', #283 ) ;
#51 =( GEOMETRIC_REPRESENTATION_CONTEXT ( 3 ) GLOBAL_UNCERTAINTY_ASSIGNED_CONTEXT ( ( #187 ) ) GLOBAL_UNIT_ASSIGNED_CONTEXT ( ( #55, #34, #148 ) ) REPRESENTATION_CONTEXT ( 'NONE', 'WORKASPACE' ) );
#52 = APPLICATION_CONTEXT ( 'automotive_design' ) ;
#53 = CARTESIAN_POINT ( 'NONE',  ( 0.05905500000000007965, 7.232151672364703126E-18, 0.4727759175478575826 ) ) ;
#54 = ORIENTED_EDGE ( 'NONE', *, *, #290, .F. ) ;
#55 =( CONVERSION_BASED_UNIT ( 'INCH', #27 ) LENGTH_UNIT ( ) NAMED_UNIT ( #266 ) );
#56 = FACE_OUTER_BOUND ( 'NONE', #162, .T. ) ;
#57 = ADVANCED_FACE ( 'NONE', ( #291 ), #164, .T. ) ;
#58 = AXIS2_PLACEMENT_3D ( 'NONE', #72, #277, #125 ) ;
#59 = EDGE_CURVE ( 'NONE', #84, #276, #234, .T. ) ;
#60 = AXIS2_PLACEMENT_3D ( 'NONE', #74, #141, #171 ) ;
#61 = EDGE_LOOP ( 'NONE', ( #278, #180, #10, #71 ) ) ;
#62 = SURFACE_STYLE_USAGE ( .BOTH. , #299 ) ;
#63 = MECHANICAL_DESIGN_GEOMETRIC_PRESENTATION_REPRESENTATION (  '', ( #213 ), #82 ) ;
#64 = CARTESIAN_POINT ( 'NONE',  ( 0.0000000000000000000, 0.0000000000000000000, 1.496062999999999921 ) ) ;
#65 =( CONVERSION_BASED_UNIT ( 'INCH', #111 ) LENGTH_UNIT ( ) NAMED_UNIT ( #29 ) );
#66 = DIRECTION ( 'NONE',  ( 0.0000000000000000000, 0.0000000000000000000, -1.000000000000000000 ) ) ;
#67 = VECTOR ( 'NONE', #282, 39.37007874015748143 ) ;
#68 = DIRECTION ( 'NONE',  ( -1.224646799147353207E-16, -0.0000000000000000000, -1.000000000000000000 ) ) ;
#69 = CARTESIAN_POINT ( 'NONE',  ( 5.785733584359747758E-17, 0.0000000000000000000, 0.4724409999999999998 ) ) ;
#70 = CARTESIAN_POINT ( 'NONE',  ( -0.05905499999999995475, 0.0000000000000000000, 0.4727759175478575826 ) ) ;
#71 = ORIENTED_EDGE ( 'NONE', *, *, #229, .F. ) ;
#72 = CARTESIAN_POINT ( 'NONE',  ( 0.0000000000000000000, 0.0000000000000000000, 1.496062999999999921 ) ) ;
#73 = DIRECTION ( 'NONE',  ( 1.000000000000000000, 0.0000000000000000000, 0.0000000000000000000 ) ) ;
#74 = CARTESIAN_POINT ( 'NONE',  ( 0.0000000000000000000, 0.0000000000000000000, 1.496062999999999921 ) ) ;
#75 = DIRECTION ( 'NONE',  ( 0.0000000000000000000, 0.0000000000000000000, 1.000000000000000000 ) ) ;
#76 = ADVANCED_FACE ( 'NONE', ( #56 ), #156, .T. ) ;
#77 = PRODUCT_DEFINITION_SHAPE ( 'NONE', 'NONE',  #3 ) ;
#78 = DIRECTION ( 'NONE',  ( -1.224646799147353207E-16, -0.0000000000000000000, -1.000000000000000000 ) ) ;
#79 = DIRECTION ( 'NONE',  ( 1.000000000000000000, 0.0000000000000000000, 0.0000000000000000000 ) ) ;
#80 = CARTESIAN_POINT ( 'NONE',  ( 0.0000000000000000000, 0.0000000000000000000, 0.0000000000000000000 ) ) ;
#81 = DIRECTION ( 'NONE',  ( -1.000000000000000000, 0.0000000000000000000, 1.224646799147353454E-16 ) ) ;
#82 =( GEOMETRIC_REPRESENTATION_CONTEXT ( 3 ) GLOBAL_UNCERTAINTY_ASSIGNED_CONTEXT ( ( #248 ) ) GLOBAL_UNIT_ASSIGNED_CONTEXT ( ( #65, #135, #184 ) ) REPRESENTATION_CONTEXT ( 'NONE', 'WORKASPACE' ) );
#83 = DIRECTION ( 'NONE',  ( 0.0000000000000000000, 0.0000000000000000000, -1.000000000000000000 ) ) ;
#84 = VERTEX_POINT ( 'NONE', #228 ) ;
#85 = CARTESIAN_POINT ( 'NONE',  ( 5.785733584359747758E-17, 0.0000000000000000000, 0.4724409999999999998 ) ) ;
#86 = AXIS2_PLACEMENT_3D ( 'NONE', #152, #236, #33 ) ;
#87 = EDGE_LOOP ( 'NONE', ( #201, #47, #122, #54 ) ) ;
#88 = DIRECTION ( 'NONE',  ( 1.000000000000000000, 0.0000000000000000000, -0.0000000000000000000 ) ) ;
#89 = LENGTH_MEASURE_WITH_UNIT ( LENGTH_MEASURE( 0.02539999999999999897 ), #49 );
#90 =( LENGTH_UNIT ( ) NAMED_UNIT ( * ) SI_UNIT ( $, .METRE. ) );
#91 = EDGE_CURVE ( 'NONE', #84, #103, #131, .T. ) ;
#92 = PLANE ( 'NONE',  #258 ) ;
#93 = COLOUR_RGB ( '',0.7921568627450980005, 0.8196078431372548767, 0.9333333333333333481 ) ;
#94 = CARTESIAN_POINT ( 'NONE',  ( 0.05905500000000001720, 7.232151672364695422E-18, 1.481062999999999574 ) ) ;
#95 = CYLINDRICAL_SURFACE ( 'NONE', #155, 0.05899594500000000796 ) ;
#96 = DIRECTION ( 'NONE',  ( 0.1736481776669312471, 0.0000000000000000000, 0.9848077530122077983 ) ) ;
#97 = CARTESIAN_POINT ( 'NONE',  ( -0.05899594499999994551, 7.224919520692329689E-18, 0.4724409999999999998 ) ) ;
#98 = FACE_OUTER_BOUND ( 'NONE', #185, .T. ) ;
#99 = DIRECTION ( 'NONE',  ( -0.0000000000000000000, -0.0000000000000000000, -1.000000000000000000 ) ) ;
#100 = CYLINDRICAL_SURFACE ( 'NONE', #12, 0.05899594500000000796 ) ;
#101 = CARTESIAN_POINT ( 'NONE',  ( 0.04405499999999974020, 6.313666573004163292E-18, 1.496062999999999921 ) ) ;
#102 = CIRCLE ( 'NONE', #268, 0.05899594500000000796 ) ;
#103 = VERTEX_POINT ( 'NONE', #53 ) ;
#104 = VECTOR ( 'NONE', #206, 39.37007874015748143 ) ;
#105 = EDGE_CURVE ( 'NONE', #50, #276, #272, .T. ) ;
#106 = AXIS2_PLACEMENT_3D ( 'NONE', #114, #2, #25 ) ;
#107 = ORIENTED_EDGE ( 'NONE', *, *, #225, .T. ) ;
#108 = ORIENTED_EDGE ( 'NONE', *, *, #221, .T. ) ;
#109 = CARTESIAN_POINT ( 'NONE',  ( -0.05899594500000000796, 0.0000000000000000000, 7.224919520692329689E-18 ) ) ;
#110 = ADVANCED_FACE ( 'NONE', ( #16 ), #170, .T. ) ;
#111 = LENGTH_MEASURE_WITH_UNIT ( LENGTH_MEASURE( 0.02539999999999999897 ), #90 );
#112 = CONICAL_SURFACE ( 'NONE', #106, 0.05899594500000000796, 0.1745329251994337527 ) ;
#113 = CARTESIAN_POINT ( 'NONE',  ( 0.05899594500000006347, 0.0000000000000000000, 0.4724409999999999998 ) ) ;
#114 = CARTESIAN_POINT ( 'NONE',  ( 5.785733584359747758E-17, 0.0000000000000000000, 0.4724409999999999998 ) ) ;
#115 = DIRECTION ( 'NONE',  ( -1.224646799147353207E-16, -0.0000000000000000000, -1.000000000000000000 ) ) ;
#116 = EDGE_CURVE ( 'NONE', #24, #1, #226, .T. ) ;
#117 = CARTESIAN_POINT ( 'NONE',  ( -0.04405499999999974020, 0.0000000000000000000, 1.496062999999999921 ) ) ;
#118 = CARTESIAN_POINT ( 'NONE',  ( 0.0000000000000000000, 0.0000000000000000000, 1.496062999999999921 ) ) ;
#119 = VECTOR ( 'NONE', #28, 39.37007874015748854 ) ;
#120 = AXIS2_PLACEMENT_3D ( 'NONE', #80, #75, #73 ) ;
#121 = EDGE_LOOP ( 'NONE', ( #167, #159, #108, #288 ) ) ;
#122 = ORIENTED_EDGE ( 'NONE', *, *, #215, .T. ) ;
#123 = CARTESIAN_POINT ( 'NONE',  ( 0.0000000000000000000, 0.0000000000000000000, 0.0000000000000000000 ) ) ;
#124 = DIRECTION ( 'NONE',  ( -1.224646799147353207E-16, -0.0000000000000000000, -1.000000000000000000 ) ) ;
#125 = DIRECTION ( 'NONE',  ( 1.000000000000000000, 0.0000000000000000000, -0.0000000000000000000 ) ) ;
#126 = APPLICATION_CONTEXT ( 'automotive_design' ) ;
#127 = CYLINDRICAL_SURFACE ( 'NONE', #197, 0.05905500000000001720 ) ;
#128 = CIRCLE ( 'NONE', #297, 0.05899594499999999409 ) ;
#129 = SHAPE_DEFINITION_REPRESENTATION ( #77, #285 ) ;
#130 = VECTOR ( 'NONE', #124, 39.37007874015748143 ) ;
#131 = LINE ( 'NONE', #113, #232 ) ;
#132 = EDGE_LOOP ( 'NONE', ( #210, #43, #157, #244 ) ) ;
#133 = PRESENTATION_LAYER_ASSIGNMENT (  '', '', ( #264 ) ) ;
#134 = ORIENTED_EDGE ( 'NONE', *, *, #15, .T. ) ;
#135 =( NAMED_UNIT ( * ) PLANE_ANGLE_UNIT ( ) SI_UNIT ( $, .RADIAN. ) );
#136 = ORIENTED_EDGE ( 'NONE', *, *, #22, .F. ) ;
#137 = AXIS2_PLACEMENT_3D ( 'NONE', #69, #115, #209 ) ;
#138 = ORIENTED_EDGE ( 'NONE', *, *, #22, .T. ) ;
#139 = SURFACE_STYLE_FILL_AREA ( #208 ) ;
#140 = EDGE_CURVE ( 'NONE', #48, #183, #286, .T. ) ;
#141 = DIRECTION ( 'NONE',  ( -0.0000000000000000000, -0.0000000000000000000, -1.000000000000000000 ) ) ;
#142 = DIRECTION ( 'NONE',  ( 0.0000000000000000000, 0.0000000000000000000, -1.000000000000000000 ) ) ;
#143 = EDGE_CURVE ( 'NONE', #84, #30, #200, .T. ) ;
#144 = EDGE_LOOP ( 'NONE', ( #245, #230, #136, #271 ) ) ;
#145 = CARTESIAN_POINT ( 'NONE',  ( 5.789835141389368266E-17, 0.0000000000000000000, 0.4727759175478575826 ) ) ;
#146 = AXIS2_PLACEMENT_3D ( 'NONE', #249, #287, #81 ) ;
#147 = DIRECTION ( 'NONE',  ( 1.000000000000000000, 0.0000000000000000000, 0.0000000000000000000 ) ) ;
#148 =( NAMED_UNIT ( * ) SI_UNIT ( $, .STERADIAN. ) SOLID_ANGLE_UNIT ( ) );
#149 = ORIENTED_EDGE ( 'NONE', *, *, #105, .F. ) ;
#150 = FILL_AREA_STYLE ('',( #262 ) ) ;
#151 =( NAMED_UNIT ( * ) PLANE_ANGLE_UNIT ( ) SI_UNIT ( $, .RADIAN. ) );
#152 = CARTESIAN_POINT ( 'NONE',  ( 5.785733584359747758E-17, 0.0000000000000000000, 0.4724409999999999998 ) ) ;
#153 = APPLICATION_PROTOCOL_DEFINITION ( 'draft international standard', 'automotive_design', 1998, #52 ) ;
#154 = AXIS2_PLACEMENT_3D ( 'NONE', #4, #78, #147 ) ;
#155 = AXIS2_PLACEMENT_3D ( 'NONE', #231, #256, #260 ) ;
#156 = CONICAL_SURFACE ( 'NONE', #86, 0.05899594500000000796, 0.1745329251994337527 ) ;
#157 = ORIENTED_EDGE ( 'NONE', *, *, #91, .T. ) ;
#158 = ADVANCED_FACE ( 'NONE', ( #296 ), #92, .F. ) ;
#159 = ORIENTED_EDGE ( 'NONE', *, *, #18, .F. ) ;
#160 = CARTESIAN_POINT ( 'NONE',  ( -0.04405499999999974020, 0.0000000000000000000, 1.496062999999999921 ) ) ;
#161 = EDGE_CURVE ( 'NONE', #183, #13, #32, .T. ) ;
#162 = EDGE_LOOP ( 'NONE', ( #188, #202, #134, #14 ) ) ;
#163 = AXIS2_PLACEMENT_3D ( 'NONE', #118, #66, #243 ) ;
#164 = CYLINDRICAL_SURFACE ( 'NONE', #60, 0.05905500000000001720 ) ;
#165 = ORIENTED_EDGE ( 'NONE', *, *, #18, .T. ) ;
#166 = APPLICATION_PROTOCOL_DEFINITION ( 'draft international standard', 'automotive_design', 1998, #126 ) ;
#167 = ORIENTED_EDGE ( 'NONE', *, *, #196, .F. ) ;
#168 = FACE_OUTER_BOUND ( 'NONE', #87, .T. ) ;
#169 = PRODUCT_CONTEXT ( 'NONE', #52, 'mechanical' ) ;
#170 = CONICAL_SURFACE ( 'NONE', #163, 0.04405499999999974020, 0.7853981633974491672 ) ;
#171 = DIRECTION ( 'NONE',  ( -1.000000000000000000, 0.0000000000000000000, 0.0000000000000000000 ) ) ;
#172 = FACE_OUTER_BOUND ( 'NONE', #121, .T. ) ;
#173 = DIRECTION ( 'NONE',  ( -0.0000000000000000000, -0.0000000000000000000, -1.000000000000000000 ) ) ;
#174 = DIRECTION ( 'NONE',  ( -1.224646799147353207E-16, -0.0000000000000000000, -1.000000000000000000 ) ) ;
#175 = UNCERTAINTY_MEASURE_WITH_UNIT (LENGTH_MEASURE( 1.000000000000000082E-05 ), #293, 'distance_accuracy_value', 'NONE');
#176 = CIRCLE ( 'NONE', #212, 0.05905500000000001720 ) ;
#177 = MECHANICAL_DESIGN_GEOMETRIC_PRESENTATION_REPRESENTATION (  '', ( #264 ), #241 ) ;
#178 = ADVANCED_FACE ( 'NONE', ( #172 ), #198, .T. ) ;
#179 = AXIS2_PLACEMENT_3D ( 'NONE', #145, #253, #79 ) ;
#180 = ORIENTED_EDGE ( 'NONE', *, *, #140, .T. ) ;
#181 = DIRECTION ( 'NONE',  ( -1.224646799147353207E-16, -0.0000000000000000000, -1.000000000000000000 ) ) ;
#182 = EDGE_LOOP ( 'NONE', ( #165, #274 ) ) ;
#183 = VERTEX_POINT ( 'NONE', #270 ) ;
#184 =( NAMED_UNIT ( * ) SI_UNIT ( $, .STERADIAN. ) SOLID_ANGLE_UNIT ( ) );
#185 = EDGE_LOOP ( 'NONE', ( #107, #255, #149, #40 ) ) ;
#186 = PRESENTATION_STYLE_ASSIGNMENT (( #220 ) ) ;
#187 = UNCERTAINTY_MEASURE_WITH_UNIT (LENGTH_MEASURE( 1.000000000000000082E-05 ), #55, 'distance_accuracy_value', 'NONE');
#188 = ORIENTED_EDGE ( 'NONE', *, *, #225, .F. ) ;
#189 = FACE_OUTER_BOUND ( 'NONE', #182, .T. ) ;
#190 = ADVANCED_FACE ( 'NONE', ( #273 ), #112, .T. ) ;
#191 = CARTESIAN_POINT ( 'NONE',  ( 0.0000000000000000000, 0.0000000000000000000, 1.481062999999999574 ) ) ;
#192 = DIRECTION ( 'NONE',  ( -1.000000000000000000, 0.0000000000000000000, 1.224646799147353454E-16 ) ) ;
#193 = LINE ( 'NONE', #250, #240 ) ;
#194 = SURFACE_SIDE_STYLE ('',( #31 ) ) ;
#195 = EDGE_LOOP ( 'NONE', ( #138, #7, #269, #42 ) ) ;
#196 = EDGE_CURVE ( 'NONE', #24, #48, #211, .T. ) ;
#197 = AXIS2_PLACEMENT_3D ( 'NONE', #261, #99, #219 ) ;
#198 = CONICAL_SURFACE ( 'NONE', #246, 0.04405499999999974020, 0.7853981633974491672 ) ;
#199 = CARTESIAN_POINT ( 'NONE',  ( 0.0000000000000000000, 0.0000000000000000000, 1.496062999999999921 ) ) ;
#200 = CIRCLE ( 'NONE', #137, 0.05899594500000000796 ) ;
#201 = ORIENTED_EDGE ( 'NONE', *, *, #59, .F. ) ;
#202 = ORIENTED_EDGE ( 'NONE', *, *, #38, .T. ) ;
#203 = LINE ( 'NONE', #160, #44 ) ;
#204 = PRESENTATION_LAYER_ASSIGNMENT (  '', '', ( #213 ) ) ;
#205 = DIRECTION ( 'NONE',  ( 0.0000000000000000000, 0.0000000000000000000, 1.000000000000000000 ) ) ;
#206 = DIRECTION ( 'NONE',  ( 0.7071067811865482389, 8.659560562354941486E-17, -0.7071067811865469066 ) ) ;
#207 = MANIFOLD_SOLID_BREP ( 'Cut-Revolve1', #295 ) ;
#208 = FILL_AREA_STYLE ('',( #19 ) ) ;
#209 = DIRECTION ( 'NONE',  ( -1.000000000000000000, 0.0000000000000000000, 0.0000000000000000000 ) ) ;
#210 = ORIENTED_EDGE ( 'NONE', *, *, #38, .F. ) ;
#211 = LINE ( 'NONE', #46, #104 ) ;
#212 = AXIS2_PLACEMENT_3D ( 'NONE', #191, #11, #252 ) ;
#213 = STYLED_ITEM ( 'NONE', ( #275 ), #207 ) ;
#214 = LINE ( 'NONE', #97, #119 ) ;
#215 = EDGE_CURVE ( 'NONE', #30, #50, #17, .T. ) ;
#216 = DIRECTION ( 'NONE',  ( 0.0000000000000000000, 0.0000000000000000000, 1.000000000000000000 ) ) ;
#217 = CARTESIAN_POINT ( 'NONE',  ( 0.0000000000000000000, 0.0000000000000000000, 1.496062999999999921 ) ) ;
#218 = CARTESIAN_POINT ( 'NONE',  ( 0.05899594499999999409, 7.224919520692329689E-18, -9.478001694819074349E-34 ) ) ;
#219 = DIRECTION ( 'NONE',  ( -1.000000000000000000, 0.0000000000000000000, 0.0000000000000000000 ) ) ;
#220 = SURFACE_STYLE_USAGE ( .BOTH. , #194 ) ;
#221 = EDGE_CURVE ( 'NONE', #1, #183, #203, .T. ) ;
#222 = CIRCLE ( 'NONE', #5, 0.04405499999999974020 ) ;
#223 = AXIS2_PLACEMENT_3D ( 'NONE', #199, #205, #227 ) ;
#224 = CARTESIAN_POINT ( 'NONE',  ( 0.0000000000000000000, 0.0000000000000000000, 0.0000000000000000000 ) ) ;
#225 = EDGE_CURVE ( 'NONE', #30, #84, #102, .T. ) ;
#226 = CIRCLE ( 'NONE', #223, 0.04405499999999974020 ) ;
#227 = DIRECTION ( 'NONE',  ( 1.000000000000000000, 0.0000000000000000000, 0.0000000000000000000 ) ) ;
#228 = CARTESIAN_POINT ( 'NONE',  ( 0.05899594500000006347, 0.0000000000000000000, 0.4724409999999999998 ) ) ;
#229 = EDGE_CURVE ( 'NONE', #103, #13, #238, .T. ) ;
#230 = ORIENTED_EDGE ( 'NONE', *, *, #196, .T. ) ;
#231 = CARTESIAN_POINT ( 'NONE',  ( 0.0000000000000000000, 0.0000000000000000000, 0.0000000000000000000 ) ) ;
#232 = VECTOR ( 'NONE', #96, 39.37007874015748143 ) ;
#233 = DIRECTION ( 'NONE',  ( 1.000000000000000000, 0.0000000000000000000, 0.0000000000000000000 ) ) ;
#234 = LINE ( 'NONE', #259, #130 ) ;
#235 = CARTESIAN_POINT ( 'NONE',  ( 8.847974565113090185E-34, 0.0000000000000000000, 7.224919520692329689E-18 ) ) ;
#236 = DIRECTION ( 'NONE',  ( 1.224646799147353207E-16, 0.0000000000000000000, 1.000000000000000000 ) ) ;
#237 = PLANE ( 'NONE',  #58 ) ;
#238 = CIRCLE ( 'NONE', #179, 0.05905500000000001720 ) ;
#239 = PRODUCT_RELATED_PRODUCT_CATEGORY ( 'part', '', ( #281 ) ) ;
#240 = VECTOR ( 'NONE', #173, 39.37007874015748143 ) ;
#241 =( GEOMETRIC_REPRESENTATION_CONTEXT ( 3 ) GLOBAL_UNCERTAINTY_ASSIGNED_CONTEXT ( ( #175 ) ) GLOBAL_UNIT_ASSIGNED_CONTEXT ( ( #293, #151, #37 ) ) REPRESENTATION_CONTEXT ( 'NONE', 'WORKASPACE' ) );
#242 = DIRECTION ( 'NONE',  ( -0.7071067811865482389, 0.0000000000000000000, -0.7071067811865469066 ) ) ;
#243 = DIRECTION ( 'NONE',  ( -1.000000000000000000, 0.0000000000000000000, 0.0000000000000000000 ) ) ;
#244 = ORIENTED_EDGE ( 'NONE', *, *, #229, .T. ) ;
#245 = ORIENTED_EDGE ( 'NONE', *, *, #116, .F. ) ;
#246 = AXIS2_PLACEMENT_3D ( 'NONE', #64, #142, #21 ) ;
#247 = CARTESIAN_POINT ( 'NONE',  ( 0.0000000000000000000, 0.0000000000000000000, 1.481062999999999574 ) ) ;
#248 = UNCERTAINTY_MEASURE_WITH_UNIT (LENGTH_MEASURE( 1.000000000000000082E-05 ), #65, 'distance_accuracy_value', 'NONE');
#249 = CARTESIAN_POINT ( 'NONE',  ( 8.847974565113090185E-34, 0.0000000000000000000, 7.224919520692329689E-18 ) ) ;
#250 = CARTESIAN_POINT ( 'NONE',  ( 0.05905500000000001720, 7.232151672364695422E-18, 1.496062999999999921 ) ) ;
#251 = ADVANCED_FACE ( 'NONE', ( #189 ), #237, .T. ) ;
#252 = DIRECTION ( 'NONE',  ( 1.000000000000000000, 0.0000000000000000000, 0.0000000000000000000 ) ) ;
#253 = DIRECTION ( 'NONE',  ( -1.224646799147353207E-16, -0.0000000000000000000, -1.000000000000000000 ) ) ;
#254 = PRODUCT_DEFINITION_CONTEXT ( 'detailed design', #126, 'design' ) ;
#255 = ORIENTED_EDGE ( 'NONE', *, *, #59, .T. ) ;
#256 = DIRECTION ( 'NONE',  ( -1.224646799147353207E-16, -0.0000000000000000000, -1.000000000000000000 ) ) ;
#257 = VECTOR ( 'NONE', #68, 39.37007874015748143 ) ;
#258 = AXIS2_PLACEMENT_3D ( 'NONE', #224, #20, #88 ) ;
#259 = CARTESIAN_POINT ( 'NONE',  ( 0.05899594500000000796, 7.224919520692329689E-18, -7.224919520692329689E-18 ) ) ;
#260 = DIRECTION ( 'NONE',  ( -1.000000000000000000, 0.0000000000000000000, 1.224646799147352961E-16 ) ) ;
#261 = CARTESIAN_POINT ( 'NONE',  ( 0.0000000000000000000, 0.0000000000000000000, 1.496062999999999921 ) ) ;
#262 = FILL_AREA_STYLE_COLOUR ( '', #93 ) ;
#263 = CARTESIAN_POINT ( 'NONE',  ( -0.05905500000000001720, 0.0000000000000000000, 1.496062999999999921 ) ) ;
#264 = STYLED_ITEM ( 'NONE', ( #186 ), #285 ) ;
#265 = ADVANCED_FACE ( 'NONE', ( #168 ), #95, .T. ) ;
#266 = DIMENSIONAL_EXPONENTS ( 1.000000000000000000, 0.0000000000000000000, 0.0000000000000000000, 0.0000000000000000000, 0.0000000000000000000, 0.0000000000000000000, 0.0000000000000000000 ) ;
#267 = ADVANCED_FACE ( 'NONE', ( #98 ), #100, .T. ) ;
#268 = AXIS2_PLACEMENT_3D ( 'NONE', #85, #181, #280 ) ;
#269 = ORIENTED_EDGE ( 'NONE', *, *, #15, .F. ) ;
#270 = CARTESIAN_POINT ( 'NONE',  ( -0.05905500000000001720, 0.0000000000000000000, 1.481062999999999574 ) ) ;
#271 = ORIENTED_EDGE ( 'NONE', *, *, #221, .F. ) ;
#272 = CIRCLE ( 'NONE', #146, 0.05899594499999999409 ) ;
#273 = FACE_OUTER_BOUND ( 'NONE', #132, .T. ) ;
#274 = ORIENTED_EDGE ( 'NONE', *, *, #116, .T. ) ;
#275 = PRESENTATION_STYLE_ASSIGNMENT (( #62 ) ) ;
#276 = VERTEX_POINT ( 'NONE', #218 ) ;
#277 = DIRECTION ( 'NONE',  ( 0.0000000000000000000, 0.0000000000000000000, 1.000000000000000000 ) ) ;
#278 = ORIENTED_EDGE ( 'NONE', *, *, #35, .F. ) ;
#279 = ORIENTED_EDGE ( 'NONE', *, *, #105, .T. ) ;
#280 = DIRECTION ( 'NONE',  ( -1.000000000000000000, 0.0000000000000000000, 0.0000000000000000000 ) ) ;
#281 = PRODUCT ( 'Micro_SFPM-030-20', 'Micro_SFPM-030-20', '', ( #169 ) ) ;
#282 = DIRECTION ( 'NONE',  ( -0.0000000000000000000, -0.0000000000000000000, -1.000000000000000000 ) ) ;
#283 = CARTESIAN_POINT ( 'NONE',  ( -0.05899594499999999409, 0.0000000000000000000, 1.444983904138465938E-17 ) ) ;
#284 = DIRECTION ( 'NONE',  ( -1.224646799147353207E-16, -0.0000000000000000000, -1.000000000000000000 ) ) ;
#285 = ADVANCED_BREP_SHAPE_REPRESENTATION ( 'Micro_SFPM-030-20', ( #207, #120 ), #51 ) ;
#286 = CIRCLE ( 'NONE', #36, 0.05905500000000001720 ) ;
#287 = DIRECTION ( 'NONE',  ( -1.224646799147353207E-16, -0.0000000000000000000, -1.000000000000000000 ) ) ;
#288 = ORIENTED_EDGE ( 'NONE', *, *, #140, .F. ) ;
#289 =( LENGTH_UNIT ( ) NAMED_UNIT ( * ) SI_UNIT ( $, .METRE. ) );
#290 = EDGE_CURVE ( 'NONE', #276, #50, #128, .T. ) ;
#291 = FACE_OUTER_BOUND ( 'NONE', #195, .T. ) ;
#292 = PRODUCT_DEFINITION_FORMATION_WITH_SPECIFIED_SOURCE ( 'ANY', '', #281, .NOT_KNOWN. ) ;
#293 =( CONVERSION_BASED_UNIT ( 'INCH', #89 ) LENGTH_UNIT ( ) NAMED_UNIT ( #294 ) );
#294 = DIMENSIONAL_EXPONENTS ( 1.000000000000000000, 0.0000000000000000000, 0.0000000000000000000, 0.0000000000000000000, 0.0000000000000000000, 0.0000000000000000000, 0.0000000000000000000 ) ;
#295 = CLOSED_SHELL ( 'NONE', ( #267, #76, #110, #57, #41, #251, #178, #190, #265, #158 ) ) ;
#296 = FACE_OUTER_BOUND ( 'NONE', #45, .T. ) ;
#297 = AXIS2_PLACEMENT_3D ( 'NONE', #235, #174, #192 ) ;
#298 = ORIENTED_EDGE ( 'NONE', *, *, #290, .T. ) ;
#299 = SURFACE_SIDE_STYLE ('',( #139 ) ) ;
ENDSEC;
END-ISO-10303-21;
