ISO-10303-21;
HEADER;
FILE_DESCRIPTION (( 'STEP AP214' ),
    '1' );
FILE_NAME ('Micro_SBMM-100-450X.STEP',
    '2021-09-02T17:23:27',
    ( '' ),
    ( '' ),
    'SwSTEP 2.0',
    'SolidWorks 2020',
    '' );
FILE_SCHEMA (( 'AUTOMOTIVE_DESIGN' ));
ENDSEC;

DATA;
#1 = ORIENTED_EDGE ( 'NONE', *, *, #256, .F. ) ;
#2 = PRODUCT_CONTEXT ( 'NONE', #285, 'mechanical' ) ;
#3 = FILL_AREA_STYLE ('',( #320 ) ) ;
#4 = CARTESIAN_POINT ( 'NONE',  ( 0.0000000000000000000, 0.0000000000000000000, 0.0000000000000000000 ) ) ;
#5 = MECHANICAL_DESIGN_GEOMETRIC_PRESENTATION_REPRESENTATION (  '', ( #257 ), #264 ) ;
#6 = DIRECTION ( 'NONE',  ( -0.0000000000000000000, -0.0000000000000000000, -1.000000000000000000 ) ) ;
#7 = ORIENTED_EDGE ( 'NONE', *, *, #259, .T. ) ;
#8 = LINE ( 'NONE', #326, #336 ) ;
#9 = DIRECTION ( 'NONE',  ( -1.000000000000000000, 0.0000000000000000000, 0.0000000000000000000 ) ) ;
#10 = CIRCLE ( 'NONE', #322, 0.1968504999999999838 ) ;
#11 = ORIENTED_EDGE ( 'NONE', *, *, #152, .T. ) ;
#12 = CYLINDRICAL_SURFACE ( 'NONE', #65, 0.1968504999999999838 ) ;
#13 = SURFACE_STYLE_FILL_AREA ( #69 ) ;
#14 = EDGE_LOOP ( 'NONE', ( #269, #28, #164, #167, #104 ) ) ;
#15 =( NAMED_UNIT ( * ) SI_UNIT ( $, .STERADIAN. ) SOLID_ANGLE_UNIT ( ) );
#16 = EDGE_CURVE ( 'NONE', #215, #86, #56, .T. ) ;
#17 = CONICAL_SURFACE ( 'NONE', #32, 0.1818504999999994431, 0.7853981633974403964 ) ;
#18 =( NAMED_UNIT ( * ) SI_UNIT ( $, .STERADIAN. ) SOLID_ANGLE_UNIT ( ) );
#19 = DIRECTION ( 'NONE',  ( 0.0000000000000000000, 0.0000000000000000000, 1.000000000000000000 ) ) ;
#20 = CARTESIAN_POINT ( 'NONE',  ( 0.0000000000000000000, 0.0000000000000000000, 0.1968500000000000250 ) ) ;
#21 = VERTEX_POINT ( 'NONE', #38 ) ;
#22 = DIRECTION ( 'NONE',  ( -1.224646799147353207E-16, 1.000000000000000000, 0.0000000000000000000 ) ) ;
#23 = EDGE_CURVE ( 'NONE', #188, #317, #46, .T. ) ;
#24 = ORIENTED_EDGE ( 'NONE', *, *, #337, .F. ) ;
#25 = AXIS2_PLACEMENT_3D ( 'NONE', #255, #19, #126 ) ;
#26 = CARTESIAN_POINT ( 'NONE',  ( 0.0000000000000000000, 0.1318899999999999795, 0.3429833309002433550 ) ) ;
#27 = CARTESIAN_POINT ( 'NONE',  ( 0.0000000000000000000, 0.0000000000000000000, 3.922007999999999051 ) ) ;
#28 = ORIENTED_EDGE ( 'NONE', *, *, #29, .T. ) ;
#29 = EDGE_CURVE ( 'NONE', #80, #21, #313, .T. ) ;
#30 = CARTESIAN_POINT ( 'NONE',  ( -0.2165355499999997713, 2.651795682091113752E-17, 2.430208303031071271 ) ) ;
#31 = ORIENTED_EDGE ( 'NONE', *, *, #120, .T. ) ;
#32 = AXIS2_PLACEMENT_3D ( 'NONE', #122, #311, #123 ) ;
#33 = LINE ( 'NONE', #279, #182 ) ;
#34 = DIRECTION ( 'NONE',  ( -0.0000000000000000000, -0.0000000000000000000, -1.000000000000000000 ) ) ;
#35 = ORIENTED_EDGE ( 'NONE', *, *, #23, .T. ) ;
#36 = CARTESIAN_POINT ( 'NONE',  ( 0.1318899999999998685, 1.615186663395442393E-17, 0.0000000000000000000 ) ) ;
#37 = DIMENSIONAL_EXPONENTS ( 1.000000000000000000, 0.0000000000000000000, 0.0000000000000000000, 0.0000000000000000000, 0.0000000000000000000, 0.0000000000000000000, 0.0000000000000000000 ) ;
#38 = CARTESIAN_POINT ( 'NONE',  ( -0.1318899999999997574, 2.012955005375500749E-17, 1.968503999999999809 ) ) ;
#39 = ADVANCED_FACE ( 'NONE', ( #68 ), #194, .T. ) ;
#40 = DIRECTION ( 'NONE',  ( -1.000000000000000000, 0.0000000000000000000, 0.0000000000000000000 ) ) ;
#41 = CARTESIAN_POINT ( 'NONE',  ( 0.0000000000000000000, 0.0000000000000000000, 0.1968500000000000250 ) ) ;
#42 = FACE_OUTER_BOUND ( 'NONE', #235, .T. ) ;
#43 = DIRECTION ( 'NONE',  ( 1.000000000000000000, 0.0000000000000000000, 0.0000000000000000000 ) ) ;
#44 = UNCERTAINTY_MEASURE_WITH_UNIT (LENGTH_MEASURE( 1.000000000000000082E-05 ), #203, 'distance_accuracy_value', 'NONE');
#45 = AXIS2_PLACEMENT_3D ( 'NONE', #62, #321, #266 ) ;
#46 = CIRCLE ( 'NONE', #253, 0.1968504999999999838 ) ;
#47 = AXIS2_PLACEMENT_3D ( 'NONE', #270, #87, #330 ) ;
#48 = PRODUCT_DEFINITION_SHAPE ( 'NONE', 'NONE',  #207 ) ;
#49 = AXIS2_PLACEMENT_3D ( 'NONE', #318, #79, #262 ) ;
#50 = AXIS2_PLACEMENT_3D ( 'NONE', #247, #67, #273 ) ;
#51 = CARTESIAN_POINT ( 'NONE',  ( 0.1818504999999994431, 2.318874837419505661E-17, 3.937007999999999619 ) ) ;
#52 = ADVANCED_FACE ( 'NONE', ( #143 ), #226, .T. ) ;
#53 = ORIENTED_EDGE ( 'NONE', *, *, #23, .F. ) ;
#54 = CARTESIAN_POINT ( 'NONE',  ( -0.1968504999999999838, 0.0000000000000000000, 2.322834999999999983 ) ) ;
#55 = VERTEX_POINT ( 'NONE', #221 ) ;
#56 = CIRCLE ( 'NONE', #179, 0.1968500000000000250 ) ;
#57 = CARTESIAN_POINT ( 'NONE',  ( -0.1318899999999998685, 0.0000000000000000000, 0.0000000000000000000 ) ) ;
#58 = ORIENTED_EDGE ( 'NONE', *, *, #337, .T. ) ;
#59 = EDGE_CURVE ( 'NONE', #80, #317, #33, .T. ) ;
#60 = LINE ( 'NONE', #30, #90 ) ;
#61 = VERTEX_POINT ( 'NONE', #281 ) ;
#62 = CARTESIAN_POINT ( 'NONE',  ( 0.0000000000000000000, 0.0000000000000000000, 0.3429833309002433550 ) ) ;
#63 = ORIENTED_EDGE ( 'NONE', *, *, #175, .F. ) ;
#64 = CARTESIAN_POINT ( 'NONE',  ( 0.0000000000000000000, 0.0000000000000000000, 3.937007999999999619 ) ) ;
#65 = AXIS2_PLACEMENT_3D ( 'NONE', #166, #114, #245 ) ;
#66 = DIRECTION ( 'NONE',  ( 1.000000000000000000, 0.0000000000000000000, 0.0000000000000000000 ) ) ;
#67 = DIRECTION ( 'NONE',  ( 0.0000000000000000000, 0.0000000000000000000, 1.000000000000000000 ) ) ;
#68 = FACE_OUTER_BOUND ( 'NONE', #217, .T. ) ;
#69 = FILL_AREA_STYLE ('',( #338 ) ) ;
#70 = COLOUR_RGB ( '',0.7921568627450980005, 0.8196078431372548767, 0.9333333333333333481 ) ;
#71 = AXIS2_PLACEMENT_3D ( 'NONE', #251, #96, #218 ) ;
#72 = DIRECTION ( 'NONE',  ( -0.0000000000000000000, -0.0000000000000000000, -1.000000000000000000 ) ) ;
#73 =( CONVERSION_BASED_UNIT ( 'INCH', #309 ) LENGTH_UNIT ( ) NAMED_UNIT ( #154 ) );
#74 = PRODUCT_RELATED_PRODUCT_CATEGORY ( 'part', '', ( #180 ) ) ;
#75 = AXIS2_PLACEMENT_3D ( 'NONE', #312, #72, #200 ) ;
#76 = FACE_OUTER_BOUND ( 'NONE', #298, .T. ) ;
#77 = ORIENTED_EDGE ( 'NONE', *, *, #142, .F. ) ;
#78 = SHAPE_DEFINITION_REPRESENTATION ( #48, #274 ) ;
#79 = DIRECTION ( 'NONE',  ( -0.0000000000000000000, -0.0000000000000000000, -1.000000000000000000 ) ) ;
#80 = VERTEX_POINT ( 'NONE', #272 ) ;
#81 = SURFACE_STYLE_FILL_AREA ( #3 ) ;
#82 = APPLICATION_PROTOCOL_DEFINITION ( 'draft international standard', 'automotive_design', 1998, #276 ) ;
#83 = PRESENTATION_STYLE_ASSIGNMENT (( #191 ) ) ;
#84 = VERTEX_POINT ( 'NONE', #99 ) ;
#85 = DIRECTION ( 'NONE',  ( 1.000000000000000000, 0.0000000000000000000, 0.0000000000000000000 ) ) ;
#86 = VERTEX_POINT ( 'NONE', #244 ) ;
#87 = DIRECTION ( 'NONE',  ( 0.0000000000000000000, 0.0000000000000000000, 1.000000000000000000 ) ) ;
#88 = DIRECTION ( 'NONE',  ( 0.1803273764767827636, 0.0000000000000000000, 0.9836066476457958618 ) ) ;
#89 = EDGE_CURVE ( 'NONE', #55, #265, #282, .T. ) ;
#90 = VECTOR ( 'NONE', #342, 39.37007874015747433 ) ;
#91 =( GEOMETRIC_REPRESENTATION_CONTEXT ( 3 ) GLOBAL_UNCERTAINTY_ASSIGNED_CONTEXT ( ( #204 ) ) GLOBAL_UNIT_ASSIGNED_CONTEXT ( ( #73, #150, #18 ) ) REPRESENTATION_CONTEXT ( 'NONE', 'WORKASPACE' ) );
#92 = STYLED_ITEM ( 'NONE', ( #227 ), #274 ) ;
#93 = EDGE_LOOP ( 'NONE', ( #77, #240, #172, #53 ) ) ;
#94 = CARTESIAN_POINT ( 'NONE',  ( -0.1818504999999994431, 0.0000000000000000000, 3.937007999999999619 ) ) ;
#95 = DIRECTION ( 'NONE',  ( 0.0000000000000000000, 0.0000000000000000000, 1.000000000000000000 ) ) ;
#96 = DIRECTION ( 'NONE',  ( 0.0000000000000000000, 0.0000000000000000000, 1.000000000000000000 ) ) ;
#97 =( LENGTH_UNIT ( ) NAMED_UNIT ( * ) SI_UNIT ( $, .METRE. ) );
#98 = ADVANCED_FACE ( 'NONE', ( #327 ), #192, .T. ) ;
#99 = CARTESIAN_POINT ( 'NONE',  ( 0.1318899999999999517, 1.615186663395443625E-17, 0.3429833309002433550 ) ) ;
#100 = APPLICATION_PROTOCOL_DEFINITION ( 'draft international standard', 'automotive_design', 1998, #285 ) ;
#101 = PLANE ( 'NONE',  #214 ) ;
#102 = VERTEX_POINT ( 'NONE', #260 ) ;
#103 = FACE_OUTER_BOUND ( 'NONE', #297, .T. ) ;
#104 = ORIENTED_EDGE ( 'NONE', *, *, #344, .F. ) ;
#105 = DIRECTION ( 'NONE',  ( -1.000000000000000000, 0.0000000000000000000, 0.0000000000000000000 ) ) ;
#106 = ORIENTED_EDGE ( 'NONE', *, *, #108, .T. ) ;
#107 = LINE ( 'NONE', #133, #222 ) ;
#108 = EDGE_CURVE ( 'NONE', #102, #215, #193, .T. ) ;
#109 = AXIS2_PLACEMENT_3D ( 'NONE', #41, #149, #115 ) ;
#110 = DIRECTION ( 'NONE',  ( 0.0000000000000000000, 0.0000000000000000000, -1.000000000000000000 ) ) ;
#111 = ORIENTED_EDGE ( 'NONE', *, *, #256, .T. ) ;
#112 = CARTESIAN_POINT ( 'NONE',  ( 0.1968504999999999838, 2.410723347355560646E-17, 2.322834999999999983 ) ) ;
#113 = DIRECTION ( 'NONE',  ( 0.0000000000000000000, 0.0000000000000000000, -1.000000000000000000 ) ) ;
#114 = DIRECTION ( 'NONE',  ( -0.0000000000000000000, -0.0000000000000000000, -1.000000000000000000 ) ) ;
#115 = DIRECTION ( 'NONE',  ( 0.0000000000000000000, 1.000000000000000000, 0.0000000000000000000 ) ) ;
#116 = AXIS2_PLACEMENT_3D ( 'NONE', #163, #315, #241 ) ;
#117 =( LENGTH_UNIT ( ) NAMED_UNIT ( * ) SI_UNIT ( $, .METRE. ) );
#118 = ORIENTED_EDGE ( 'NONE', *, *, #344, .T. ) ;
#119 = DIRECTION ( 'NONE',  ( -0.0000000000000000000, -0.0000000000000000000, -1.000000000000000000 ) ) ;
#120 = EDGE_CURVE ( 'NONE', #61, #86, #310, .T. ) ;
#121 = EDGE_LOOP ( 'NONE', ( #343, #243, #106, #162 ) ) ;
#122 = CARTESIAN_POINT ( 'NONE',  ( 0.0000000000000000000, 0.0000000000000000000, 3.937007999999999619 ) ) ;
#123 = DIRECTION ( 'NONE',  ( -1.000000000000000000, 0.0000000000000000000, 0.0000000000000000000 ) ) ;
#124 = CIRCLE ( 'NONE', #314, 0.1318899999999999517 ) ;
#125 = CIRCLE ( 'NONE', #50, 0.1818504999999994431 ) ;
#126 = DIRECTION ( 'NONE',  ( 1.000000000000000000, 0.0000000000000000000, 0.0000000000000000000 ) ) ;
#127 = AXIS2_PLACEMENT_3D ( 'NONE', #4, #165, #293 ) ;
#128 = DIRECTION ( 'NONE',  ( 1.000000000000000000, 0.0000000000000000000, 0.0000000000000000000 ) ) ;
#129 = ORIENTED_EDGE ( 'NONE', *, *, #59, .F. ) ;
#130 = DIRECTION ( 'NONE',  ( 0.0000000000000000000, 0.0000000000000000000, 1.000000000000000000 ) ) ;
#131 = CIRCLE ( 'NONE', #168, 0.1318899999999997574 ) ;
#132 = ORIENTED_EDGE ( 'NONE', *, *, #187, .T. ) ;
#133 = CARTESIAN_POINT ( 'NONE',  ( -0.1818504999999994431, 0.0000000000000000000, 3.937007999999999619 ) ) ;
#134 = ORIENTED_EDGE ( 'NONE', *, *, #108, .F. ) ;
#135 = EDGE_CURVE ( 'NONE', #21, #102, #157, .T. ) ;
#136 = CYLINDRICAL_SURFACE ( 'NONE', #49, 0.1318899999999998685 ) ;
#137 = ORIENTED_EDGE ( 'NONE', *, *, #152, .F. ) ;
#138 = DIRECTION ( 'NONE',  ( -1.000000000000000000, 0.0000000000000000000, 0.0000000000000000000 ) ) ;
#139 = ORIENTED_EDGE ( 'NONE', *, *, #231, .F. ) ;
#140 = CONICAL_SURFACE ( 'NONE', #47, 0.2165355499999997713, 0.1813192738195756881 ) ;
#141 = DIRECTION ( 'NONE',  ( 0.7071067811865419106, 8.659560562354863833E-17, -0.7071067811865531239 ) ) ;
#142 = EDGE_CURVE ( 'NONE', #21, #188, #60, .T. ) ;
#143 = FACE_OUTER_BOUND ( 'NONE', #121, .T. ) ;
#144 =( CONVERSION_BASED_UNIT ( 'INCH', #305 ) LENGTH_UNIT ( ) NAMED_UNIT ( #290 ) );
#145 = DIRECTION ( 'NONE',  ( 0.0000000000000000000, 0.0000000000000000000, 1.000000000000000000 ) ) ;
#146 = CARTESIAN_POINT ( 'NONE',  ( 0.0000000000000000000, 0.0000000000000000000, 3.922007999999999051 ) ) ;
#147 = AXIS2_PLACEMENT_3D ( 'NONE', #20, #128, #230 ) ;
#148 = FACE_OUTER_BOUND ( 'NONE', #158, .T. ) ;
#149 = DIRECTION ( 'NONE',  ( 1.000000000000000000, 0.0000000000000000000, 0.0000000000000000000 ) ) ;
#150 =( NAMED_UNIT ( * ) PLANE_ANGLE_UNIT ( ) SI_UNIT ( $, .RADIAN. ) );
#151 = PRESENTATION_LAYER_ASSIGNMENT (  '', '', ( #92 ) ) ;
#152 = EDGE_CURVE ( 'NONE', #277, #265, #107, .T. ) ;
#153 =( NAMED_UNIT ( * ) PLANE_ANGLE_UNIT ( ) SI_UNIT ( $, .RADIAN. ) );
#154 = DIMENSIONAL_EXPONENTS ( 1.000000000000000000, 0.0000000000000000000, 0.0000000000000000000, 0.0000000000000000000, 0.0000000000000000000, 0.0000000000000000000, 0.0000000000000000000 ) ;
#155 = EDGE_CURVE ( 'NONE', #215, #84, #124, .T. ) ;
#156 = PRESENTATION_LAYER_ASSIGNMENT (  '', '', ( #257 ) ) ;
#157 = LINE ( 'NONE', #57, #233 ) ;
#158 = EDGE_LOOP ( 'NONE', ( #139, #300, #252, #129 ) ) ;
#159 = FACE_OUTER_BOUND ( 'NONE', #209, .T. ) ;
#160 = EDGE_CURVE ( 'NONE', #317, #188, #263, .T. ) ;
#161 = AXIS2_PLACEMENT_3D ( 'NONE', #299, #345, #22 ) ;
#162 = ORIENTED_EDGE ( 'NONE', *, *, #16, .T. ) ;
#163 = CARTESIAN_POINT ( 'NONE',  ( 0.0000000000000000000, 0.0000000000000000000, 2.322834999999999983 ) ) ;
#164 = ORIENTED_EDGE ( 'NONE', *, *, #135, .T. ) ;
#165 = DIRECTION ( 'NONE',  ( -0.0000000000000000000, -0.0000000000000000000, -1.000000000000000000 ) ) ;
#166 = CARTESIAN_POINT ( 'NONE',  ( 0.0000000000000000000, 0.0000000000000000000, 3.937007999999999619 ) ) ;
#167 = ORIENTED_EDGE ( 'NONE', *, *, #284, .F. ) ;
#168 = AXIS2_PLACEMENT_3D ( 'NONE', #324, #6, #40 ) ;
#169 = DIRECTION ( 'NONE',  ( 0.0000000000000000000, 0.0000000000000000000, 1.000000000000000000 ) ) ;
#170 = ORIENTED_EDGE ( 'NONE', *, *, #155, .F. ) ;
#171 = CARTESIAN_POINT ( 'NONE',  ( -0.1968504999999999838, 0.0000000000000000000, 3.922007999999999051 ) ) ;
#172 = ORIENTED_EDGE ( 'NONE', *, *, #59, .T. ) ;
#173 = DIRECTION ( 'NONE',  ( -1.000000000000000000, 0.0000000000000000000, 0.0000000000000000000 ) ) ;
#174 = CARTESIAN_POINT ( 'NONE',  ( 0.0000000000000000000, 0.0000000000000000000, 0.1968500000000000250 ) ) ;
#175 = EDGE_CURVE ( 'NONE', #265, #55, #10, .T. ) ;
#176 = AXIS2_PLACEMENT_3D ( 'NONE', #208, #186, #105 ) ;
#177 =( LENGTH_UNIT ( ) NAMED_UNIT ( * ) SI_UNIT ( $, .METRE. ) );
#178 = VECTOR ( 'NONE', #34, 39.37007874015748143 ) ;
#179 = AXIS2_PLACEMENT_3D ( 'NONE', #174, #331, #145 ) ;
#180 = PRODUCT ( 'Micro_SBMM-100-450X', 'Micro_SBMM-100-450X', '', ( #2 ) ) ;
#181 = UNCERTAINTY_MEASURE_WITH_UNIT (LENGTH_MEASURE( 1.000000000000000082E-05 ), #144, 'distance_accuracy_value', 'NONE');
#182 = VECTOR ( 'NONE', #88, 39.37007874015747433 ) ;
#183 = CIRCLE ( 'NONE', #316, 0.1818504999999994431 ) ;
#184 = CARTESIAN_POINT ( 'NONE',  ( 0.0000000000000000000, 0.0000000000000000000, 0.3429833309002433550 ) ) ;
#185 = ORIENTED_EDGE ( 'NONE', *, *, #155, .T. ) ;
#186 = DIRECTION ( 'NONE',  ( -0.0000000000000000000, -0.0000000000000000000, -1.000000000000000000 ) ) ;
#187 = EDGE_CURVE ( 'NONE', #55, #317, #232, .T. ) ;
#188 = VERTEX_POINT ( 'NONE', #54 ) ;
#189 = DIRECTION ( 'NONE',  ( -0.0000000000000000000, -0.0000000000000000000, -1.000000000000000000 ) ) ;
#190 = ADVANCED_FACE ( 'NONE', ( #76 ), #258, .T. ) ;
#191 = SURFACE_STYLE_USAGE ( .BOTH. , #212 ) ;
#192 = CYLINDRICAL_SURFACE ( 'NONE', #127, 0.1318899999999998685 ) ;
#193 = CIRCLE ( 'NONE', #45, 0.1318899999999999517 ) ;
#194 = CONICAL_SURFACE ( 'NONE', #341, 0.1818504999999994431, 0.7853981633974403964 ) ;
#195 = COLOUR_RGB ( '',0.7921568627450980005, 0.8196078431372548767, 0.9333333333333333481 ) ;
#196 = DIRECTION ( 'NONE',  ( -1.000000000000000000, 0.0000000000000000000, 0.0000000000000000000 ) ) ;
#197 = FACE_OUTER_BOUND ( 'NONE', #93, .T. ) ;
#198 = ADVANCED_FACE ( 'NONE', ( #159 ), #101, .T. ) ;
#199 = ORIENTED_EDGE ( 'NONE', *, *, #289, .F. ) ;
#200 = DIRECTION ( 'NONE',  ( -1.000000000000000000, 0.0000000000000000000, 0.0000000000000000000 ) ) ;
#201 = VERTEX_POINT ( 'NONE', #51 ) ;
#202 = ADVANCED_FACE ( 'NONE', ( #103 ), #268, .T. ) ;
#203 =( CONVERSION_BASED_UNIT ( 'INCH', #288 ) LENGTH_UNIT ( ) NAMED_UNIT ( #37 ) );
#204 = UNCERTAINTY_MEASURE_WITH_UNIT (LENGTH_MEASURE( 1.000000000000000082E-05 ), #73, 'distance_accuracy_value', 'NONE');
#205 = VECTOR ( 'NONE', #141, 39.37007874015748143 ) ;
#206 = DIRECTION ( 'NONE',  ( -0.7071067811865419106, 0.0000000000000000000, -0.7071067811865531239 ) ) ;
#207 = PRODUCT_DEFINITION ( 'UNKNOWN', '', #234, #287 ) ;
#208 = CARTESIAN_POINT ( 'NONE',  ( 0.0000000000000000000, 0.0000000000000000000, 3.937007999999999619 ) ) ;
#209 = EDGE_LOOP ( 'NONE', ( #58, #111 ) ) ;
#210 = FACE_OUTER_BOUND ( 'NONE', #14, .T. ) ;
#211 = ORIENTED_EDGE ( 'NONE', *, *, #16, .F. ) ;
#212 = SURFACE_SIDE_STYLE ('',( #81 ) ) ;
#213 = ADVANCED_FACE ( 'NONE', ( #210 ), #136, .T. ) ;
#214 = AXIS2_PLACEMENT_3D ( 'NONE', #236, #130, #216 ) ;
#215 = VERTEX_POINT ( 'NONE', #26 ) ;
#216 = DIRECTION ( 'NONE',  ( 1.000000000000000000, 0.0000000000000000000, -0.0000000000000000000 ) ) ;
#217 = EDGE_LOOP ( 'NONE', ( #1, #294, #63, #137 ) ) ;
#218 = DIRECTION ( 'NONE',  ( 1.000000000000000000, 0.0000000000000000000, 0.0000000000000000000 ) ) ;
#219 = DIRECTION ( 'NONE',  ( 1.000000000000000000, 0.0000000000000000000, 0.0000000000000000000 ) ) ;
#220 = FACE_OUTER_BOUND ( 'NONE', #261, .T. ) ;
#221 = CARTESIAN_POINT ( 'NONE',  ( 0.1968504999999999838, 2.410723347355560646E-17, 3.922007999999999051 ) ) ;
#222 = VECTOR ( 'NONE', #206, 39.37007874015748143 ) ;
#223 =( NAMED_UNIT ( * ) SI_UNIT ( $, .STERADIAN. ) SOLID_ANGLE_UNIT ( ) );
#224 = ORIENTED_EDGE ( 'NONE', *, *, #333, .F. ) ;
#225 = SURFACE_STYLE_USAGE ( .BOTH. , #286 ) ;
#226 = SPHERICAL_SURFACE ( 'NONE', #109, 0.1968500000000000250 ) ;
#227 = PRESENTATION_STYLE_ASSIGNMENT (( #225 ) ) ;
#228 = MECHANICAL_DESIGN_GEOMETRIC_PRESENTATION_REPRESENTATION (  '', ( #92 ), #250 ) ;
#229 = MANIFOLD_SOLID_BREP ( 'Cut-Revolve3', #271 ) ;
#230 = DIRECTION ( 'NONE',  ( 0.0000000000000000000, 1.000000000000000000, 0.0000000000000000000 ) ) ;
#231 = EDGE_CURVE ( 'NONE', #21, #80, #131, .T. ) ;
#232 = LINE ( 'NONE', #291, #296 ) ;
#233 = VECTOR ( 'NONE', #189, 39.37007874015748143 ) ;
#234 = PRODUCT_DEFINITION_FORMATION_WITH_SPECIFIED_SOURCE ( 'ANY', '', #180, .NOT_KNOWN. ) ;
#235 = EDGE_LOOP ( 'NONE', ( #199, #24, #11, #237 ) ) ;
#236 = CARTESIAN_POINT ( 'NONE',  ( 0.0000000000000000000, 0.0000000000000000000, 3.937007999999999619 ) ) ;
#237 = ORIENTED_EDGE ( 'NONE', *, *, #89, .F. ) ;
#238 = ADVANCED_FACE ( 'NONE', ( #197 ), #140, .T. ) ;
#239 = DIRECTION ( 'NONE',  ( -0.0000000000000000000, -0.0000000000000000000, -1.000000000000000000 ) ) ;
#240 = ORIENTED_EDGE ( 'NONE', *, *, #29, .F. ) ;
#241 = DIRECTION ( 'NONE',  ( 1.000000000000000000, 0.0000000000000000000, 0.0000000000000000000 ) ) ;
#242 = AXIS2_PLACEMENT_3D ( 'NONE', #328, #119, #173 ) ;
#243 = ORIENTED_EDGE ( 'NONE', *, *, #284, .T. ) ;
#244 = CARTESIAN_POINT ( 'NONE',  ( 0.0000000000000000000, 1.205358612060782468E-17, 0.0000000000000000000 ) ) ;
#245 = DIRECTION ( 'NONE',  ( -1.000000000000000000, 0.0000000000000000000, 0.0000000000000000000 ) ) ;
#246 = CARTESIAN_POINT ( 'NONE',  ( 0.0000000000000000000, 0.0000000000000000000, 1.968503999999999809 ) ) ;
#247 = CARTESIAN_POINT ( 'NONE',  ( 0.0000000000000000000, 0.0000000000000000000, 3.937007999999999619 ) ) ;
#248 = EDGE_LOOP ( 'NONE', ( #292, #7, #170, #134, #267 ) ) ;
#249 = AXIS2_PLACEMENT_3D ( 'NONE', #146, #113, #219 ) ;
#250 =( GEOMETRIC_REPRESENTATION_CONTEXT ( 3 ) GLOBAL_UNCERTAINTY_ASSIGNED_CONTEXT ( ( #44 ) ) GLOBAL_UNIT_ASSIGNED_CONTEXT ( ( #203, #153, #15 ) ) REPRESENTATION_CONTEXT ( 'NONE', 'WORKASPACE' ) );
#251 = CARTESIAN_POINT ( 'NONE',  ( 0.0000000000000000000, 0.0000000000000000000, 2.430208303031071271 ) ) ;
#252 = ORIENTED_EDGE ( 'NONE', *, *, #160, .F. ) ;
#253 = AXIS2_PLACEMENT_3D ( 'NONE', #308, #95, #66 ) ;
#254 = CONICAL_SURFACE ( 'NONE', #71, 0.2165355499999997713, 0.1813192738195756881 ) ;
#255 = CARTESIAN_POINT ( 'NONE',  ( 0.0000000000000000000, 0.0000000000000000000, 0.0000000000000000000 ) ) ;
#256 = EDGE_CURVE ( 'NONE', #201, #277, #125, .T. ) ;
#257 = STYLED_ITEM ( 'NONE', ( #83 ), #229 ) ;
#258 = SPHERICAL_SURFACE ( 'NONE', #147, 0.1968500000000000250 ) ;
#259 = EDGE_CURVE ( 'NONE', #80, #84, #332, .T. ) ;
#260 = CARTESIAN_POINT ( 'NONE',  ( -0.1318899999999999517, 0.0000000000000000000, 0.3429833309002433550 ) ) ;
#261 = EDGE_LOOP ( 'NONE', ( #340, #319, #325, #35 ) ) ;
#262 = DIRECTION ( 'NONE',  ( -1.000000000000000000, 0.0000000000000000000, 0.0000000000000000000 ) ) ;
#263 = CIRCLE ( 'NONE', #116, 0.1968504999999999838 ) ;
#264 =( GEOMETRIC_REPRESENTATION_CONTEXT ( 3 ) GLOBAL_UNCERTAINTY_ASSIGNED_CONTEXT ( ( #181 ) ) GLOBAL_UNIT_ASSIGNED_CONTEXT ( ( #144, #278, #223 ) ) REPRESENTATION_CONTEXT ( 'NONE', 'WORKASPACE' ) );
#265 = VERTEX_POINT ( 'NONE', #171 ) ;
#266 = DIRECTION ( 'NONE',  ( -1.000000000000000000, 0.0000000000000000000, 0.0000000000000000000 ) ) ;
#267 = ORIENTED_EDGE ( 'NONE', *, *, #135, .F. ) ;
#268 = CYLINDRICAL_SURFACE ( 'NONE', #176, 0.1968504999999999838 ) ;
#269 = ORIENTED_EDGE ( 'NONE', *, *, #259, .F. ) ;
#270 = CARTESIAN_POINT ( 'NONE',  ( 0.0000000000000000000, 0.0000000000000000000, 2.430208303031071271 ) ) ;
#271 = CLOSED_SHELL ( 'NONE', ( #98, #190, #301, #39, #202, #275, #198, #339, #238, #52, #213 ) ) ;
#272 = CARTESIAN_POINT ( 'NONE',  ( 0.1318899999999997574, 0.0000000000000000000, 1.968503999999999809 ) ) ;
#273 = DIRECTION ( 'NONE',  ( 1.000000000000000000, 0.0000000000000000000, 0.0000000000000000000 ) ) ;
#274 = ADVANCED_BREP_SHAPE_REPRESENTATION ( 'Micro_SBMM-100-450X', ( #229, #25 ), #91 ) ;
#275 = ADVANCED_FACE ( 'NONE', ( #220 ), #12, .T. ) ;
#276 = APPLICATION_CONTEXT ( 'automotive_design' ) ;
#277 = VERTEX_POINT ( 'NONE', #94 ) ;
#278 =( NAMED_UNIT ( * ) PLANE_ANGLE_UNIT ( ) SI_UNIT ( $, .RADIAN. ) );
#279 = CARTESIAN_POINT ( 'NONE',  ( 0.2165355499999997713, 0.0000000000000000000, 2.430208303031071271 ) ) ;
#280 = CARTESIAN_POINT ( 'NONE',  ( 0.1818504999999994431, 2.227026327483450676E-17, 3.937007999999999619 ) ) ;
#281 = CARTESIAN_POINT ( 'NONE',  ( 1.615186663395443625E-17, -0.1318899999999999795, 0.3429833309002433550 ) ) ;
#282 = CIRCLE ( 'NONE', #249, 0.1968504999999999838 ) ;
#283 = CIRCLE ( 'NONE', #242, 0.1318899999999999517 ) ;
#284 = EDGE_CURVE ( 'NONE', #61, #102, #283, .T. ) ;
#285 = APPLICATION_CONTEXT ( 'automotive_design' ) ;
#286 = SURFACE_SIDE_STYLE ('',( #13 ) ) ;
#287 = PRODUCT_DEFINITION_CONTEXT ( 'detailed design', #276, 'design' ) ;
#288 = LENGTH_MEASURE_WITH_UNIT ( LENGTH_MEASURE( 0.02539999999999999897 ), #97 );
#289 = EDGE_CURVE ( 'NONE', #201, #55, #307, .T. ) ;
#290 = DIMENSIONAL_EXPONENTS ( 1.000000000000000000, 0.0000000000000000000, 0.0000000000000000000, 0.0000000000000000000, 0.0000000000000000000, 0.0000000000000000000, 0.0000000000000000000 ) ;
#291 = CARTESIAN_POINT ( 'NONE',  ( 0.1968504999999999838, 2.410723347355560646E-17, 3.937007999999999619 ) ) ;
#292 = ORIENTED_EDGE ( 'NONE', *, *, #231, .T. ) ;
#293 = DIRECTION ( 'NONE',  ( -1.000000000000000000, 0.0000000000000000000, 0.0000000000000000000 ) ) ;
#294 = ORIENTED_EDGE ( 'NONE', *, *, #289, .T. ) ;
#295 = DIRECTION ( 'NONE',  ( -0.0000000000000000000, -0.0000000000000000000, -1.000000000000000000 ) ) ;
#296 = VECTOR ( 'NONE', #239, 39.37007874015748143 ) ;
#297 = EDGE_LOOP ( 'NONE', ( #323, #132, #329, #224 ) ) ;
#298 = EDGE_LOOP ( 'NONE', ( #185, #118, #31, #211 ) ) ;
#299 = CARTESIAN_POINT ( 'NONE',  ( 0.0000000000000000000, 0.0000000000000000000, 0.1968500000000000250 ) ) ;
#300 = ORIENTED_EDGE ( 'NONE', *, *, #142, .T. ) ;
#301 = ADVANCED_FACE ( 'NONE', ( #148 ), #254, .T. ) ;
#302 = DIRECTION ( 'NONE',  ( -0.0000000000000000000, -0.0000000000000000000, -1.000000000000000000 ) ) ;
#303 = CIRCLE ( 'NONE', #75, 0.1318899999999999517 ) ;
#304 = DIRECTION ( 'NONE',  ( 0.0000000000000000000, 0.0000000000000000000, -1.000000000000000000 ) ) ;
#305 = LENGTH_MEASURE_WITH_UNIT ( LENGTH_MEASURE( 0.02539999999999999897 ), #117 );
#306 = CARTESIAN_POINT ( 'NONE',  ( 0.0000000000000000000, 0.0000000000000000000, 3.937007999999999619 ) ) ;
#307 = LINE ( 'NONE', #280, #205 ) ;
#308 = CARTESIAN_POINT ( 'NONE',  ( 0.0000000000000000000, 0.0000000000000000000, 2.322834999999999983 ) ) ;
#309 = LENGTH_MEASURE_WITH_UNIT ( LENGTH_MEASURE( 0.02539999999999999897 ), #177 );
#310 = CIRCLE ( 'NONE', #161, 0.1968500000000000250 ) ;
#311 = DIRECTION ( 'NONE',  ( 0.0000000000000000000, 0.0000000000000000000, -1.000000000000000000 ) ) ;
#312 = CARTESIAN_POINT ( 'NONE',  ( 0.0000000000000000000, 0.0000000000000000000, 0.3429833309002433550 ) ) ;
#313 = CIRCLE ( 'NONE', #335, 0.1318899999999997574 ) ;
#314 = AXIS2_PLACEMENT_3D ( 'NONE', #184, #295, #138 ) ;
#315 = DIRECTION ( 'NONE',  ( 0.0000000000000000000, 0.0000000000000000000, 1.000000000000000000 ) ) ;
#316 = AXIS2_PLACEMENT_3D ( 'NONE', #64, #169, #43 ) ;
#317 = VERTEX_POINT ( 'NONE', #112 ) ;
#318 = CARTESIAN_POINT ( 'NONE',  ( 0.0000000000000000000, 0.0000000000000000000, 0.0000000000000000000 ) ) ;
#319 = ORIENTED_EDGE ( 'NONE', *, *, #89, .T. ) ;
#320 = FILL_AREA_STYLE_COLOUR ( '', #70 ) ;
#321 = DIRECTION ( 'NONE',  ( -0.0000000000000000000, -0.0000000000000000000, -1.000000000000000000 ) ) ;
#322 = AXIS2_PLACEMENT_3D ( 'NONE', #27, #110, #85 ) ;
#323 = ORIENTED_EDGE ( 'NONE', *, *, #175, .T. ) ;
#324 = CARTESIAN_POINT ( 'NONE',  ( 0.0000000000000000000, 0.0000000000000000000, 1.968503999999999809 ) ) ;
#325 = ORIENTED_EDGE ( 'NONE', *, *, #333, .T. ) ;
#326 = CARTESIAN_POINT ( 'NONE',  ( -0.1968504999999999838, 0.0000000000000000000, 3.937007999999999619 ) ) ;
#327 = FACE_OUTER_BOUND ( 'NONE', #248, .T. ) ;
#328 = CARTESIAN_POINT ( 'NONE',  ( 0.0000000000000000000, 0.0000000000000000000, 0.3429833309002433550 ) ) ;
#329 = ORIENTED_EDGE ( 'NONE', *, *, #160, .T. ) ;
#330 = DIRECTION ( 'NONE',  ( 1.000000000000000000, 0.0000000000000000000, 0.0000000000000000000 ) ) ;
#331 = DIRECTION ( 'NONE',  ( -1.000000000000000000, 0.0000000000000000000, 0.0000000000000000000 ) ) ;
#332 = LINE ( 'NONE', #36, #178 ) ;
#333 = EDGE_CURVE ( 'NONE', #265, #188, #8, .T. ) ;
#334 = DIRECTION ( 'NONE',  ( -0.0000000000000000000, -0.0000000000000000000, -1.000000000000000000 ) ) ;
#335 = AXIS2_PLACEMENT_3D ( 'NONE', #246, #334, #196 ) ;
#336 = VECTOR ( 'NONE', #302, 39.37007874015748143 ) ;
#337 = EDGE_CURVE ( 'NONE', #277, #201, #183, .T. ) ;
#338 = FILL_AREA_STYLE_COLOUR ( '', #195 ) ;
#339 = ADVANCED_FACE ( 'NONE', ( #42 ), #17, .T. ) ;
#340 = ORIENTED_EDGE ( 'NONE', *, *, #187, .F. ) ;
#341 = AXIS2_PLACEMENT_3D ( 'NONE', #306, #304, #9 ) ;
#342 = DIRECTION ( 'NONE',  ( -0.1803273764767827636, 2.208373444009317402E-17, 0.9836066476457958618 ) ) ;
#343 = ORIENTED_EDGE ( 'NONE', *, *, #120, .F. ) ;
#344 = EDGE_CURVE ( 'NONE', #84, #61, #303, .T. ) ;
#345 = DIRECTION ( 'NONE',  ( 1.000000000000000000, 1.224646799147353207E-16, -0.0000000000000000000 ) ) ;
ENDSEC;
END-ISO-10303-21;
