ISO-10303-21;
HEADER;
FILE_DESCRIPTION (( 'STEP AP214' ),
    '1' );
FILE_NAME ('03407.STEP',
    '2023-06-22T15:17:04',
    ( '' ),
    ( '' ),
    'SwSTEP 2.0',
    'SolidWorks 2023',
    '' );
FILE_SCHEMA (( 'AUTOMOTIVE_DESIGN' ));
ENDSEC;

DATA;
#1 = FILL_AREA_STYLE_COLOUR ( '', #213 ) ;
#2 = CARTESIAN_POINT ( 'NONE',  ( 0.1875000000000000278, 2.500000000000000000, 2.296212748401288650E-17 ) ) ;
#3 = PRESENTATION_LAYER_ASSIGNMENT (  '', '', ( #138 ) ) ;
#4 = UNCERTAINTY_MEASURE_WITH_UNIT (LENGTH_MEASURE( 1.000000000000000082E-05 ), #242, 'distance_accuracy_value', 'NONE');
#5 = ORIENTED_EDGE ( 'NONE', *, *, #164, .F. ) ;
#6 = DIRECTION ( 'NONE',  ( 0.000000000000000000, 0.000000000000000000, -1.000000000000000000 ) ) ;
#7 = STYLED_ITEM ( 'NONE', ( #178 ), #30 ) ;
#8 =( GEOMETRIC_REPRESENTATION_CONTEXT ( 3 ) GLOBAL_UNCERTAINTY_ASSIGNED_CONTEXT ( ( #258 ) ) GLOBAL_UNIT_ASSIGNED_CONTEXT ( ( #21, #287, #289 ) ) REPRESENTATION_CONTEXT ( 'NONE', 'WORKASPACE' ) );
#9 = SURFACE_SIDE_STYLE ('',( #169 ) ) ;
#10 = LINE ( 'NONE', #173, #22 ) ;
#11 = DIRECTION ( 'NONE',  ( -1.000000000000000000, -4.898587196589412459E-17, 0.000000000000000000 ) ) ;
#12 = DIRECTION ( 'NONE',  ( 0.000000000000000000, 0.000000000000000000, 1.000000000000000000 ) ) ;
#13 = ORIENTED_EDGE ( 'NONE', *, *, #92, .T. ) ;
#14 = CARTESIAN_POINT ( 'NONE',  ( -0.1875000000000002220, 5.000000000000000000, 0.000000000000000000 ) ) ;
#15 = ORIENTED_EDGE ( 'NONE', *, *, #279, .T. ) ;
#16 = PRODUCT_DEFINITION_FORMATION_WITH_SPECIFIED_SOURCE ( 'ANY', '', #255, .NOT_KNOWN. ) ;
#17 = DIRECTION ( 'NONE',  ( -4.898587196589412459E-17, 1.000000000000000000, -0.000000000000000000 ) ) ;
#18 = DIRECTION ( 'NONE',  ( 0.000000000000000000, 0.000000000000000000, -1.000000000000000000 ) ) ;
#19 = CYLINDRICAL_SURFACE ( 'NONE', #128, 0.1875000000000000278 ) ;
#20 = SURFACE_SIDE_STYLE ('',( #96 ) ) ;
#21 =( CONVERSION_BASED_UNIT ( 'INCH', #225 ) LENGTH_UNIT ( ) NAMED_UNIT ( #309 ) );
#22 = VECTOR ( 'NONE', #17, 39.37007874015748143 ) ;
#23 = EDGE_CURVE ( 'NONE', #109, #218, #10, .T. ) ;
#24 = FILL_AREA_STYLE ('',( #1 ) ) ;
#25 = DIRECTION ( 'NONE',  ( 0.000000000000000000, 0.000000000000000000, -1.000000000000000000 ) ) ;
#26 = AXIS2_PLACEMENT_3D ( 'NONE', #103, #296, #81 ) ;
#27 = STYLED_ITEM ( 'NONE', ( #267 ), #281 ) ;
#28 = ADVANCED_FACE ( 'NONE', ( #193 ), #68, .T. ) ;
#29 =( GEOMETRIC_REPRESENTATION_CONTEXT ( 3 ) GLOBAL_UNCERTAINTY_ASSIGNED_CONTEXT ( ( #4 ) ) GLOBAL_UNIT_ASSIGNED_CONTEXT ( ( #242, #189, #217 ) ) REPRESENTATION_CONTEXT ( 'NONE', 'WORKASPACE' ) );
#30 = ADVANCED_FACE ( 'NONE', ( #115 ), #273, .T. ) ;
#31 = ORIENTED_EDGE ( 'NONE', *, *, #23, .F. ) ;
#32 = PRODUCT_RELATED_PRODUCT_CATEGORY ( 'part', '', ( #255 ) ) ;
#33 =( LENGTH_UNIT ( ) NAMED_UNIT ( * ) SI_UNIT ( $, .METRE. ) );
#34 =( CONVERSION_BASED_UNIT ( 'INCH', #70 ) LENGTH_UNIT ( ) NAMED_UNIT ( #161 ) );
#35 = SURFACE_STYLE_USAGE ( .BOTH. , #89 ) ;
#36 = LENGTH_MEASURE_WITH_UNIT ( LENGTH_MEASURE( 0.02539999999999999897 ), #33 );
#37 = ORIENTED_EDGE ( 'NONE', *, *, #23, .T. ) ;
#38 = CARTESIAN_POINT ( 'NONE',  ( 0.1875000000000000278, 5.000000000000000000, 2.296212748401288650E-17 ) ) ;
#39 = CIRCLE ( 'NONE', #104, 0.1875000000000000278 ) ;
#40 = ORIENTED_EDGE ( 'NONE', *, *, #132, .T. ) ;
#41 = CARTESIAN_POINT ( 'NONE',  ( 0.000000000000000000, 0.000000000000000000, -0.1875000000000000278 ) ) ;
#42 = VERTEX_POINT ( 'NONE', #74 ) ;
#43 = CARTESIAN_POINT ( 'NONE',  ( 0.1875000000000000278, 5.000000000000000000, 0.000000000000000000 ) ) ;
#44 = AXIS2_PLACEMENT_3D ( 'NONE', #175, #171, #6 ) ;
#45 = DIRECTION ( 'NONE',  ( -0.000000000000000000, -1.000000000000000000, -0.000000000000000000 ) ) ;
#46 =( NAMED_UNIT ( * ) PLANE_ANGLE_UNIT ( ) SI_UNIT ( $, .RADIAN. ) );
#47 = MECHANICAL_DESIGN_GEOMETRIC_PRESENTATION_REPRESENTATION (  '', ( #7 ), #53 ) ;
#48 = PRODUCT_DEFINITION_SHAPE ( 'NONE', 'NONE',  #264 ) ;
#49 = MECHANICAL_DESIGN_GEOMETRIC_PRESENTATION_REPRESENTATION (  '', ( #236 ), #8 ) ;
#50 =( LENGTH_UNIT ( ) NAMED_UNIT ( * ) SI_UNIT ( $, .METRE. ) );
#51 =( NAMED_UNIT ( * ) SI_UNIT ( $, .STERADIAN. ) SOLID_ANGLE_UNIT ( ) );
#52 = CARTESIAN_POINT ( 'NONE',  ( 0.000000000000000000, 0.000000000000000000, 0.000000000000000000 ) ) ;
#53 =( GEOMETRIC_REPRESENTATION_CONTEXT ( 3 ) GLOBAL_UNCERTAINTY_ASSIGNED_CONTEXT ( ( #101 ) ) GLOBAL_UNIT_ASSIGNED_CONTEXT ( ( #34, #270, #51 ) ) REPRESENTATION_CONTEXT ( 'NONE', 'WORKASPACE' ) );
#54 = EDGE_CURVE ( 'NONE', #42, #218, #64, .T. ) ;
#55 = UNCERTAINTY_MEASURE_WITH_UNIT (LENGTH_MEASURE( 1.000000000000000082E-05 ), #283, 'distance_accuracy_value', 'NONE');
#56 = CIRCLE ( 'NONE', #26, 0.1875000000000000278 ) ;
#57 = AXIS2_PLACEMENT_3D ( 'NONE', #131, #244, #148 ) ;
#58 = ADVANCED_FACE ( 'NONE', ( #230 ), #19, .T. ) ;
#59 = CARTESIAN_POINT ( 'NONE',  ( -1.224646799147353207E-16, 5.000000000000000000, 0.000000000000000000 ) ) ;
#60 = SURFACE_SIDE_STYLE ('',( #191 ) ) ;
#61 = DIRECTION ( 'NONE',  ( 0.000000000000000000, -0.000000000000000000, 1.000000000000000000 ) ) ;
#62 = SURFACE_SIDE_STYLE ('',( #304 ) ) ;
#63 = DIRECTION ( 'NONE',  ( -4.898587196589413075E-17, 1.000000000000000000, -0.000000000000000000 ) ) ;
#64 = CIRCLE ( 'NONE', #299, 0.1875000000000001388 ) ;
#65 = CIRCLE ( 'NONE', #166, 0.1875000000000000278 ) ;
#66 = SURFACE_STYLE_USAGE ( .BOTH. , #62 ) ;
#67 = CARTESIAN_POINT ( 'NONE',  ( 0.000000000000000000, 2.500000000000000000, 0.000000000000000000 ) ) ;
#68 = CYLINDRICAL_SURFACE ( 'NONE', #119, 0.1875000000000000833 ) ;
#69 = FILL_AREA_STYLE ('',( #153 ) ) ;
#70 = LENGTH_MEASURE_WITH_UNIT ( LENGTH_MEASURE( 0.02539999999999999897 ), #133 );
#71 = CIRCLE ( 'NONE', #184, 0.1875000000000000278 ) ;
#72 = DIRECTION ( 'NONE',  ( 0.000000000000000000, 0.000000000000000000, -1.000000000000000000 ) ) ;
#73 = UNCERTAINTY_MEASURE_WITH_UNIT (LENGTH_MEASURE( 1.000000000000000082E-05 ), #303, 'distance_accuracy_value', 'NONE');
#74 = CARTESIAN_POINT ( 'NONE',  ( -0.1875000000000002776, 5.000000000000000000, 0.000000000000000000 ) ) ;
#75 = FILL_AREA_STYLE ('',( #93 ) ) ;
#76 = PRESENTATION_STYLE_ASSIGNMENT (( #231 ) ) ;
#77 = EDGE_CURVE ( 'NONE', #297, #301, #182, .T. ) ;
#78 = PRODUCT_DEFINITION_CONTEXT ( 'detailed design', #143, 'design' ) ;
#79 = CIRCLE ( 'NONE', #86, 0.1875000000000001388 ) ;
#80 = VERTEX_POINT ( 'NONE', #308 ) ;
#81 = DIRECTION ( 'NONE',  ( -1.000000000000000000, 0.000000000000000000, 0.000000000000000000 ) ) ;
#82 = DIRECTION ( 'NONE',  ( 0.000000000000000000, 1.000000000000000000, 0.000000000000000000 ) ) ;
#83 = LENGTH_MEASURE_WITH_UNIT ( LENGTH_MEASURE( 0.02539999999999999897 ), #239 );
#84 = FILL_AREA_STYLE_COLOUR ( '', #214 ) ;
#85 = ORIENTED_EDGE ( 'NONE', *, *, #163, .F. ) ;
#86 = AXIS2_PLACEMENT_3D ( 'NONE', #269, #63, #219 ) ;
#87 = ORIENTED_EDGE ( 'NONE', *, *, #181, .F. ) ;
#88 = EDGE_LOOP ( 'NONE', ( #106, #102 ) ) ;
#89 = SURFACE_SIDE_STYLE ('',( #305 ) ) ;
#90 = SURFACE_STYLE_USAGE ( .BOTH. , #254 ) ;
#91 = PRESENTATION_LAYER_ASSIGNMENT (  '', '', ( #240 ) ) ;
#92 = EDGE_CURVE ( 'NONE', #297, #222, #250, .T. ) ;
#93 = FILL_AREA_STYLE_COLOUR ( '', #272 ) ;
#94 = ADVANCED_FACE ( 'NONE', ( #137 ), #208, .T. ) ;
#95 = PRESENTATION_STYLE_ASSIGNMENT (( #90 ) ) ;
#96 = SURFACE_STYLE_FILL_AREA ( #24 ) ;
#97 = COLOUR_RGB ( '',0.7921568627450980005, 0.8196078431372548767, 0.9333333333333333481 ) ;
#98 = DIRECTION ( 'NONE',  ( 0.000000000000000000, -1.000000000000000000, -0.000000000000000000 ) ) ;
#99 = ORIENTED_EDGE ( 'NONE', *, *, #164, .T. ) ;
#100 = AXIS2_PLACEMENT_3D ( 'NONE', #251, #45, #285 ) ;
#101 = UNCERTAINTY_MEASURE_WITH_UNIT (LENGTH_MEASURE( 1.000000000000000082E-05 ), #34, 'distance_accuracy_value', 'NONE');
#102 = ORIENTED_EDGE ( 'NONE', *, *, #221, .T. ) ;
#103 = CARTESIAN_POINT ( 'NONE',  ( 1.516480271171051896E-32, 2.500000000000000000, 0.000000000000000000 ) ) ;
#104 = AXIS2_PLACEMENT_3D ( 'NONE', #202, #156, #18 ) ;
#105 =( CONVERSION_BASED_UNIT ( 'INCH', #36 ) LENGTH_UNIT ( ) NAMED_UNIT ( #229 ) );
#106 = ORIENTED_EDGE ( 'NONE', *, *, #54, .T. ) ;
#107 = DIRECTION ( 'NONE',  ( 4.898587196589412459E-17, -1.000000000000000000, 0.000000000000000000 ) ) ;
#108 = CARTESIAN_POINT ( 'NONE',  ( 2.296212748401287726E-17, 0.000000000000000000, 0.1875000000000000278 ) ) ;
#109 = VERTEX_POINT ( 'NONE', #2 ) ;
#110 = CYLINDRICAL_SURFACE ( 'NONE', #57, 0.1875000000000000833 ) ;
#111 = CARTESIAN_POINT ( 'NONE',  ( 0.000000000000000000, 0.000000000000000000, 0.000000000000000000 ) ) ;
#112 = EDGE_LOOP ( 'NONE', ( #40, #37, #135, #276 ) ) ;
#113 = PRESENTATION_STYLE_ASSIGNMENT (( #129 ) ) ;
#114 = AXIS2_PLACEMENT_3D ( 'NONE', #52, #98, #25 ) ;
#115 = FACE_OUTER_BOUND ( 'NONE', #125, .T. ) ;
#116 = LINE ( 'NONE', #14, #265 ) ;
#117 = ADVANCED_FACE ( 'NONE', ( #262 ), #199, .F. ) ;
#118 = DIRECTION ( 'NONE',  ( -0.000000000000000000, -1.000000000000000000, -0.000000000000000000 ) ) ;
#119 = AXIS2_PLACEMENT_3D ( 'NONE', #59, #170, #190 ) ;
#120 =( NAMED_UNIT ( * ) SI_UNIT ( $, .STERADIAN. ) SOLID_ANGLE_UNIT ( ) );
#121 = MECHANICAL_DESIGN_GEOMETRIC_PRESENTATION_REPRESENTATION (  '', ( #138 ), #235 ) ;
#122 = CLOSED_SHELL ( 'NONE', ( #28, #117, #168, #152 ) ) ;
#123 = APPLICATION_CONTEXT ( 'automotive_design' ) ;
#124 = SHAPE_DEFINITION_REPRESENTATION ( #48, #252 ) ;
#125 = EDGE_LOOP ( 'NONE', ( #248, #13, #157, #87 ) ) ;
#126 = CARTESIAN_POINT ( 'NONE',  ( 0.000000000000000000, 0.000000000000000000, 0.000000000000000000 ) ) ;
#127 = EDGE_LOOP ( 'NONE', ( #99, #201, #243, #220 ) ) ;
#128 = AXIS2_PLACEMENT_3D ( 'NONE', #224, #118, #72 ) ;
#129 = SURFACE_STYLE_USAGE ( .BOTH. , #60 ) ;
#130 = ORIENTED_EDGE ( 'NONE', *, *, #181, .T. ) ;
#131 = CARTESIAN_POINT ( 'NONE',  ( -1.224646799147353207E-16, 5.000000000000000000, 0.000000000000000000 ) ) ;
#132 = EDGE_CURVE ( 'NONE', #80, #109, #56, .T. ) ;
#133 =( LENGTH_UNIT ( ) NAMED_UNIT ( * ) SI_UNIT ( $, .METRE. ) );
#134 = CARTESIAN_POINT ( 'NONE',  ( 1.516480271171051896E-32, 2.500000000000000000, 0.000000000000000000 ) ) ;
#135 = ORIENTED_EDGE ( 'NONE', *, *, #54, .F. ) ;
#136 =( NAMED_UNIT ( * ) PLANE_ANGLE_UNIT ( ) SI_UNIT ( $, .RADIAN. ) );
#137 = FACE_OUTER_BOUND ( 'NONE', #211, .T. ) ;
#138 = STYLED_ITEM ( 'NONE', ( #95 ), #94 ) ;
#139 = CARTESIAN_POINT ( 'NONE',  ( -1.224646799147353207E-16, 5.000000000000000000, 0.000000000000000000 ) ) ;
#140 =( NAMED_UNIT ( * ) PLANE_ANGLE_UNIT ( ) SI_UNIT ( $, .RADIAN. ) );
#141 = MECHANICAL_DESIGN_GEOMETRIC_PRESENTATION_REPRESENTATION (  '', ( #158 ), #206 ) ;
#142 = PLANE ( 'NONE',  #241 ) ;
#143 = APPLICATION_CONTEXT ( 'automotive_design' ) ;
#144 = AXIS2_PLACEMENT_3D ( 'NONE', #43, #107, #238 ) ;
#145 = DIRECTION ( 'NONE',  ( -1.000000000000000000, 0.000000000000000000, 0.000000000000000000 ) ) ;
#146 =( NAMED_UNIT ( * ) SI_UNIT ( $, .STERADIAN. ) SOLID_ANGLE_UNIT ( ) );
#147 = EDGE_LOOP ( 'NONE', ( #5, #150 ) ) ;
#148 = DIRECTION ( 'NONE',  ( -1.000000000000000000, 0.000000000000000000, 0.000000000000000000 ) ) ;
#149 = LENGTH_MEASURE_WITH_UNIT ( LENGTH_MEASURE( 0.02539999999999999897 ), #172 );
#150 = ORIENTED_EDGE ( 'NONE', *, *, #92, .F. ) ;
#151 = FACE_OUTER_BOUND ( 'NONE', #215, .T. ) ;
#152 = ADVANCED_FACE ( 'NONE', ( #216 ), #278, .F. ) ;
#153 = FILL_AREA_STYLE_COLOUR ( '', #97 ) ;
#154 = DIRECTION ( 'NONE',  ( -0.000000000000000000, -1.000000000000000000, -0.000000000000000000 ) ) ;
#155 = ORIENTED_EDGE ( 'NONE', *, *, #132, .F. ) ;
#156 = DIRECTION ( 'NONE',  ( -0.000000000000000000, -1.000000000000000000, -0.000000000000000000 ) ) ;
#157 = ORIENTED_EDGE ( 'NONE', *, *, #302, .T. ) ;
#158 = STYLED_ITEM ( 'NONE', ( #113 ), #233 ) ;
#159 = CARTESIAN_POINT ( 'NONE',  ( 2.296212748401287726E-17, 0.000000000000000000, 0.1875000000000000278 ) ) ;
#160 =( LENGTH_UNIT ( ) NAMED_UNIT ( * ) SI_UNIT ( $, .METRE. ) );
#161 = DIMENSIONAL_EXPONENTS ( 1.000000000000000000, 0.000000000000000000, 0.000000000000000000, 0.000000000000000000, 0.000000000000000000, 0.000000000000000000, 0.000000000000000000 ) ;
#162 = PRESENTATION_LAYER_ASSIGNMENT (  '', '', ( #236 ) ) ;
#163 = EDGE_CURVE ( 'NONE', #109, #80, #71, .T. ) ;
#164 = EDGE_CURVE ( 'NONE', #222, #297, #210, .T. ) ;
#165 = CLOSED_SHELL ( 'NONE', ( #58, #281, #30, #94 ) ) ;
#166 = AXIS2_PLACEMENT_3D ( 'NONE', #126, #274, #277 ) ;
#167 = APPLICATION_PROTOCOL_DEFINITION ( 'draft international standard', 'automotive_design', 1998, #123 ) ;
#168 = ADVANCED_FACE ( 'NONE', ( #151 ), #110, .T. ) ;
#169 = SURFACE_STYLE_FILL_AREA ( #293 ) ;
#170 = DIRECTION ( 'NONE',  ( -4.898587196589413075E-17, 1.000000000000000000, -0.000000000000000000 ) ) ;
#171 = DIRECTION ( 'NONE',  ( -0.000000000000000000, -1.000000000000000000, -0.000000000000000000 ) ) ;
#172 =( LENGTH_UNIT ( ) NAMED_UNIT ( * ) SI_UNIT ( $, .METRE. ) );
#173 = CARTESIAN_POINT ( 'NONE',  ( 0.1874999999999999445, 5.000000000000000000, 2.296212748401288342E-17 ) ) ;
#174 = SURFACE_STYLE_USAGE ( .BOTH. , #9 ) ;
#175 = CARTESIAN_POINT ( 'NONE',  ( 0.000000000000000000, 2.500000000000000000, 0.000000000000000000 ) ) ;
#176 = PRESENTATION_LAYER_ASSIGNMENT (  '', '', ( #27 ) ) ;
#177 = VERTEX_POINT ( 'NONE', #41 ) ;
#178 = PRESENTATION_STYLE_ASSIGNMENT (( #66 ) ) ;
#179 = CARTESIAN_POINT ( 'NONE',  ( 2.249639673992786583E-34, 2.500000000000000000, 0.000000000000000000 ) ) ;
#180 = LENGTH_MEASURE_WITH_UNIT ( LENGTH_MEASURE( 0.02539999999999999897 ), #160 );
#181 = EDGE_CURVE ( 'NONE', #301, #177, #65, .T. ) ;
#182 = LINE ( 'NONE', #159, #290 ) ;
#183 = AXIS2_PLACEMENT_3D ( 'NONE', #179, #249, #11 ) ;
#184 = AXIS2_PLACEMENT_3D ( 'NONE', #134, #194, #145 ) ;
#185 =( CONVERSION_BASED_UNIT ( 'INCH', #282 ) LENGTH_UNIT ( ) NAMED_UNIT ( #259 ) );
#186 = EDGE_LOOP ( 'NONE', ( #155, #85 ) ) ;
#187 =( GEOMETRIC_REPRESENTATION_CONTEXT ( 3 ) GLOBAL_UNCERTAINTY_ASSIGNED_CONTEXT ( ( #292 ) ) GLOBAL_UNIT_ASSIGNED_CONTEXT ( ( #185, #46, #120 ) ) REPRESENTATION_CONTEXT ( 'NONE', 'WORKASPACE' ) );
#188 = AXIS2_PLACEMENT_3D ( 'NONE', #111, #12, #195 ) ;
#189 =( NAMED_UNIT ( * ) PLANE_ANGLE_UNIT ( ) SI_UNIT ( $, .RADIAN. ) );
#190 = DIRECTION ( 'NONE',  ( -1.000000000000000000, 0.000000000000000000, 0.000000000000000000 ) ) ;
#191 = SURFACE_STYLE_FILL_AREA ( #271 ) ;
#192 = CARTESIAN_POINT ( 'NONE',  ( 2.296212748401287726E-17, 2.500000000000000000, 0.1875000000000000278 ) ) ;
#193 = FACE_OUTER_BOUND ( 'NONE', #112, .T. ) ;
#194 = DIRECTION ( 'NONE',  ( -4.898587196589413075E-17, 1.000000000000000000, -0.000000000000000000 ) ) ;
#195 = DIRECTION ( 'NONE',  ( 1.000000000000000000, 0.000000000000000000, 0.000000000000000000 ) ) ;
#196 = ORIENTED_EDGE ( 'NONE', *, *, #221, .F. ) ;
#197 = CARTESIAN_POINT ( 'NONE',  ( 0.000000000000000000, 0.000000000000000000, -0.1875000000000000278 ) ) ;
#198 = ORIENTED_EDGE ( 'NONE', *, *, #232, .T. ) ;
#199 = PLANE ( 'NONE',  #183 ) ;
#200 = MECHANICAL_DESIGN_GEOMETRIC_PRESENTATION_REPRESENTATION (  '', ( #27 ), #300 ) ;
#201 = ORIENTED_EDGE ( 'NONE', *, *, #77, .T. ) ;
#202 = CARTESIAN_POINT ( 'NONE',  ( 0.000000000000000000, 0.000000000000000000, 0.000000000000000000 ) ) ;
#203 = SURFACE_STYLE_FILL_AREA ( #75 ) ;
#204 = DIRECTION ( 'NONE',  ( -1.000000000000000000, 0.000000000000000000, 0.000000000000000000 ) ) ;
#205 = AXIS2_PLACEMENT_3D ( 'NONE', #307, #227, #209 ) ;
#206 =( GEOMETRIC_REPRESENTATION_CONTEXT ( 3 ) GLOBAL_UNCERTAINTY_ASSIGNED_CONTEXT ( ( #73 ) ) GLOBAL_UNIT_ASSIGNED_CONTEXT ( ( #303, #136, #298 ) ) REPRESENTATION_CONTEXT ( 'NONE', 'WORKASPACE' ) );
#207 = DIRECTION ( 'NONE',  ( -0.000000000000000000, -1.000000000000000000, -0.000000000000000000 ) ) ;
#208 = PLANE ( 'NONE',  #114 ) ;
#209 = DIRECTION ( 'NONE',  ( 0.000000000000000000, 0.000000000000000000, -1.000000000000000000 ) ) ;
#210 = CIRCLE ( 'NONE', #44, 0.1875000000000000278 ) ;
#211 = EDGE_LOOP ( 'NONE', ( #198, #130 ) ) ;
#212 = FILL_AREA_STYLE_COLOUR ( '', #228 ) ;
#213 = COLOUR_RGB ( '',1.000000000000000000, 0.000000000000000000, 0.000000000000000000 ) ;
#214 = COLOUR_RGB ( '',1.000000000000000000, 0.000000000000000000, 0.000000000000000000 ) ;
#215 = EDGE_LOOP ( 'NONE', ( #31, #246, #15, #196 ) ) ;
#216 = FACE_OUTER_BOUND ( 'NONE', #88, .T. ) ;
#217 =( NAMED_UNIT ( * ) SI_UNIT ( $, .STERADIAN. ) SOLID_ANGLE_UNIT ( ) );
#218 = VERTEX_POINT ( 'NONE', #38 ) ;
#219 = DIRECTION ( 'NONE',  ( -1.000000000000000000, 0.000000000000000000, 0.000000000000000000 ) ) ;
#220 = ORIENTED_EDGE ( 'NONE', *, *, #302, .F. ) ;
#221 = EDGE_CURVE ( 'NONE', #218, #42, #79, .T. ) ;
#222 = VERTEX_POINT ( 'NONE', #247 ) ;
#223 = PRESENTATION_LAYER_ASSIGNMENT (  '', '', ( #158 ) ) ;
#224 = CARTESIAN_POINT ( 'NONE',  ( 0.000000000000000000, 0.000000000000000000, 0.000000000000000000 ) ) ;
#225 = LENGTH_MEASURE_WITH_UNIT ( LENGTH_MEASURE( 0.02539999999999999897 ), #50 );
#226 = DIMENSIONAL_EXPONENTS ( 1.000000000000000000, 0.000000000000000000, 0.000000000000000000, 0.000000000000000000, 0.000000000000000000, 0.000000000000000000, 0.000000000000000000 ) ;
#227 = DIRECTION ( 'NONE',  ( -0.000000000000000000, -1.000000000000000000, -0.000000000000000000 ) ) ;
#228 = COLOUR_RGB ( '',0.7921568627450980005, 0.8196078431372548767, 0.9333333333333333481 ) ;
#229 = DIMENSIONAL_EXPONENTS ( 1.000000000000000000, 0.000000000000000000, 0.000000000000000000, 0.000000000000000000, 0.000000000000000000, 0.000000000000000000, 0.000000000000000000 ) ;
#230 = FACE_OUTER_BOUND ( 'NONE', #127, .T. ) ;
#231 = SURFACE_STYLE_USAGE ( .BOTH. , #20 ) ;
#232 = EDGE_CURVE ( 'NONE', #177, #301, #39, .T. ) ;
#233 = MANIFOLD_SOLID_BREP ( 'Revolve - Cutting Edge', #165 ) ;
#234 = MANIFOLD_SOLID_BREP ( 'Revolve - Tool Body (Straight Shanked)', #122 ) ;
#235 =( GEOMETRIC_REPRESENTATION_CONTEXT ( 3 ) GLOBAL_UNCERTAINTY_ASSIGNED_CONTEXT ( ( #55 ) ) GLOBAL_UNIT_ASSIGNED_CONTEXT ( ( #283, #140, #288 ) ) REPRESENTATION_CONTEXT ( 'NONE', 'WORKASPACE' ) );
#236 = STYLED_ITEM ( 'NONE', ( #253 ), #234 ) ;
#237 = UNCERTAINTY_MEASURE_WITH_UNIT (LENGTH_MEASURE( 1.000000000000000082E-05 ), #105, 'distance_accuracy_value', 'NONE');
#238 = DIRECTION ( 'NONE',  ( 1.000000000000000000, 4.898587196589412459E-17, 0.000000000000000000 ) ) ;
#239 =( LENGTH_UNIT ( ) NAMED_UNIT ( * ) SI_UNIT ( $, .METRE. ) );
#240 = STYLED_ITEM ( 'NONE', ( #76 ), #58 ) ;
#241 = AXIS2_PLACEMENT_3D ( 'NONE', #67, #82, #61 ) ;
#242 =( CONVERSION_BASED_UNIT ( 'INCH', #149 ) LENGTH_UNIT ( ) NAMED_UNIT ( #284 ) );
#243 = ORIENTED_EDGE ( 'NONE', *, *, #232, .F. ) ;
#244 = DIRECTION ( 'NONE',  ( -4.898587196589413075E-17, 1.000000000000000000, -0.000000000000000000 ) ) ;
#245 = APPLICATION_PROTOCOL_DEFINITION ( 'draft international standard', 'automotive_design', 1998, #143 ) ;
#246 = ORIENTED_EDGE ( 'NONE', *, *, #163, .T. ) ;
#247 = CARTESIAN_POINT ( 'NONE',  ( 0.000000000000000000, 2.500000000000000000, -0.1875000000000000278 ) ) ;
#248 = ORIENTED_EDGE ( 'NONE', *, *, #77, .F. ) ;
#249 = DIRECTION ( 'NONE',  ( -4.898587196589412459E-17, 1.000000000000000000, 0.000000000000000000 ) ) ;
#250 = CIRCLE ( 'NONE', #100, 0.1875000000000000278 ) ;
#251 = CARTESIAN_POINT ( 'NONE',  ( 0.000000000000000000, 2.500000000000000000, 0.000000000000000000 ) ) ;
#252 = ADVANCED_BREP_SHAPE_REPRESENTATION ( '03407', ( #233, #234, #188 ), #29 ) ;
#253 = PRESENTATION_STYLE_ASSIGNMENT (( #35 ) ) ;
#254 = SURFACE_SIDE_STYLE ('',( #203 ) ) ;
#255 = PRODUCT ( '03407', '03407', '', ( #266 ) ) ;
#256 = DIMENSIONAL_EXPONENTS ( 1.000000000000000000, 0.000000000000000000, 0.000000000000000000, 0.000000000000000000, 0.000000000000000000, 0.000000000000000000, 0.000000000000000000 ) ;
#257 =( LENGTH_UNIT ( ) NAMED_UNIT ( * ) SI_UNIT ( $, .METRE. ) );
#258 = UNCERTAINTY_MEASURE_WITH_UNIT (LENGTH_MEASURE( 1.000000000000000082E-05 ), #21, 'distance_accuracy_value', 'NONE');
#259 = DIMENSIONAL_EXPONENTS ( 1.000000000000000000, 0.000000000000000000, 0.000000000000000000, 0.000000000000000000, 0.000000000000000000, 0.000000000000000000, 0.000000000000000000 ) ;
#260 = VECTOR ( 'NONE', #154, 39.37007874015748143 ) ;
#261 = DIRECTION ( 'NONE',  ( -4.898587196589413075E-17, 1.000000000000000000, -0.000000000000000000 ) ) ;
#262 = FACE_OUTER_BOUND ( 'NONE', #186, .T. ) ;
#263 = FACE_OUTER_BOUND ( 'NONE', #147, .T. ) ;
#264 = PRODUCT_DEFINITION ( 'UNKNOWN', '', #16, #78 ) ;
#265 = VECTOR ( 'NONE', #291, 39.37007874015748143 ) ;
#266 = PRODUCT_CONTEXT ( 'NONE', #123, 'mechanical' ) ;
#267 = PRESENTATION_STYLE_ASSIGNMENT (( #174 ) ) ;
#268 = FILL_AREA_STYLE_COLOUR ( '', #306 ) ;
#269 = CARTESIAN_POINT ( 'NONE',  ( -1.224646799147353207E-16, 5.000000000000000000, 0.000000000000000000 ) ) ;
#270 =( NAMED_UNIT ( * ) PLANE_ANGLE_UNIT ( ) SI_UNIT ( $, .RADIAN. ) );
#271 = FILL_AREA_STYLE ('',( #212 ) ) ;
#272 = COLOUR_RGB ( '',1.000000000000000000, 0.000000000000000000, 0.000000000000000000 ) ;
#273 = CYLINDRICAL_SURFACE ( 'NONE', #205, 0.1875000000000000278 ) ;
#274 = DIRECTION ( 'NONE',  ( -0.000000000000000000, -1.000000000000000000, -0.000000000000000000 ) ) ;
#275 =( NAMED_UNIT ( * ) PLANE_ANGLE_UNIT ( ) SI_UNIT ( $, .RADIAN. ) );
#276 = ORIENTED_EDGE ( 'NONE', *, *, #279, .F. ) ;
#277 = DIRECTION ( 'NONE',  ( 0.000000000000000000, 0.000000000000000000, -1.000000000000000000 ) ) ;
#278 = PLANE ( 'NONE',  #144 ) ;
#279 = EDGE_CURVE ( 'NONE', #80, #42, #116, .T. ) ;
#280 = PRESENTATION_LAYER_ASSIGNMENT (  '', '', ( #7 ) ) ;
#281 = ADVANCED_FACE ( 'NONE', ( #263 ), #142, .T. ) ;
#282 = LENGTH_MEASURE_WITH_UNIT ( LENGTH_MEASURE( 0.02539999999999999897 ), #257 );
#283 =( CONVERSION_BASED_UNIT ( 'INCH', #180 ) LENGTH_UNIT ( ) NAMED_UNIT ( #226 ) );
#284 = DIMENSIONAL_EXPONENTS ( 1.000000000000000000, 0.000000000000000000, 0.000000000000000000, 0.000000000000000000, 0.000000000000000000, 0.000000000000000000, 0.000000000000000000 ) ;
#285 = DIRECTION ( 'NONE',  ( 0.000000000000000000, 0.000000000000000000, -1.000000000000000000 ) ) ;
#286 = MECHANICAL_DESIGN_GEOMETRIC_PRESENTATION_REPRESENTATION (  '', ( #240 ), #187 ) ;
#287 =( NAMED_UNIT ( * ) PLANE_ANGLE_UNIT ( ) SI_UNIT ( $, .RADIAN. ) );
#288 =( NAMED_UNIT ( * ) SI_UNIT ( $, .STERADIAN. ) SOLID_ANGLE_UNIT ( ) );
#289 =( NAMED_UNIT ( * ) SI_UNIT ( $, .STERADIAN. ) SOLID_ANGLE_UNIT ( ) );
#290 = VECTOR ( 'NONE', #207, 39.37007874015748143 ) ;
#291 = DIRECTION ( 'NONE',  ( -4.898587196589412459E-17, 1.000000000000000000, -0.000000000000000000 ) ) ;
#292 = UNCERTAINTY_MEASURE_WITH_UNIT (LENGTH_MEASURE( 1.000000000000000082E-05 ), #185, 'distance_accuracy_value', 'NONE');
#293 = FILL_AREA_STYLE ('',( #84 ) ) ;
#294 = FILL_AREA_STYLE ('',( #268 ) ) ;
#295 = LINE ( 'NONE', #197, #260 ) ;
#296 = DIRECTION ( 'NONE',  ( -4.898587196589413075E-17, 1.000000000000000000, -0.000000000000000000 ) ) ;
#297 = VERTEX_POINT ( 'NONE', #192 ) ;
#298 =( NAMED_UNIT ( * ) SI_UNIT ( $, .STERADIAN. ) SOLID_ANGLE_UNIT ( ) );
#299 = AXIS2_PLACEMENT_3D ( 'NONE', #139, #261, #204 ) ;
#300 =( GEOMETRIC_REPRESENTATION_CONTEXT ( 3 ) GLOBAL_UNCERTAINTY_ASSIGNED_CONTEXT ( ( #237 ) ) GLOBAL_UNIT_ASSIGNED_CONTEXT ( ( #105, #275, #146 ) ) REPRESENTATION_CONTEXT ( 'NONE', 'WORKASPACE' ) );
#301 = VERTEX_POINT ( 'NONE', #108 ) ;
#302 = EDGE_CURVE ( 'NONE', #222, #177, #295, .T. ) ;
#303 =( CONVERSION_BASED_UNIT ( 'INCH', #83 ) LENGTH_UNIT ( ) NAMED_UNIT ( #256 ) );
#304 = SURFACE_STYLE_FILL_AREA ( #294 ) ;
#305 = SURFACE_STYLE_FILL_AREA ( #69 ) ;
#306 = COLOUR_RGB ( '',1.000000000000000000, 0.000000000000000000, 0.000000000000000000 ) ;
#307 = CARTESIAN_POINT ( 'NONE',  ( 0.000000000000000000, 0.000000000000000000, 0.000000000000000000 ) ) ;
#308 = CARTESIAN_POINT ( 'NONE',  ( -0.1875000000000000278, 2.500000000000000000, 0.000000000000000000 ) ) ;
#309 = DIMENSIONAL_EXPONENTS ( 1.000000000000000000, 0.000000000000000000, 0.000000000000000000, 0.000000000000000000, 0.000000000000000000, 0.000000000000000000, 0.000000000000000000 ) ;
ENDSEC;
END-ISO-10303-21;
