ISO-10303-21;
HEADER;
FILE_DESCRIPTION (( 'STEP AP214' ),
    '1' );
FILE_NAME ('59525.STEP',
    '2023-07-24T15:48:26',
    ( '' ),
    ( '' ),
    'SwSTEP 2.0',
    'SolidWorks 2023',
    '' );
FILE_SCHEMA (( 'AUTOMOTIVE_DESIGN' ));
ENDSEC;

DATA;
#1 = LINE ( 'NONE', #78, #82 ) ;
#2 = DIRECTION ( 'NONE',  ( -0.000000000000000000, -1.000000000000000000, -0.000000000000000000 ) ) ;
#3 = DIRECTION ( 'NONE',  ( -2.578203787678638266E-17, 1.000000000000000000, -0.000000000000000000 ) ) ;
#4 = CARTESIAN_POINT ( 'NONE',  ( 7.347880794884119736E-16, 0.000000000000000000, 6.000000000000000000 ) ) ;
#5 = AXIS2_PLACEMENT_3D ( 'NONE', #49, #83, #80 ) ;
#6 = STYLED_ITEM ( 'NONE', ( #257 ), #90 ) ;
#7 = EDGE_CURVE ( 'NONE', #97, #192, #58, .T. ) ;
#8 = VECTOR ( 'NONE', #3, 1000.000000000000000 ) ;
#9 = AXIS2_PLACEMENT_3D ( 'NONE', #76, #56, #105 ) ;
#10 = ADVANCED_FACE ( 'NONE', ( #232 ), #268, .F. ) ;
#11 = ORIENTED_EDGE ( 'NONE', *, *, #85, .F. ) ;
#12 = DIRECTION ( 'NONE',  ( 0.000000000000000000, -1.000000000000000000, -0.000000000000000000 ) ) ;
#13 = COLOUR_RGB ( '',0.7921568627450980005, 0.8196078431372548767, 0.9333333333333333481 ) ;
#14 = ORIENTED_EDGE ( 'NONE', *, *, #182, .F. ) ;
#15 = ADVANCED_FACE ( 'NONE', ( #144 ), #142, .T. ) ;
#16 = ORIENTED_EDGE ( 'NONE', *, *, #172, .T. ) ;
#17 = SURFACE_STYLE_FILL_AREA ( #244 ) ;
#18 = ORIENTED_EDGE ( 'NONE', *, *, #27, .T. ) ;
#19 = SURFACE_STYLE_FILL_AREA ( #242 ) ;
#20 = AXIS2_PLACEMENT_3D ( 'NONE', #119, #283, #94 ) ;
#21 = DIRECTION ( 'NONE',  ( -2.578203787678638266E-17, 1.000000000000000000, -0.000000000000000000 ) ) ;
#22 = SHAPE_DEFINITION_REPRESENTATION ( #115, #99 ) ;
#23 =( LENGTH_UNIT ( ) NAMED_UNIT ( * ) SI_UNIT ( .MILLI., .METRE. ) );
#24 = UNCERTAINTY_MEASURE_WITH_UNIT (LENGTH_MEASURE( 1.000000000000000082E-05 ), #148, 'distance_accuracy_value', 'NONE');
#25 = SURFACE_STYLE_USAGE ( .BOTH. , #197 ) ;
#26 = CARTESIAN_POINT ( 'NONE',  ( 0.000000000000000000, 18.00000000000000000, 0.000000000000000000 ) ) ;
#27 = EDGE_CURVE ( 'NONE', #192, #97, #62, .T. ) ;
#28 = CYLINDRICAL_SURFACE ( 'NONE', #245, 6.000000000000000888 ) ;
#29 = APPLICATION_PROTOCOL_DEFINITION ( 'draft international standard', 'automotive_design', 1998, #272 ) ;
#30 = COLOUR_RGB ( '',0.7921568627450980005, 0.8196078431372548767, 0.9333333333333333481 ) ;
#31 = EDGE_CURVE ( 'NONE', #67, #224, #1, .T. ) ;
#32 = CYLINDRICAL_SURFACE ( 'NONE', #202, 6.000000000000000000 ) ;
#33 = CARTESIAN_POINT ( 'NONE',  ( -1.469576158976823750E-15, 75.00000000000000000, 0.000000000000000000 ) ) ;
#34 = DIRECTION ( 'NONE',  ( -1.000000000000000000, 0.000000000000000000, 0.000000000000000000 ) ) ;
#35 = STYLED_ITEM ( 'NONE', ( #284 ), #95 ) ;
#36 = EDGE_CURVE ( 'NONE', #176, #72, #285, .T. ) ;
#37 = FACE_OUTER_BOUND ( 'NONE', #227, .T. ) ;
#38 = AXIS2_PLACEMENT_3D ( 'NONE', #48, #264, #128 ) ;
#39 = VECTOR ( 'NONE', #214, 1000.000000000000000 ) ;
#40 = ORIENTED_EDGE ( 'NONE', *, *, #228, .F. ) ;
#41 = EDGE_LOOP ( 'NONE', ( #254, #246, #239, #201 ) ) ;
#42 = EDGE_LOOP ( 'NONE', ( #11, #18, #152, #40 ) ) ;
#43 = FILL_AREA_STYLE ('',( #240 ) ) ;
#44 = ORIENTED_EDGE ( 'NONE', *, *, #122, .T. ) ;
#45 =( LENGTH_UNIT ( ) NAMED_UNIT ( * ) SI_UNIT ( .MILLI., .METRE. ) );
#46 = DIRECTION ( 'NONE',  ( -1.000000000000000000, -2.578203787678638266E-17, 0.000000000000000000 ) ) ;
#47 = DIRECTION ( 'NONE',  ( 1.000000000000000000, 2.578203787678638266E-17, 0.000000000000000000 ) ) ;
#48 = CARTESIAN_POINT ( 'NONE',  ( -1.469576158976823750E-15, 75.00000000000000000, 0.000000000000000000 ) ) ;
#49 = CARTESIAN_POINT ( 'NONE',  ( 0.000000000000000000, 0.000000000000000000, 0.000000000000000000 ) ) ;
#50 = UNCERTAINTY_MEASURE_WITH_UNIT (LENGTH_MEASURE( 1.000000000000000082E-05 ), #160, 'distance_accuracy_value', 'NONE');
#51 = FILL_AREA_STYLE_COLOUR ( '', #222 ) ;
#52 = ADVANCED_FACE ( 'NONE', ( #226 ), #32, .T. ) ;
#53 =( NAMED_UNIT ( * ) SI_UNIT ( $, .STERADIAN. ) SOLID_ANGLE_UNIT ( ) );
#54 = CARTESIAN_POINT ( 'NONE',  ( 0.000000000000000000, 18.00000000000000355, 0.000000000000000000 ) ) ;
#55 = DIRECTION ( 'NONE',  ( -2.578203787678638266E-17, 1.000000000000000000, -0.000000000000000000 ) ) ;
#56 = DIRECTION ( 'NONE',  ( 0.000000000000000000, 0.000000000000000000, 1.000000000000000000 ) ) ;
#57 = ORIENTED_EDGE ( 'NONE', *, *, #184, .F. ) ;
#58 = CIRCLE ( 'NONE', #112, 6.000000000000000000 ) ;
#59 = CIRCLE ( 'NONE', #134, 6.000000000000000000 ) ;
#60 =( GEOMETRIC_REPRESENTATION_CONTEXT ( 3 ) GLOBAL_UNCERTAINTY_ASSIGNED_CONTEXT ( ( #24 ) ) GLOBAL_UNIT_ASSIGNED_CONTEXT ( ( #148, #102, #204 ) ) REPRESENTATION_CONTEXT ( 'NONE', 'WORKASPACE' ) );
#61 = EDGE_CURVE ( 'NONE', #176, #67, #92, .T. ) ;
#62 = CIRCLE ( 'NONE', #166, 6.000000000000000000 ) ;
#63 = COLOUR_RGB ( '',1.000000000000000000, 0.000000000000000000, 0.000000000000000000 ) ;
#64 = ORIENTED_EDGE ( 'NONE', *, *, #31, .F. ) ;
#65 = PRODUCT_DEFINITION ( 'UNKNOWN', '', #167, #281 ) ;
#66 = ORIENTED_EDGE ( 'NONE', *, *, #111, .T. ) ;
#67 = VERTEX_POINT ( 'NONE', #181 ) ;
#68 = MECHANICAL_DESIGN_GEOMETRIC_PRESENTATION_REPRESENTATION (  '', ( #191 ), #114 ) ;
#69 = AXIS2_PLACEMENT_3D ( 'NONE', #26, #130, #145 ) ;
#70 = FACE_OUTER_BOUND ( 'NONE', #261, .T. ) ;
#71 = UNCERTAINTY_MEASURE_WITH_UNIT (LENGTH_MEASURE( 1.000000000000000082E-05 ), #177, 'distance_accuracy_value', 'NONE');
#72 = VERTEX_POINT ( 'NONE', #4 ) ;
#73 = SURFACE_STYLE_USAGE ( .BOTH. , #216 ) ;
#74 = DIRECTION ( 'NONE',  ( -2.578203787678638266E-17, 1.000000000000000000, 0.000000000000000000 ) ) ;
#75 = DIRECTION ( 'NONE',  ( -1.000000000000000000, 0.000000000000000000, 0.000000000000000000 ) ) ;
#76 = CARTESIAN_POINT ( 'NONE',  ( 0.000000000000000000, 0.000000000000000000, 0.000000000000000000 ) ) ;
#77 =( NAMED_UNIT ( * ) SI_UNIT ( $, .STERADIAN. ) SOLID_ANGLE_UNIT ( ) );
#78 = CARTESIAN_POINT ( 'NONE',  ( 0.000000000000000000, 0.000000000000000000, -6.000000000000000000 ) ) ;
#79 =( LENGTH_UNIT ( ) NAMED_UNIT ( * ) SI_UNIT ( .MILLI., .METRE. ) );
#80 = DIRECTION ( 'NONE',  ( 0.000000000000000000, 0.000000000000000000, -1.000000000000000000 ) ) ;
#81 = DIRECTION ( 'NONE',  ( -1.000000000000000000, 0.000000000000000000, 0.000000000000000000 ) ) ;
#82 = VECTOR ( 'NONE', #241, 1000.000000000000000 ) ;
#83 = DIRECTION ( 'NONE',  ( -0.000000000000000000, -1.000000000000000000, -0.000000000000000000 ) ) ;
#84 = CIRCLE ( 'NONE', #127, 6.000000000000000000 ) ;
#85 = EDGE_CURVE ( 'NONE', #192, #129, #211, .T. ) ;
#86 = PLANE ( 'NONE',  #69 ) ;
#87 = EDGE_LOOP ( 'NONE', ( #263, #154 ) ) ;
#88 = SURFACE_STYLE_USAGE ( .BOTH. , #153 ) ;
#89 = DIRECTION ( 'NONE',  ( -0.000000000000000000, -1.000000000000000000, -0.000000000000000000 ) ) ;
#90 = ADVANCED_FACE ( 'NONE', ( #262 ), #260, .T. ) ;
#91 = FILL_AREA_STYLE_COLOUR ( '', #180 ) ;
#92 = CIRCLE ( 'NONE', #20, 6.000000000000000000 ) ;
#93 = EDGE_LOOP ( 'NONE', ( #183, #178 ) ) ;
#94 = DIRECTION ( 'NONE',  ( 0.000000000000000000, 0.000000000000000000, -1.000000000000000000 ) ) ;
#95 = ADVANCED_FACE ( 'NONE', ( #70 ), #96, .T. ) ;
#96 = PLANE ( 'NONE',  #223 ) ;
#97 = VERTEX_POINT ( 'NONE', #194 ) ;
#98 = PRODUCT_RELATED_PRODUCT_CATEGORY ( 'part', '', ( #219 ) ) ;
#99 = ADVANCED_BREP_SHAPE_REPRESENTATION ( '59525', ( #273, #270, #9 ), #231 ) ;
#100 = MECHANICAL_DESIGN_GEOMETRIC_PRESENTATION_REPRESENTATION (  '', ( #35 ), #288 ) ;
#101 = ORIENTED_EDGE ( 'NONE', *, *, #111, .F. ) ;
#102 =( NAMED_UNIT ( * ) PLANE_ANGLE_UNIT ( ) SI_UNIT ( $, .RADIAN. ) );
#103 = CARTESIAN_POINT ( 'NONE',  ( -1.469576158976823750E-15, 75.00000000000000000, 0.000000000000000000 ) ) ;
#104 = CARTESIAN_POINT ( 'NONE',  ( 0.000000000000000000, 0.000000000000000000, 0.000000000000000000 ) ) ;
#105 = DIRECTION ( 'NONE',  ( 1.000000000000000000, 0.000000000000000000, 0.000000000000000000 ) ) ;
#106 =( NAMED_UNIT ( * ) PLANE_ANGLE_UNIT ( ) SI_UNIT ( $, .RADIAN. ) );
#107 =( NAMED_UNIT ( * ) PLANE_ANGLE_UNIT ( ) SI_UNIT ( $, .RADIAN. ) );
#108 = SURFACE_STYLE_FILL_AREA ( #206 ) ;
#109 = SURFACE_SIDE_STYLE ('',( #124 ) ) ;
#110 = AXIS2_PLACEMENT_3D ( 'NONE', #143, #233, #47 ) ;
#111 = EDGE_CURVE ( 'NONE', #224, #72, #84, .T. ) ;
#112 = AXIS2_PLACEMENT_3D ( 'NONE', #125, #21, #75 ) ;
#113 = DIRECTION ( 'NONE',  ( 0.000000000000000000, 0.000000000000000000, -1.000000000000000000 ) ) ;
#114 =( GEOMETRIC_REPRESENTATION_CONTEXT ( 3 ) GLOBAL_UNCERTAINTY_ASSIGNED_CONTEXT ( ( #157 ) ) GLOBAL_UNIT_ASSIGNED_CONTEXT ( ( #269, #287, #77 ) ) REPRESENTATION_CONTEXT ( 'NONE', 'WORKASPACE' ) );
#115 = PRODUCT_DEFINITION_SHAPE ( 'NONE', 'NONE',  #65 ) ;
#116 = SURFACE_STYLE_FILL_AREA ( #43 ) ;
#117 = DIRECTION ( 'NONE',  ( 0.000000000000000000, 0.000000000000000000, -1.000000000000000000 ) ) ;
#118 = STYLED_ITEM ( 'NONE', ( #256 ), #280 ) ;
#119 = CARTESIAN_POINT ( 'NONE',  ( 0.000000000000000000, 18.00000000000000000, 0.000000000000000000 ) ) ;
#120 =( NAMED_UNIT ( * ) SI_UNIT ( $, .STERADIAN. ) SOLID_ANGLE_UNIT ( ) );
#121 = UNCERTAINTY_MEASURE_WITH_UNIT (LENGTH_MEASURE( 1.000000000000000082E-05 ), #45, 'distance_accuracy_value', 'NONE');
#122 = EDGE_CURVE ( 'NONE', #67, #176, #59, .T. ) ;
#123 = DIRECTION ( 'NONE',  ( -0.000000000000000000, -1.000000000000000000, -0.000000000000000000 ) ) ;
#124 = SURFACE_STYLE_FILL_AREA ( #267 ) ;
#125 = CARTESIAN_POINT ( 'NONE',  ( 0.000000000000000000, 18.00000000000000355, 0.000000000000000000 ) ) ;
#126 = SURFACE_STYLE_USAGE ( .BOTH. , #109 ) ;
#127 = AXIS2_PLACEMENT_3D ( 'NONE', #279, #169, #150 ) ;
#128 = DIRECTION ( 'NONE',  ( -1.000000000000000000, 0.000000000000000000, 0.000000000000000000 ) ) ;
#129 = VERTEX_POINT ( 'NONE', #165 ) ;
#130 = DIRECTION ( 'NONE',  ( 0.000000000000000000, 1.000000000000000000, 0.000000000000000000 ) ) ;
#131 = DIRECTION ( 'NONE',  ( -1.000000000000000000, 0.000000000000000000, 0.000000000000000000 ) ) ;
#132 =( NAMED_UNIT ( * ) PLANE_ANGLE_UNIT ( ) SI_UNIT ( $, .RADIAN. ) );
#133 = PLANE ( 'NONE',  #110 ) ;
#134 = AXIS2_PLACEMENT_3D ( 'NONE', #234, #168, #146 ) ;
#135 = EDGE_LOOP ( 'NONE', ( #138, #217 ) ) ;
#136 = PRESENTATION_LAYER_ASSIGNMENT (  '', '', ( #170 ) ) ;
#137 = ORIENTED_EDGE ( 'NONE', *, *, #7, .T. ) ;
#138 = ORIENTED_EDGE ( 'NONE', *, *, #184, .T. ) ;
#139 =( NAMED_UNIT ( * ) PLANE_ANGLE_UNIT ( ) SI_UNIT ( $, .RADIAN. ) );
#140 = SURFACE_SIDE_STYLE ('',( #108 ) ) ;
#141 = UNCERTAINTY_MEASURE_WITH_UNIT (LENGTH_MEASURE( 1.000000000000000082E-05 ), #23, 'distance_accuracy_value', 'NONE');
#142 = CYLINDRICAL_SURFACE ( 'NONE', #38, 6.000000000000000888 ) ;
#143 = CARTESIAN_POINT ( 'NONE',  ( 6.000000000000000000, 75.00000000000000000, 0.000000000000000000 ) ) ;
#144 = FACE_OUTER_BOUND ( 'NONE', #42, .T. ) ;
#145 = DIRECTION ( 'NONE',  ( 0.000000000000000000, -0.000000000000000000, 1.000000000000000000 ) ) ;
#146 = DIRECTION ( 'NONE',  ( 0.000000000000000000, 0.000000000000000000, -1.000000000000000000 ) ) ;
#147 = AXIS2_PLACEMENT_3D ( 'NONE', #255, #89, #117 ) ;
#148 =( LENGTH_UNIT ( ) NAMED_UNIT ( * ) SI_UNIT ( .MILLI., .METRE. ) );
#149 = CARTESIAN_POINT ( 'NONE',  ( 7.347880794884119736E-16, 18.00000000000000000, 6.000000000000000000 ) ) ;
#150 = DIRECTION ( 'NONE',  ( 0.000000000000000000, 0.000000000000000000, -1.000000000000000000 ) ) ;
#151 = PRESENTATION_LAYER_ASSIGNMENT (  '', '', ( #35 ) ) ;
#152 = ORIENTED_EDGE ( 'NONE', *, *, #182, .T. ) ;
#153 = SURFACE_SIDE_STYLE ('',( #19 ) ) ;
#154 = ORIENTED_EDGE ( 'NONE', *, *, #61, .F. ) ;
#155 = CIRCLE ( 'NONE', #159, 6.000000000000001776 ) ;
#156 =( NAMED_UNIT ( * ) PLANE_ANGLE_UNIT ( ) SI_UNIT ( $, .RADIAN. ) );
#157 = UNCERTAINTY_MEASURE_WITH_UNIT (LENGTH_MEASURE( 1.000000000000000082E-05 ), #269, 'distance_accuracy_value', 'NONE');
#158 = CARTESIAN_POINT ( 'NONE',  ( 7.347880794884119736E-16, 0.000000000000000000, 6.000000000000000000 ) ) ;
#159 = AXIS2_PLACEMENT_3D ( 'NONE', #33, #163, #131 ) ;
#160 =( LENGTH_UNIT ( ) NAMED_UNIT ( * ) SI_UNIT ( .MILLI., .METRE. ) );
#161 = CARTESIAN_POINT ( 'NONE',  ( -1.469576158976823750E-15, 75.00000000000000000, 0.000000000000000000 ) ) ;
#162 = APPLICATION_PROTOCOL_DEFINITION ( 'draft international standard', 'automotive_design', 1998, #247 ) ;
#163 = DIRECTION ( 'NONE',  ( -2.578203787678638266E-17, 1.000000000000000000, -0.000000000000000000 ) ) ;
#164 =( NAMED_UNIT ( * ) SI_UNIT ( $, .STERADIAN. ) SOLID_ANGLE_UNIT ( ) );
#165 = CARTESIAN_POINT ( 'NONE',  ( 6.000000000000000000, 75.00000000000000000, 7.347880794884120722E-16 ) ) ;
#166 = AXIS2_PLACEMENT_3D ( 'NONE', #54, #203, #81 ) ;
#167 = PRODUCT_DEFINITION_FORMATION_WITH_SPECIFIED_SOURCE ( 'ANY', '', #219, .NOT_KNOWN. ) ;
#168 = DIRECTION ( 'NONE',  ( -0.000000000000000000, -1.000000000000000000, -0.000000000000000000 ) ) ;
#169 = DIRECTION ( 'NONE',  ( -0.000000000000000000, -1.000000000000000000, -0.000000000000000000 ) ) ;
#170 = STYLED_ITEM ( 'NONE', ( #185 ), #52 ) ;
#171 = MECHANICAL_DESIGN_GEOMETRIC_PRESENTATION_REPRESENTATION (  '', ( #118 ), #60 ) ;
#172 = EDGE_CURVE ( 'NONE', #72, #224, #196, .T. ) ;
#173 = DIRECTION ( 'NONE',  ( -1.000000000000000000, 0.000000000000000000, 0.000000000000000000 ) ) ;
#174 = MECHANICAL_DESIGN_GEOMETRIC_PRESENTATION_REPRESENTATION (  '', ( #193 ), #235 ) ;
#175 = MECHANICAL_DESIGN_GEOMETRIC_PRESENTATION_REPRESENTATION (  '', ( #6 ), #251 ) ;
#176 = VERTEX_POINT ( 'NONE', #149 ) ;
#177 =( LENGTH_UNIT ( ) NAMED_UNIT ( * ) SI_UNIT ( .MILLI., .METRE. ) );
#178 = ORIENTED_EDGE ( 'NONE', *, *, #27, .F. ) ;
#179 = SURFACE_STYLE_USAGE ( .BOTH. , #278 ) ;
#180 = COLOUR_RGB ( '',1.000000000000000000, 0.000000000000000000, 0.000000000000000000 ) ;
#181 = CARTESIAN_POINT ( 'NONE',  ( 0.000000000000000000, 18.00000000000000000, -6.000000000000000000 ) ) ;
#182 = EDGE_CURVE ( 'NONE', #97, #258, #207, .T. ) ;
#183 = ORIENTED_EDGE ( 'NONE', *, *, #7, .F. ) ;
#184 = EDGE_CURVE ( 'NONE', #258, #129, #188, .T. ) ;
#185 = PRESENTATION_STYLE_ASSIGNMENT (( #25 ) ) ;
#186 = DIRECTION ( 'NONE',  ( 0.000000000000000000, 0.000000000000000000, -1.000000000000000000 ) ) ;
#187 = PRESENTATION_STYLE_ASSIGNMENT (( #225 ) ) ;
#188 = CIRCLE ( 'NONE', #275, 6.000000000000001776 ) ;
#189 = CARTESIAN_POINT ( 'NONE',  ( 0.000000000000000000, 0.000000000000000000, -6.000000000000000000 ) ) ;
#190 = DIRECTION ( 'NONE',  ( -2.578203787678638266E-17, 1.000000000000000000, -0.000000000000000000 ) ) ;
#191 = STYLED_ITEM ( 'NONE', ( #199 ), #273 ) ;
#192 = VERTEX_POINT ( 'NONE', #229 ) ;
#193 = STYLED_ITEM ( 'NONE', ( #187 ), #270 ) ;
#194 = CARTESIAN_POINT ( 'NONE',  ( -6.000000000000000000, 18.00000000000000355, 0.000000000000000000 ) ) ;
#195 = CARTESIAN_POINT ( 'NONE',  ( 0.000000000000000000, 0.000000000000000000, 0.000000000000000000 ) ) ;
#196 = CIRCLE ( 'NONE', #5, 6.000000000000000000 ) ;
#197 = SURFACE_SIDE_STYLE ('',( #243 ) ) ;
#198 = FILL_AREA_STYLE ('',( #51 ) ) ;
#199 = PRESENTATION_STYLE_ASSIGNMENT (( #126 ) ) ;
#200 = UNCERTAINTY_MEASURE_WITH_UNIT (LENGTH_MEASURE( 1.000000000000000082E-05 ), #79, 'distance_accuracy_value', 'NONE');
#201 = ORIENTED_EDGE ( 'NONE', *, *, #172, .F. ) ;
#202 = AXIS2_PLACEMENT_3D ( 'NONE', #104, #2, #186 ) ;
#203 = DIRECTION ( 'NONE',  ( -2.578203787678638266E-17, 1.000000000000000000, -0.000000000000000000 ) ) ;
#204 =( NAMED_UNIT ( * ) SI_UNIT ( $, .STERADIAN. ) SOLID_ANGLE_UNIT ( ) );
#205 = CARTESIAN_POINT ( 'NONE',  ( -6.000000000000003553, 75.00000000000000000, 0.000000000000000000 ) ) ;
#206 = FILL_AREA_STYLE ('',( #265 ) ) ;
#207 = LINE ( 'NONE', #250, #8 ) ;
#208 = MECHANICAL_DESIGN_GEOMETRIC_PRESENTATION_REPRESENTATION (  '', ( #170 ), #282 ) ;
#209 = AXIS2_PLACEMENT_3D ( 'NONE', #266, #74, #46 ) ;
#210 = COLOUR_RGB ( '',1.000000000000000000, 0.000000000000000000, 0.000000000000000000 ) ;
#211 = LINE ( 'NONE', #238, #39 ) ;
#212 = EDGE_LOOP ( 'NONE', ( #44, #271, #101, #64 ) ) ;
#213 = FILL_AREA_STYLE_COLOUR ( '', #210 ) ;
#214 = DIRECTION ( 'NONE',  ( -2.578203787678638266E-17, 1.000000000000000000, -0.000000000000000000 ) ) ;
#215 = PRESENTATION_LAYER_ASSIGNMENT (  '', '', ( #193 ) ) ;
#216 = SURFACE_SIDE_STYLE ('',( #116 ) ) ;
#217 = ORIENTED_EDGE ( 'NONE', *, *, #228, .T. ) ;
#218 = ADVANCED_FACE ( 'NONE', ( #274 ), #133, .F. ) ;
#219 = PRODUCT ( '59525', '59525', '', ( #248 ) ) ;
#220 = ORIENTED_EDGE ( 'NONE', *, *, #85, .T. ) ;
#221 =( NAMED_UNIT ( * ) SI_UNIT ( $, .STERADIAN. ) SOLID_ANGLE_UNIT ( ) );
#222 = COLOUR_RGB ( '',1.000000000000000000, 0.000000000000000000, 0.000000000000000000 ) ;
#223 = AXIS2_PLACEMENT_3D ( 'NONE', #195, #12, #113 ) ;
#224 = VERTEX_POINT ( 'NONE', #189 ) ;
#225 = SURFACE_STYLE_USAGE ( .BOTH. , #140 ) ;
#226 = FACE_OUTER_BOUND ( 'NONE', #41, .T. ) ;
#227 = EDGE_LOOP ( 'NONE', ( #137, #220, #57, #14 ) ) ;
#228 = EDGE_CURVE ( 'NONE', #129, #258, #155, .T. ) ;
#229 = CARTESIAN_POINT ( 'NONE',  ( 6.000000000000000000, 18.00000000000000355, 7.347880794884120722E-16 ) ) ;
#230 = CLOSED_SHELL ( 'NONE', ( #276, #10, #15, #218 ) ) ;
#231 =( GEOMETRIC_REPRESENTATION_CONTEXT ( 3 ) GLOBAL_UNCERTAINTY_ASSIGNED_CONTEXT ( ( #200 ) ) GLOBAL_UNIT_ASSIGNED_CONTEXT ( ( #79, #132, #286 ) ) REPRESENTATION_CONTEXT ( 'NONE', 'WORKASPACE' ) );
#232 = FACE_OUTER_BOUND ( 'NONE', #93, .T. ) ;
#233 = DIRECTION ( 'NONE',  ( 2.578203787678638266E-17, -1.000000000000000000, 0.000000000000000000 ) ) ;
#234 = CARTESIAN_POINT ( 'NONE',  ( 0.000000000000000000, 18.00000000000000000, 0.000000000000000000 ) ) ;
#235 =( GEOMETRIC_REPRESENTATION_CONTEXT ( 3 ) GLOBAL_UNCERTAINTY_ASSIGNED_CONTEXT ( ( #141 ) ) GLOBAL_UNIT_ASSIGNED_CONTEXT ( ( #23, #106, #53 ) ) REPRESENTATION_CONTEXT ( 'NONE', 'WORKASPACE' ) );
#236 = VECTOR ( 'NONE', #123, 1000.000000000000000 ) ;
#237 = PRESENTATION_LAYER_ASSIGNMENT (  '', '', ( #191 ) ) ;
#238 = CARTESIAN_POINT ( 'NONE',  ( 5.999999999999999112, 75.00000000000000000, 7.347880794884120722E-16 ) ) ;
#239 = ORIENTED_EDGE ( 'NONE', *, *, #31, .T. ) ;
#240 = FILL_AREA_STYLE_COLOUR ( '', #63 ) ;
#241 = DIRECTION ( 'NONE',  ( -0.000000000000000000, -1.000000000000000000, -0.000000000000000000 ) ) ;
#242 = FILL_AREA_STYLE ('',( #213 ) ) ;
#243 = SURFACE_STYLE_FILL_AREA ( #198 ) ;
#244 = FILL_AREA_STYLE ('',( #91 ) ) ;
#245 = AXIS2_PLACEMENT_3D ( 'NONE', #161, #190, #173 ) ;
#246 = ORIENTED_EDGE ( 'NONE', *, *, #61, .T. ) ;
#247 = APPLICATION_CONTEXT ( 'automotive_design' ) ;
#248 = PRODUCT_CONTEXT ( 'NONE', #247, 'mechanical' ) ;
#249 = FILL_AREA_STYLE_COLOUR ( '', #30 ) ;
#250 = CARTESIAN_POINT ( 'NONE',  ( -6.000000000000002665, 75.00000000000000000, 0.000000000000000000 ) ) ;
#251 =( GEOMETRIC_REPRESENTATION_CONTEXT ( 3 ) GLOBAL_UNCERTAINTY_ASSIGNED_CONTEXT ( ( #71 ) ) GLOBAL_UNIT_ASSIGNED_CONTEXT ( ( #177, #156, #120 ) ) REPRESENTATION_CONTEXT ( 'NONE', 'WORKASPACE' ) );
#252 = FACE_OUTER_BOUND ( 'NONE', #87, .T. ) ;
#253 = CLOSED_SHELL ( 'NONE', ( #90, #280, #52, #95 ) ) ;
#254 = ORIENTED_EDGE ( 'NONE', *, *, #36, .F. ) ;
#255 = CARTESIAN_POINT ( 'NONE',  ( 0.000000000000000000, 0.000000000000000000, 0.000000000000000000 ) ) ;
#256 = PRESENTATION_STYLE_ASSIGNMENT (( #88 ) ) ;
#257 = PRESENTATION_STYLE_ASSIGNMENT (( #179 ) ) ;
#258 = VERTEX_POINT ( 'NONE', #205 ) ;
#259 = PRESENTATION_LAYER_ASSIGNMENT (  '', '', ( #6 ) ) ;
#260 = CYLINDRICAL_SURFACE ( 'NONE', #147, 6.000000000000000000 ) ;
#261 = EDGE_LOOP ( 'NONE', ( #66, #16 ) ) ;
#262 = FACE_OUTER_BOUND ( 'NONE', #212, .T. ) ;
#263 = ORIENTED_EDGE ( 'NONE', *, *, #122, .F. ) ;
#264 = DIRECTION ( 'NONE',  ( -2.578203787678638266E-17, 1.000000000000000000, -0.000000000000000000 ) ) ;
#265 = FILL_AREA_STYLE_COLOUR ( '', #13 ) ;
#266 = CARTESIAN_POINT ( 'NONE',  ( 1.994140431240143121E-33, 18.00000000000000000, 0.000000000000000000 ) ) ;
#267 = FILL_AREA_STYLE ('',( #249 ) ) ;
#268 = PLANE ( 'NONE',  #209 ) ;
#269 =( LENGTH_UNIT ( ) NAMED_UNIT ( * ) SI_UNIT ( .MILLI., .METRE. ) );
#270 = MANIFOLD_SOLID_BREP ( 'Revolve - Tool Body (Straight Shanked)', #230 ) ;
#271 = ORIENTED_EDGE ( 'NONE', *, *, #36, .T. ) ;
#272 = APPLICATION_CONTEXT ( 'automotive_design' ) ;
#273 = MANIFOLD_SOLID_BREP ( 'Revolve - Cutting Edge', #253 ) ;
#274 = FACE_OUTER_BOUND ( 'NONE', #135, .T. ) ;
#275 = AXIS2_PLACEMENT_3D ( 'NONE', #103, #55, #34 ) ;
#276 = ADVANCED_FACE ( 'NONE', ( #37 ), #28, .T. ) ;
#277 = PRESENTATION_LAYER_ASSIGNMENT (  '', '', ( #118 ) ) ;
#278 = SURFACE_SIDE_STYLE ('',( #17 ) ) ;
#279 = CARTESIAN_POINT ( 'NONE',  ( 0.000000000000000000, 0.000000000000000000, 0.000000000000000000 ) ) ;
#280 = ADVANCED_FACE ( 'NONE', ( #252 ), #86, .T. ) ;
#281 = PRODUCT_DEFINITION_CONTEXT ( 'detailed design', #272, 'design' ) ;
#282 =( GEOMETRIC_REPRESENTATION_CONTEXT ( 3 ) GLOBAL_UNCERTAINTY_ASSIGNED_CONTEXT ( ( #50 ) ) GLOBAL_UNIT_ASSIGNED_CONTEXT ( ( #160, #107, #164 ) ) REPRESENTATION_CONTEXT ( 'NONE', 'WORKASPACE' ) );
#283 = DIRECTION ( 'NONE',  ( -0.000000000000000000, -1.000000000000000000, -0.000000000000000000 ) ) ;
#284 = PRESENTATION_STYLE_ASSIGNMENT (( #73 ) ) ;
#285 = LINE ( 'NONE', #158, #236 ) ;
#286 =( NAMED_UNIT ( * ) SI_UNIT ( $, .STERADIAN. ) SOLID_ANGLE_UNIT ( ) );
#287 =( NAMED_UNIT ( * ) PLANE_ANGLE_UNIT ( ) SI_UNIT ( $, .RADIAN. ) );
#288 =( GEOMETRIC_REPRESENTATION_CONTEXT ( 3 ) GLOBAL_UNCERTAINTY_ASSIGNED_CONTEXT ( ( #121 ) ) GLOBAL_UNIT_ASSIGNED_CONTEXT ( ( #45, #139, #221 ) ) REPRESENTATION_CONTEXT ( 'NONE', 'WORKASPACE' ) );
ENDSEC;
END-ISO-10303-21;
