ISO-10303-21;
HEADER;
FILE_DESCRIPTION (( 'STEP AP214' ),
    '1' );
FILE_NAME ('Micro_AEMM-070-4X.STEP',
    '2022-03-15T14:28:34',
    ( '' ),
    ( '' ),
    'SwSTEP 2.0',
    'SolidWorks 2022',
    '' );
FILE_SCHEMA (( 'AUTOMOTIVE_DESIGN' ));
ENDSEC;

DATA;
#1 = CARTESIAN_POINT ( 'NONE',  ( 1.198393629007321272E-16, 0.000000000000000000, 0.9785626597331489318 ) ) ;
#2 = ORIENTED_EDGE ( 'NONE', *, *, #37, .F. ) ;
#3 = ORIENTED_EDGE ( 'NONE', *, *, #132, .T. ) ;
#4 = VECTOR ( 'NONE', #195, 39.37007874015748854 ) ;
#5 = CARTESIAN_POINT ( 'NONE',  ( 1.198393629007321272E-16, 0.000000000000000000, 0.9785626597331489318 ) ) ;
#6 = FACE_OUTER_BOUND ( 'NONE', #205, .T. ) ;
#7 = CARTESIAN_POINT ( 'NONE',  ( -0.1574804999999998567, 0.000000000000000000, 0.9785626597331489318 ) ) ;
#8 =( GEOMETRIC_REPRESENTATION_CONTEXT ( 3 ) GLOBAL_UNCERTAINTY_ASSIGNED_CONTEXT ( ( #146 ) ) GLOBAL_UNIT_ASSIGNED_CONTEXT ( ( #83, #35, #180 ) ) REPRESENTATION_CONTEXT ( 'NONE', 'WORKASPACE' ) );
#9 = FACE_OUTER_BOUND ( 'NONE', #203, .T. ) ;
#10 =( NAMED_UNIT ( * ) SI_UNIT ( $, .STERADIAN. ) SOLID_ANGLE_UNIT ( ) );
#11 = EDGE_CURVE ( 'NONE', #121, #224, #267, .T. ) ;
#12 = CARTESIAN_POINT ( 'NONE',  ( 0.000000000000000000, 0.000000000000000000, 2.465314999999999923 ) ) ;
#13 = FACE_OUTER_BOUND ( 'NONE', #88, .T. ) ;
#14 = CONICAL_SURFACE ( 'NONE', #241, 0.1424804999999990940, 0.7853981633974699283 ) ;
#15 = DIRECTION ( 'NONE',  ( -1.000000000000000000, 0.000000000000000000, 1.224646799147353207E-16 ) ) ;
#16 = AXIS2_PLACEMENT_3D ( 'NONE', #171, #117, #256 ) ;
#17 = AXIS2_PLACEMENT_3D ( 'NONE', #1, #187, #236 ) ;
#18 = EDGE_CURVE ( 'NONE', #224, #121, #68, .T. ) ;
#19 = ORIENTED_EDGE ( 'NONE', *, *, #65, .F. ) ;
#20 = VERTEX_POINT ( 'NONE', #214 ) ;
#21 = DIRECTION ( 'NONE',  ( -1.224646799147353207E-16, -0.000000000000000000, -1.000000000000000000 ) ) ;
#22 = COLOUR_RGB ( '',0.7921568627450980005, 0.8196078431372548767, 0.9333333333333333481 ) ;
#23 = LINE ( 'NONE', #276, #235 ) ;
#24 = EDGE_CURVE ( 'NONE', #138, #140, #274, .T. ) ;
#25 = DIRECTION ( 'NONE',  ( 1.000000000000000000, 0.000000000000000000, -0.000000000000000000 ) ) ;
#26 = CARTESIAN_POINT ( 'NONE',  ( 0.000000000000000000, 0.000000000000000000, 2.480315000000000047 ) ) ;
#27 = CONICAL_SURFACE ( 'NONE', #198, 0.1424804999999990940, 0.7853981633974699283 ) ;
#28 = CARTESIAN_POINT ( 'NONE',  ( -0.1376577044999999222, 1.807200287235109884E-17, 0.8661419999999999675 ) ) ;
#29 = DIRECTION ( 'NONE',  ( -1.000000000000000000, 0.000000000000000000, 0.000000000000000000 ) ) ;
#30 = SURFACE_SIDE_STYLE ('',( #283 ) ) ;
#31 = AXIS2_PLACEMENT_3D ( 'NONE', #133, #197, #237 ) ;
#32 = DIRECTION ( 'NONE',  ( 0.000000000000000000, 0.000000000000000000, 1.000000000000000000 ) ) ;
#33 = CYLINDRICAL_SURFACE ( 'NONE', #31, 0.1376577045000000055 ) ;
#34 = CARTESIAN_POINT ( 'NONE',  ( 0.000000000000000000, 0.000000000000000000, 2.465314999999999923 ) ) ;
#35 =( NAMED_UNIT ( * ) PLANE_ANGLE_UNIT ( ) SI_UNIT ( $, .RADIAN. ) );
#36 = ORIENTED_EDGE ( 'NONE', *, *, #37, .T. ) ;
#37 = EDGE_CURVE ( 'NONE', #20, #227, #277, .T. ) ;
#38 =( LENGTH_UNIT ( ) NAMED_UNIT ( * ) SI_UNIT ( $, .METRE. ) );
#39 = ORIENTED_EDGE ( 'NONE', *, *, #260, .T. ) ;
#40 = ORIENTED_EDGE ( 'NONE', *, *, #115, .T. ) ;
#41 = EDGE_CURVE ( 'NONE', #224, #61, #279, .T. ) ;
#42 = AXIS2_PLACEMENT_3D ( 'NONE', #125, #32, #238 ) ;
#43 = EDGE_LOOP ( 'NONE', ( #39, #299 ) ) ;
#44 = CARTESIAN_POINT ( 'NONE',  ( -0.1424804999999990940, 0.000000000000000000, 2.480315000000000047 ) ) ;
#45 = CARTESIAN_POINT ( 'NONE',  ( 2.064534889826502042E-33, 0.000000000000000000, 1.685820671938972047E-17 ) ) ;
#46 = ADVANCED_FACE ( 'NONE', ( #167 ), #264, .T. ) ;
#47 = DIRECTION ( 'NONE',  ( 1.000000000000000000, 0.000000000000000000, 0.000000000000000000 ) ) ;
#48 = DIRECTION ( 'NONE',  ( -0.000000000000000000, -0.000000000000000000, -1.000000000000000000 ) ) ;
#49 = FACE_OUTER_BOUND ( 'NONE', #43, .T. ) ;
#50 = PRESENTATION_LAYER_ASSIGNMENT (  '', '', ( #100 ) ) ;
#51 = CARTESIAN_POINT ( 'NONE',  ( 0.000000000000000000, 0.000000000000000000, 2.480315000000000047 ) ) ;
#52 = CARTESIAN_POINT ( 'NONE',  ( 0.1424804999999990940, 1.836731392595189962E-17, 2.480315000000000047 ) ) ;
#53 =( LENGTH_UNIT ( ) NAMED_UNIT ( * ) SI_UNIT ( $, .METRE. ) );
#54 = AXIS2_PLACEMENT_3D ( 'NONE', #79, #134, #259 ) ;
#55 = CARTESIAN_POINT ( 'NONE',  ( -0.1574804999999999955, 0.000000000000000000, 2.465314999999999923 ) ) ;
#56 = PLANE ( 'NONE',  #225 ) ;
#57 = ADVANCED_FACE ( 'NONE', ( #49 ), #145, .T. ) ;
#58 = ORIENTED_EDGE ( 'NONE', *, *, #181, .F. ) ;
#59 = PRESENTATION_STYLE_ASSIGNMENT (( #199 ) ) ;
#60 = VECTOR ( 'NONE', #186, 39.37007874015748854 ) ;
#61 = VERTEX_POINT ( 'NONE', #170 ) ;
#62 = ORIENTED_EDGE ( 'NONE', *, *, #181, .T. ) ;
#63 = ORIENTED_EDGE ( 'NONE', *, *, #72, .F. ) ;
#64 = LINE ( 'NONE', #44, #60 ) ;
#65 = EDGE_CURVE ( 'NONE', #209, #61, #23, .T. ) ;
#66 = ORIENTED_EDGE ( 'NONE', *, *, #233, .F. ) ;
#67 = ORIENTED_EDGE ( 'NONE', *, *, #157, .F. ) ;
#68 = CIRCLE ( 'NONE', #212, 0.1376577045000000055 ) ;
#69 = CIRCLE ( 'NONE', #150, 0.1574804999999999955 ) ;
#70 = UNCERTAINTY_MEASURE_WITH_UNIT (LENGTH_MEASURE( 1.000000000000000082E-05 ), #107, 'distance_accuracy_value', 'NONE');
#71 = DIRECTION ( 'NONE',  ( 0.000000000000000000, 0.000000000000000000, 1.000000000000000000 ) ) ;
#72 = EDGE_CURVE ( 'NONE', #121, #20, #144, .T. ) ;
#73 = DIRECTION ( 'NONE',  ( 0.1736481776669314137, 0.000000000000000000, 0.9848077530122077983 ) ) ;
#74 = DIRECTION ( 'NONE',  ( 1.000000000000000000, 0.000000000000000000, -0.000000000000000000 ) ) ;
#75 = AXIS2_PLACEMENT_3D ( 'NONE', #34, #220, #219 ) ;
#76 = CARTESIAN_POINT ( 'NONE',  ( -0.1376577044999999222, 1.685820671938972047E-17, 0.8661419999999999675 ) ) ;
#77 = CARTESIAN_POINT ( 'NONE',  ( 0.1376577045000000055, 1.685820671938972047E-17, 0.000000000000000000 ) ) ;
#78 = ADVANCED_FACE ( 'NONE', ( #6 ), #215, .T. ) ;
#79 = CARTESIAN_POINT ( 'NONE',  ( 0.000000000000000000, 0.000000000000000000, 0.000000000000000000 ) ) ;
#80 = VECTOR ( 'NONE', #189, 39.37007874015748143 ) ;
#81 = PRODUCT_DEFINITION_FORMATION_WITH_SPECIFIED_SOURCE ( 'ANY', '', #226, .NOT_KNOWN. ) ;
#82 = DIRECTION ( 'NONE',  ( 1.000000000000000000, 0.000000000000000000, 0.000000000000000000 ) ) ;
#83 =( CONVERSION_BASED_UNIT ( 'INCH', #137 ) LENGTH_UNIT ( ) NAMED_UNIT ( #290 ) );
#84 = LENGTH_MEASURE_WITH_UNIT ( LENGTH_MEASURE( 0.02539999999999999897 ), #53 );
#85 = FILL_AREA_STYLE_COLOUR ( '', #22 ) ;
#86 = DIMENSIONAL_EXPONENTS ( 1.000000000000000000, 0.000000000000000000, 0.000000000000000000, 0.000000000000000000, 0.000000000000000000, 0.000000000000000000, 0.000000000000000000 ) ;
#87 = AXIS2_PLACEMENT_3D ( 'NONE', #51, #104, #29 ) ;
#88 = EDGE_LOOP ( 'NONE', ( #36, #249 ) ) ;
#89 = MECHANICAL_DESIGN_GEOMETRIC_PRESENTATION_REPRESENTATION (  '', ( #213 ), #292 ) ;
#90 = ORIENTED_EDGE ( 'NONE', *, *, #260, .F. ) ;
#91 = ORIENTED_EDGE ( 'NONE', *, *, #18, .F. ) ;
#92 = DIRECTION ( 'NONE',  ( -0.000000000000000000, -0.000000000000000000, -1.000000000000000000 ) ) ;
#93 = CARTESIAN_POINT ( 'NONE',  ( 1.060718027907086782E-16, 0.000000000000000000, 0.8661419999999999675 ) ) ;
#94 = EDGE_CURVE ( 'NONE', #61, #140, #278, .T. ) ;
#95 = COLOUR_RGB ( '',0.7921568627450980005, 0.8196078431372548767, 0.9333333333333333481 ) ;
#96 = PRODUCT_DEFINITION_CONTEXT ( 'detailed design', #185, 'design' ) ;
#97 = CARTESIAN_POINT ( 'NONE',  ( 1.060718027907086782E-16, 0.000000000000000000, 0.8661419999999999675 ) ) ;
#98 = CARTESIAN_POINT ( 'NONE',  ( 1.060718027907086782E-16, 0.000000000000000000, 0.8661419999999999675 ) ) ;
#99 = FILL_AREA_STYLE_COLOUR ( '', #95 ) ;
#100 = STYLED_ITEM ( 'NONE', ( #59 ), #123 ) ;
#101 =( NAMED_UNIT ( * ) PLANE_ANGLE_UNIT ( ) SI_UNIT ( $, .RADIAN. ) );
#102 = SURFACE_STYLE_USAGE ( .BOTH. , #30 ) ;
#103 = PRODUCT_CONTEXT ( 'NONE', #161, 'mechanical' ) ;
#104 = DIRECTION ( 'NONE',  ( -0.000000000000000000, -0.000000000000000000, -1.000000000000000000 ) ) ;
#105 = APPLICATION_PROTOCOL_DEFINITION ( 'draft international standard', 'automotive_design', 1998, #161 ) ;
#106 = CARTESIAN_POINT ( 'NONE',  ( 0.000000000000000000, 0.000000000000000000, 0.000000000000000000 ) ) ;
#107 =( CONVERSION_BASED_UNIT ( 'INCH', #84 ) LENGTH_UNIT ( ) NAMED_UNIT ( #120 ) );
#108 = SURFACE_STYLE_FILL_AREA ( #242 ) ;
#109 = ORIENTED_EDGE ( 'NONE', *, *, #24, .F. ) ;
#110 = EDGE_LOOP ( 'NONE', ( #298, #295, #222, #109 ) ) ;
#111 = AXIS2_PLACEMENT_3D ( 'NONE', #26, #92, #122 ) ;
#112 = ORIENTED_EDGE ( 'NONE', *, *, #190, .F. ) ;
#113 = ORIENTED_EDGE ( 'NONE', *, *, #288, .F. ) ;
#114 = EDGE_LOOP ( 'NONE', ( #211, #223, #40, #228 ) ) ;
#115 = EDGE_CURVE ( 'NONE', #140, #61, #143, .T. ) ;
#116 = CIRCLE ( 'NONE', #75, 0.1574804999999999955 ) ;
#117 = DIRECTION ( 'NONE',  ( 1.224646799147353207E-16, 0.000000000000000000, 1.000000000000000000 ) ) ;
#118 = PRODUCT_DEFINITION_SHAPE ( 'NONE', 'NONE',  #270 ) ;
#119 = ORIENTED_EDGE ( 'NONE', *, *, #41, .T. ) ;
#120 = DIMENSIONAL_EXPONENTS ( 1.000000000000000000, 0.000000000000000000, 0.000000000000000000, 0.000000000000000000, 0.000000000000000000, 0.000000000000000000, 0.000000000000000000 ) ;
#121 = VERTEX_POINT ( 'NONE', #28 ) ;
#122 = DIRECTION ( 'NONE',  ( -1.000000000000000000, 0.000000000000000000, 0.000000000000000000 ) ) ;
#123 = ADVANCED_BREP_SHAPE_REPRESENTATION ( 'Micro_AEMM-070-4X', ( #293, #156 ), #8 ) ;
#124 = DIRECTION ( 'NONE',  ( -1.224646799147353207E-16, -0.000000000000000000, -1.000000000000000000 ) ) ;
#125 = CARTESIAN_POINT ( 'NONE',  ( 0.000000000000000000, 0.000000000000000000, 2.480315000000000047 ) ) ;
#126 = ADVANCED_FACE ( 'NONE', ( #169 ), #155, .T. ) ;
#127 = DIRECTION ( 'NONE',  ( -0.1736481776669312194, 2.126576849575783625E-17, 0.9848077530122080203 ) ) ;
#128 = AXIS2_PLACEMENT_3D ( 'NONE', #191, #263, #15 ) ;
#129 = DIRECTION ( 'NONE',  ( 1.000000000000000000, 0.000000000000000000, 0.000000000000000000 ) ) ;
#130 = CARTESIAN_POINT ( 'NONE',  ( 0.1424804999999990940, 1.744882882659133128E-17, 2.480315000000000047 ) ) ;
#131 =( NAMED_UNIT ( * ) PLANE_ANGLE_UNIT ( ) SI_UNIT ( $, .RADIAN. ) );
#132 = EDGE_CURVE ( 'NONE', #136, #138, #64, .T. ) ;
#133 = CARTESIAN_POINT ( 'NONE',  ( 0.000000000000000000, 0.000000000000000000, 0.000000000000000000 ) ) ;
#134 = DIRECTION ( 'NONE',  ( -1.224646799147353207E-16, -0.000000000000000000, -1.000000000000000000 ) ) ;
#135 = VECTOR ( 'NONE', #127, 39.37007874015747433 ) ;
#136 = VERTEX_POINT ( 'NONE', #275 ) ;
#137 = LENGTH_MEASURE_WITH_UNIT ( LENGTH_MEASURE( 0.02539999999999999897 ), #38 );
#138 = VERTEX_POINT ( 'NONE', #55 ) ;
#139 = ADVANCED_FACE ( 'NONE', ( #243 ), #218, .T. ) ;
#140 = VERTEX_POINT ( 'NONE', #7 ) ;
#141 = AXIS2_PLACEMENT_3D ( 'NONE', #251, #71, #25 ) ;
#142 = CARTESIAN_POINT ( 'NONE',  ( 0.1376577045000001165, 0.000000000000000000, 0.8661419999999999675 ) ) ;
#143 = CIRCLE ( 'NONE', #17, 0.1574804999999999955 ) ;
#144 = LINE ( 'NONE', #231, #80 ) ;
#145 = PLANE ( 'NONE',  #141 ) ;
#146 = UNCERTAINTY_MEASURE_WITH_UNIT (LENGTH_MEASURE( 1.000000000000000082E-05 ), #83, 'distance_accuracy_value', 'NONE');
#147 = DIRECTION ( 'NONE',  ( -1.224646799147353207E-16, -0.000000000000000000, -1.000000000000000000 ) ) ;
#148 = DIRECTION ( 'NONE',  ( 1.000000000000000000, 0.000000000000000000, 0.000000000000000000 ) ) ;
#149 = AXIS2_PLACEMENT_3D ( 'NONE', #45, #21, #255 ) ;
#150 = AXIS2_PLACEMENT_3D ( 'NONE', #12, #179, #82 ) ;
#151 = CARTESIAN_POINT ( 'NONE',  ( 0.000000000000000000, 0.000000000000000000, 2.480315000000000047 ) ) ;
#152 = DIRECTION ( 'NONE',  ( 0.000000000000000000, 0.000000000000000000, 1.000000000000000000 ) ) ;
#153 = DIRECTION ( 'NONE',  ( 0.000000000000000000, 0.000000000000000000, 1.000000000000000000 ) ) ;
#154 = CARTESIAN_POINT ( 'NONE',  ( 0.1376577045000000055, 1.685820671938972047E-17, -1.685820671938972047E-17 ) ) ;
#155 = CONICAL_SURFACE ( 'NONE', #248, 0.1376577045000000055, 0.1745329251994339192 ) ;
#156 = AXIS2_PLACEMENT_3D ( 'NONE', #261, #153, #129 ) ;
#157 = EDGE_CURVE ( 'NONE', #184, #209, #194, .T. ) ;
#158 = DIRECTION ( 'NONE',  ( -1.224646799147353207E-16, -0.000000000000000000, -1.000000000000000000 ) ) ;
#159 = LINE ( 'NONE', #76, #135 ) ;
#160 = ORIENTED_EDGE ( 'NONE', *, *, #273, .F. ) ;
#161 = APPLICATION_CONTEXT ( 'automotive_design' ) ;
#162 = CIRCLE ( 'NONE', #42, 0.1424804999999990940 ) ;
#163 = ORIENTED_EDGE ( 'NONE', *, *, #18, .T. ) ;
#164 = ORIENTED_EDGE ( 'NONE', *, *, #157, .T. ) ;
#165 = EDGE_LOOP ( 'NONE', ( #271, #207, #2, #63 ) ) ;
#166 = EDGE_LOOP ( 'NONE', ( #67, #90, #3, #58 ) ) ;
#167 = FACE_OUTER_BOUND ( 'NONE', #114, .T. ) ;
#168 = CARTESIAN_POINT ( 'NONE',  ( -0.1574804999999999955, 0.000000000000000000, 2.480315000000000047 ) ) ;
#169 = FACE_OUTER_BOUND ( 'NONE', #202, .T. ) ;
#170 = CARTESIAN_POINT ( 'NONE',  ( 0.1574805000000001343, 1.928579902531249261E-17, 0.9785626597331489318 ) ) ;
#171 = CARTESIAN_POINT ( 'NONE',  ( 1.060718027907086782E-16, 0.000000000000000000, 0.8661419999999999675 ) ) ;
#172 = PRODUCT_RELATED_PRODUCT_CATEGORY ( 'part', '', ( #226 ) ) ;
#173 = DIRECTION ( 'NONE',  ( 0.000000000000000000, 0.000000000000000000, -1.000000000000000000 ) ) ;
#174 =( GEOMETRIC_REPRESENTATION_CONTEXT ( 3 ) GLOBAL_UNCERTAINTY_ASSIGNED_CONTEXT ( ( #254 ) ) GLOBAL_UNIT_ASSIGNED_CONTEXT ( ( #284, #131, #200 ) ) REPRESENTATION_CONTEXT ( 'NONE', 'WORKASPACE' ) );
#175 = DIRECTION ( 'NONE',  ( 1.000000000000000000, 0.000000000000000000, 0.000000000000000000 ) ) ;
#176 =( LENGTH_UNIT ( ) NAMED_UNIT ( * ) SI_UNIT ( $, .METRE. ) );
#177 = CARTESIAN_POINT ( 'NONE',  ( 0.1574804999999999955, 1.928579902531247412E-17, 2.465314999999999923 ) ) ;
#178 = CLOSED_SHELL ( 'NONE', ( #139, #46, #265, #282, #78, #57, #296, #126, #229, #245 ) ) ;
#179 = DIRECTION ( 'NONE',  ( 0.000000000000000000, 0.000000000000000000, -1.000000000000000000 ) ) ;
#180 =( NAMED_UNIT ( * ) SI_UNIT ( $, .STERADIAN. ) SOLID_ANGLE_UNIT ( ) );
#181 = EDGE_CURVE ( 'NONE', #209, #138, #116, .T. ) ;
#182 = ORIENTED_EDGE ( 'NONE', *, *, #201, .F. ) ;
#183 = EDGE_LOOP ( 'NONE', ( #113, #164, #160, #210 ) ) ;
#184 = VERTEX_POINT ( 'NONE', #52 ) ;
#185 = APPLICATION_CONTEXT ( 'automotive_design' ) ;
#186 = DIRECTION ( 'NONE',  ( -0.7071067811865627828, 0.000000000000000000, -0.7071067811865321406 ) ) ;
#187 = DIRECTION ( 'NONE',  ( -1.224646799147353207E-16, -0.000000000000000000, -1.000000000000000000 ) ) ;
#188 = DIRECTION ( 'NONE',  ( -1.000000000000000000, 0.000000000000000000, 0.000000000000000000 ) ) ;
#189 = DIRECTION ( 'NONE',  ( -1.224646799147353207E-16, -0.000000000000000000, -1.000000000000000000 ) ) ;
#190 = EDGE_CURVE ( 'NONE', #121, #140, #159, .T. ) ;
#191 = CARTESIAN_POINT ( 'NONE',  ( 2.064534889826502042E-33, 0.000000000000000000, 1.685820671938972047E-17 ) ) ;
#192 = FILL_AREA_STYLE ('',( #99 ) ) ;
#193 = VECTOR ( 'NONE', #158, 39.37007874015748143 ) ;
#194 = LINE ( 'NONE', #130, #4 ) ;
#195 = DIRECTION ( 'NONE',  ( 0.7071067811865627828, 8.659560562355118980E-17, -0.7071067811865321406 ) ) ;
#196 = APPLICATION_PROTOCOL_DEFINITION ( 'draft international standard', 'automotive_design', 1998, #185 ) ;
#197 = DIRECTION ( 'NONE',  ( -1.224646799147353207E-16, -0.000000000000000000, -1.000000000000000000 ) ) ;
#198 = AXIS2_PLACEMENT_3D ( 'NONE', #216, #244, #262 ) ;
#199 = SURFACE_STYLE_USAGE ( .BOTH. , #247 ) ;
#200 =( NAMED_UNIT ( * ) SI_UNIT ( $, .STERADIAN. ) SOLID_ANGLE_UNIT ( ) );
#201 = EDGE_CURVE ( 'NONE', #224, #227, #246, .T. ) ;
#202 = EDGE_LOOP ( 'NONE', ( #112, #91, #119, #268 ) ) ;
#203 = EDGE_LOOP ( 'NONE', ( #182, #163, #206, #66 ) ) ;
#204 = CIRCLE ( 'NONE', #128, 0.1376577045000000055 ) ;
#205 = EDGE_LOOP ( 'NONE', ( #19, #62, #272, #280 ) ) ;
#206 = ORIENTED_EDGE ( 'NONE', *, *, #72, .T. ) ;
#207 = ORIENTED_EDGE ( 'NONE', *, *, #201, .T. ) ;
#208 = AXIS2_PLACEMENT_3D ( 'NONE', #151, #152, #175 ) ;
#209 = VERTEX_POINT ( 'NONE', #177 ) ;
#210 = ORIENTED_EDGE ( 'NONE', *, *, #132, .F. ) ;
#211 = ORIENTED_EDGE ( 'NONE', *, *, #11, .F. ) ;
#212 = AXIS2_PLACEMENT_3D ( 'NONE', #97, #232, #252 ) ;
#213 = STYLED_ITEM ( 'NONE', ( #285 ), #293 ) ;
#214 = CARTESIAN_POINT ( 'NONE',  ( -0.1376577045000000055, 0.000000000000000000, 3.371641343877944094E-17 ) ) ;
#215 = CYLINDRICAL_SURFACE ( 'NONE', #111, 0.1574804999999999955 ) ;
#216 = CARTESIAN_POINT ( 'NONE',  ( 0.000000000000000000, 0.000000000000000000, 2.480315000000000047 ) ) ;
#217 = CARTESIAN_POINT ( 'NONE',  ( 0.1376577045000001165, 0.000000000000000000, 0.8661419999999999675 ) ) ;
#218 = CYLINDRICAL_SURFACE ( 'NONE', #54, 0.1376577045000000055 ) ;
#219 = DIRECTION ( 'NONE',  ( 1.000000000000000000, 0.000000000000000000, 0.000000000000000000 ) ) ;
#220 = DIRECTION ( 'NONE',  ( 0.000000000000000000, 0.000000000000000000, -1.000000000000000000 ) ) ;
#221 = AXIS2_PLACEMENT_3D ( 'NONE', #5, #124, #148 ) ;
#222 = ORIENTED_EDGE ( 'NONE', *, *, #115, .F. ) ;
#223 = ORIENTED_EDGE ( 'NONE', *, *, #190, .T. ) ;
#224 = VERTEX_POINT ( 'NONE', #217 ) ;
#225 = AXIS2_PLACEMENT_3D ( 'NONE', #106, #287, #74 ) ;
#226 = PRODUCT ( 'Micro_AEMM-070-4X', 'Micro_AEMM-070-4X', '', ( #103 ) ) ;
#227 = VERTEX_POINT ( 'NONE', #77 ) ;
#228 = ORIENTED_EDGE ( 'NONE', *, *, #41, .F. ) ;
#229 = ADVANCED_FACE ( 'NONE', ( #9 ), #33, .T. ) ;
#230 = CIRCLE ( 'NONE', #208, 0.1424804999999990940 ) ;
#231 = CARTESIAN_POINT ( 'NONE',  ( -0.1376577045000000055, 0.000000000000000000, 1.685820671938972047E-17 ) ) ;
#232 = DIRECTION ( 'NONE',  ( -1.224646799147353207E-16, -0.000000000000000000, -1.000000000000000000 ) ) ;
#233 = EDGE_CURVE ( 'NONE', #227, #20, #204, .T. ) ;
#234 = DIRECTION ( 'NONE',  ( -0.000000000000000000, -0.000000000000000000, -1.000000000000000000 ) ) ;
#235 = VECTOR ( 'NONE', #234, 39.37007874015748143 ) ;
#236 = DIRECTION ( 'NONE',  ( 1.000000000000000000, 0.000000000000000000, 0.000000000000000000 ) ) ;
#237 = DIRECTION ( 'NONE',  ( -1.000000000000000000, 0.000000000000000000, 1.224646799147353207E-16 ) ) ;
#238 = DIRECTION ( 'NONE',  ( 1.000000000000000000, 0.000000000000000000, 0.000000000000000000 ) ) ;
#239 = VECTOR ( 'NONE', #48, 39.37007874015748143 ) ;
#240 = CARTESIAN_POINT ( 'NONE',  ( 0.000000000000000000, 0.000000000000000000, 2.480315000000000047 ) ) ;
#241 = AXIS2_PLACEMENT_3D ( 'NONE', #240, #173, #291 ) ;
#242 = FILL_AREA_STYLE ('',( #85 ) ) ;
#243 = FACE_OUTER_BOUND ( 'NONE', #165, .T. ) ;
#244 = DIRECTION ( 'NONE',  ( 0.000000000000000000, 0.000000000000000000, -1.000000000000000000 ) ) ;
#245 = ADVANCED_FACE ( 'NONE', ( #13 ), #56, .F. ) ;
#246 = LINE ( 'NONE', #154, #193 ) ;
#247 = SURFACE_SIDE_STYLE ('',( #108 ) ) ;
#248 = AXIS2_PLACEMENT_3D ( 'NONE', #98, #253, #47 ) ;
#249 = ORIENTED_EDGE ( 'NONE', *, *, #233, .T. ) ;
#250 = PRESENTATION_LAYER_ASSIGNMENT (  '', '', ( #213 ) ) ;
#251 = CARTESIAN_POINT ( 'NONE',  ( 0.000000000000000000, 0.000000000000000000, 2.480315000000000047 ) ) ;
#252 = DIRECTION ( 'NONE',  ( -1.000000000000000000, 0.000000000000000000, 0.000000000000000000 ) ) ;
#253 = DIRECTION ( 'NONE',  ( 1.224646799147353207E-16, 0.000000000000000000, 1.000000000000000000 ) ) ;
#254 = UNCERTAINTY_MEASURE_WITH_UNIT (LENGTH_MEASURE( 1.000000000000000082E-05 ), #284, 'distance_accuracy_value', 'NONE');
#255 = DIRECTION ( 'NONE',  ( -1.000000000000000000, 0.000000000000000000, 1.224646799147353207E-16 ) ) ;
#256 = DIRECTION ( 'NONE',  ( 1.000000000000000000, 0.000000000000000000, 0.000000000000000000 ) ) ;
#257 = MECHANICAL_DESIGN_GEOMETRIC_PRESENTATION_REPRESENTATION (  '', ( #100 ), #174 ) ;
#258 = FACE_OUTER_BOUND ( 'NONE', #110, .T. ) ;
#259 = DIRECTION ( 'NONE',  ( -1.000000000000000000, 0.000000000000000000, 1.224646799147353207E-16 ) ) ;
#260 = EDGE_CURVE ( 'NONE', #136, #184, #230, .T. ) ;
#261 = CARTESIAN_POINT ( 'NONE',  ( 0.000000000000000000, 0.000000000000000000, 0.000000000000000000 ) ) ;
#262 = DIRECTION ( 'NONE',  ( -1.000000000000000000, 0.000000000000000000, 0.000000000000000000 ) ) ;
#263 = DIRECTION ( 'NONE',  ( -1.224646799147353207E-16, -0.000000000000000000, -1.000000000000000000 ) ) ;
#264 = CONICAL_SURFACE ( 'NONE', #16, 0.1376577045000000055, 0.1745329251994339192 ) ;
#265 = ADVANCED_FACE ( 'NONE', ( #281 ), #14, .T. ) ;
#266 = CYLINDRICAL_SURFACE ( 'NONE', #87, 0.1574804999999999955 ) ;
#267 = CIRCLE ( 'NONE', #297, 0.1376577045000000055 ) ;
#268 = ORIENTED_EDGE ( 'NONE', *, *, #94, .T. ) ;
#269 = VECTOR ( 'NONE', #73, 39.37007874015748143 ) ;
#270 = PRODUCT_DEFINITION ( 'UNKNOWN', '', #81, #96 ) ;
#271 = ORIENTED_EDGE ( 'NONE', *, *, #11, .T. ) ;
#272 = ORIENTED_EDGE ( 'NONE', *, *, #24, .T. ) ;
#273 = EDGE_CURVE ( 'NONE', #138, #209, #69, .T. ) ;
#274 = LINE ( 'NONE', #168, #239 ) ;
#275 = CARTESIAN_POINT ( 'NONE',  ( -0.1424804999999990940, 0.000000000000000000, 2.480315000000000047 ) ) ;
#276 = CARTESIAN_POINT ( 'NONE',  ( 0.1574804999999999955, 1.928579902531247412E-17, 2.480315000000000047 ) ) ;
#277 = CIRCLE ( 'NONE', #149, 0.1376577045000000055 ) ;
#278 = CIRCLE ( 'NONE', #221, 0.1574804999999999955 ) ;
#279 = LINE ( 'NONE', #142, #269 ) ;
#280 = ORIENTED_EDGE ( 'NONE', *, *, #94, .F. ) ;
#281 = FACE_OUTER_BOUND ( 'NONE', #183, .T. ) ;
#282 = ADVANCED_FACE ( 'NONE', ( #258 ), #266, .T. ) ;
#283 = SURFACE_STYLE_FILL_AREA ( #192 ) ;
#284 =( CONVERSION_BASED_UNIT ( 'INCH', #286 ) LENGTH_UNIT ( ) NAMED_UNIT ( #86 ) );
#285 = PRESENTATION_STYLE_ASSIGNMENT (( #102 ) ) ;
#286 = LENGTH_MEASURE_WITH_UNIT ( LENGTH_MEASURE( 0.02539999999999999897 ), #176 );
#287 = DIRECTION ( 'NONE',  ( 0.000000000000000000, 0.000000000000000000, 1.000000000000000000 ) ) ;
#288 = EDGE_CURVE ( 'NONE', #184, #136, #162, .T. ) ;
#289 = SHAPE_DEFINITION_REPRESENTATION ( #118, #123 ) ;
#290 = DIMENSIONAL_EXPONENTS ( 1.000000000000000000, 0.000000000000000000, 0.000000000000000000, 0.000000000000000000, 0.000000000000000000, 0.000000000000000000, 0.000000000000000000 ) ;
#291 = DIRECTION ( 'NONE',  ( -1.000000000000000000, 0.000000000000000000, 0.000000000000000000 ) ) ;
#292 =( GEOMETRIC_REPRESENTATION_CONTEXT ( 3 ) GLOBAL_UNCERTAINTY_ASSIGNED_CONTEXT ( ( #70 ) ) GLOBAL_UNIT_ASSIGNED_CONTEXT ( ( #107, #101, #10 ) ) REPRESENTATION_CONTEXT ( 'NONE', 'WORKASPACE' ) );
#293 = MANIFOLD_SOLID_BREP ( 'Cut-Revolve1', #178 ) ;
#294 = FACE_OUTER_BOUND ( 'NONE', #166, .T. ) ;
#295 = ORIENTED_EDGE ( 'NONE', *, *, #65, .T. ) ;
#296 = ADVANCED_FACE ( 'NONE', ( #294 ), #27, .T. ) ;
#297 = AXIS2_PLACEMENT_3D ( 'NONE', #93, #147, #188 ) ;
#298 = ORIENTED_EDGE ( 'NONE', *, *, #273, .T. ) ;
#299 = ORIENTED_EDGE ( 'NONE', *, *, #288, .T. ) ;
ENDSEC;
END-ISO-10303-21;
