ISO-10303-21;
HEADER;
FILE_DESCRIPTION (( 'STEP AP214' ),
    '1' );
FILE_NAME ('Micro_SFP-500-812.STEP',
    '2021-09-02T06:27:57',
    ( '' ),
    ( '' ),
    'SwSTEP 2.0',
    'SolidWorks 2020',
    '' );
FILE_SCHEMA (( 'AUTOMOTIVE_DESIGN' ));
ENDSEC;

DATA;
#1 = CIRCLE ( 'NONE', #216, 0.2497499999999999998 ) ;
#2 = SHAPE_DEFINITION_REPRESENTATION ( #250, #171 ) ;
#3 = LINE ( 'NONE', #28, #248 ) ;
#4 = UNCERTAINTY_MEASURE_WITH_UNIT (LENGTH_MEASURE( 1.000000000000000082E-05 ), #211, 'distance_accuracy_value', 'NONE');
#5 =( LENGTH_UNIT ( ) NAMED_UNIT ( * ) SI_UNIT ( $, .METRE. ) );
#6 = ORIENTED_EDGE ( 'NONE', *, *, #194, .F. ) ;
#7 = FACE_OUTER_BOUND ( 'NONE', #172, .T. ) ;
#8 = AXIS2_PLACEMENT_3D ( 'NONE', #63, #205, #102 ) ;
#9 = CARTESIAN_POINT ( 'NONE',  ( -0.2500000000000000000, 0.0000000000000000000, 4.000000000000000000 ) ) ;
#10 = DIRECTION ( 'NONE',  ( -1.000000000000000000, 0.0000000000000000000, 0.0000000000000000000 ) ) ;
#11 = CYLINDRICAL_SURFACE ( 'NONE', #31, 0.2500000000000000000 ) ;
#12 = AXIS2_PLACEMENT_3D ( 'NONE', #200, #122, #35 ) ;
#13 = EDGE_CURVE ( 'NONE', #289, #156, #3, .T. ) ;
#14 = FACE_OUTER_BOUND ( 'NONE', #210, .T. ) ;
#15 =( LENGTH_UNIT ( ) NAMED_UNIT ( * ) SI_UNIT ( $, .METRE. ) );
#16 = ORIENTED_EDGE ( 'NONE', *, *, #83, .F. ) ;
#17 = CARTESIAN_POINT ( 'NONE',  ( 0.2500000000000000000, 3.061616997868383018E-17, 3.985000000000000320 ) ) ;
#18 = AXIS2_PLACEMENT_3D ( 'NONE', #113, #297, #255 ) ;
#19 = VECTOR ( 'NONE', #283, 39.37007874015748143 ) ;
#20 = DIRECTION ( 'NONE',  ( 0.0000000000000000000, 0.0000000000000000000, 1.000000000000000000 ) ) ;
#21 = ORIENTED_EDGE ( 'NONE', *, *, #13, .F. ) ;
#22 = FACE_OUTER_BOUND ( 'NONE', #145, .T. ) ;
#23 = ORIENTED_EDGE ( 'NONE', *, *, #290, .F. ) ;
#24 = DIRECTION ( 'NONE',  ( 0.0000000000000000000, 0.0000000000000000000, 1.000000000000000000 ) ) ;
#25 = ORIENTED_EDGE ( 'NONE', *, *, #282, .F. ) ;
#26 =( GEOMETRIC_REPRESENTATION_CONTEXT ( 3 ) GLOBAL_UNCERTAINTY_ASSIGNED_CONTEXT ( ( #257 ) ) GLOBAL_UNIT_ASSIGNED_CONTEXT ( ( #84, #291, #271 ) ) REPRESENTATION_CONTEXT ( 'NONE', 'WORKASPACE' ) );
#27 = FACE_OUTER_BOUND ( 'NONE', #169, .T. ) ;
#28 = CARTESIAN_POINT ( 'NONE',  ( 0.2500000000000000000, 3.061616997868383018E-17, 4.000000000000000000 ) ) ;
#29 = EDGE_LOOP ( 'NONE', ( #21, #276, #42, #71 ) ) ;
#30 = ADVANCED_FACE ( 'NONE', ( #27 ), #274, .T. ) ;
#31 = AXIS2_PLACEMENT_3D ( 'NONE', #284, #56, #223 ) ;
#32 = SURFACE_STYLE_USAGE ( .BOTH. , #260 ) ;
#33 = DIRECTION ( 'NONE',  ( -1.224646799147353207E-16, -0.0000000000000000000, -1.000000000000000000 ) ) ;
#34 = DIRECTION ( 'NONE',  ( -0.0000000000000000000, -0.0000000000000000000, -1.000000000000000000 ) ) ;
#35 = DIRECTION ( 'NONE',  ( 1.000000000000000000, 0.0000000000000000000, -0.0000000000000000000 ) ) ;
#36 = STYLED_ITEM ( 'NONE', ( #162 ), #171 ) ;
#37 = DIRECTION ( 'NONE',  ( -1.224646799147353207E-16, -0.0000000000000000000, -1.000000000000000000 ) ) ;
#38 = DIRECTION ( 'NONE',  ( 1.000000000000000000, 0.0000000000000000000, 0.0000000000000000000 ) ) ;
#39 = EDGE_CURVE ( 'NONE', #166, #212, #66, .T. ) ;
#40 = CYLINDRICAL_SURFACE ( 'NONE', #287, 0.2500000000000000000 ) ;
#41 = LINE ( 'NONE', #110, #167 ) ;
#42 = ORIENTED_EDGE ( 'NONE', *, *, #119, .T. ) ;
#43 = DIRECTION ( 'NONE',  ( 0.0000000000000000000, 0.0000000000000000000, -1.000000000000000000 ) ) ;
#44 = VECTOR ( 'NONE', #202, 39.37007874015748143 ) ;
#45 = SURFACE_STYLE_USAGE ( .BOTH. , #251 ) ;
#46 = ORIENTED_EDGE ( 'NONE', *, *, #151, .F. ) ;
#47 = ORIENTED_EDGE ( 'NONE', *, *, #261, .T. ) ;
#48 = ADVANCED_FACE ( 'NONE', ( #237 ), #76, .T. ) ;
#49 = CARTESIAN_POINT ( 'NONE',  ( -0.2499999999999998335, 0.0000000000000000000, 1.501417820454904462 ) ) ;
#50 = FILL_AREA_STYLE_COLOUR ( '', #127 ) ;
#51 = CIRCLE ( 'NONE', #95, 0.2497499999999999998 ) ;
#52 = PRODUCT_CONTEXT ( 'NONE', #298, 'mechanical' ) ;
#53 = EDGE_LOOP ( 'NONE', ( #16, #275, #85, #46 ) ) ;
#54 = CARTESIAN_POINT ( 'NONE',  ( 1.836970198721030181E-16, 0.0000000000000000000, 1.500000000000000222 ) ) ;
#55 = AXIS2_PLACEMENT_3D ( 'NONE', #54, #146, #184 ) ;
#56 = DIRECTION ( 'NONE',  ( -0.0000000000000000000, -0.0000000000000000000, -1.000000000000000000 ) ) ;
#57 = FACE_OUTER_BOUND ( 'NONE', #208, .T. ) ;
#58 = PLANE ( 'NONE',  #8 ) ;
#59 = VERTEX_POINT ( 'NONE', #49 ) ;
#60 = CARTESIAN_POINT ( 'NONE',  ( 0.2497499999999999998, 3.058555380870514950E-17, 0.0000000000000000000 ) ) ;
#61 = CARTESIAN_POINT ( 'NONE',  ( 0.2350000000000006251, 2.969768487932335429E-17, 4.000000000000000000 ) ) ;
#62 = CIRCLE ( 'NONE', #152, 0.2500000000000000000 ) ;
#63 = CARTESIAN_POINT ( 'NONE',  ( 0.0000000000000000000, 0.0000000000000000000, 4.000000000000000000 ) ) ;
#64 = EDGE_CURVE ( 'NONE', #156, #59, #165, .T. ) ;
#65 = DIMENSIONAL_EXPONENTS ( 1.000000000000000000, 0.0000000000000000000, 0.0000000000000000000, 0.0000000000000000000, 0.0000000000000000000, 0.0000000000000000000, 0.0000000000000000000 ) ;
#66 = LINE ( 'NONE', #218, #299 ) ;
#67 = ORIENTED_EDGE ( 'NONE', *, *, #265, .F. ) ;
#68 = CIRCLE ( 'NONE', #77, 0.2497499999999999998 ) ;
#69 = CARTESIAN_POINT ( 'NONE',  ( 0.0000000000000000000, 0.0000000000000000000, 4.000000000000000000 ) ) ;
#70 = CARTESIAN_POINT ( 'NONE',  ( 1.836970198721030181E-16, 0.0000000000000000000, 1.500000000000000222 ) ) ;
#71 = ORIENTED_EDGE ( 'NONE', *, *, #64, .F. ) ;
#72 = LINE ( 'NONE', #174, #44 ) ;
#73 = DIRECTION ( 'NONE',  ( -1.224646799147353207E-16, -0.0000000000000000000, -1.000000000000000000 ) ) ;
#74 = CARTESIAN_POINT ( 'NONE',  ( 0.2497500000000001941, 0.0000000000000000000, 1.500000000000000222 ) ) ;
#75 = PRODUCT_DEFINITION ( 'UNKNOWN', '', #173, #118 ) ;
#76 = CONICAL_SURFACE ( 'NONE', #259, 0.2350000000000006251, 0.7853981633974369547 ) ;
#77 = AXIS2_PLACEMENT_3D ( 'NONE', #267, #37, #129 ) ;
#78 = DIRECTION ( 'NONE',  ( 0.1736481776669313859, 0.0000000000000000000, 0.9848077530122077983 ) ) ;
#79 =( NAMED_UNIT ( * ) PLANE_ANGLE_UNIT ( ) SI_UNIT ( $, .RADIAN. ) );
#80 = CARTESIAN_POINT ( 'NONE',  ( -0.2497499999999998332, 3.060086189369449292E-17, 1.500000000000000222 ) ) ;
#81 = DIRECTION ( 'NONE',  ( 1.000000000000000000, 0.0000000000000000000, 0.0000000000000000000 ) ) ;
#82 = ORIENTED_EDGE ( 'NONE', *, *, #164, .T. ) ;
#83 = EDGE_CURVE ( 'NONE', #239, #188, #243, .T. ) ;
#84 =( CONVERSION_BASED_UNIT ( 'INCH', #203 ) LENGTH_UNIT ( ) NAMED_UNIT ( #217 ) );
#85 = ORIENTED_EDGE ( 'NONE', *, *, #261, .F. ) ;
#86 = MECHANICAL_DESIGN_GEOMETRIC_PRESENTATION_REPRESENTATION (  '', ( #36 ), #177 ) ;
#87 = MANIFOLD_SOLID_BREP ( 'Cut-Revolve1', #159 ) ;
#88 = VERTEX_POINT ( 'NONE', #96 ) ;
#89 = EDGE_LOOP ( 'NONE', ( #47, #185, #6, #246 ) ) ;
#90 = AXIS2_PLACEMENT_3D ( 'NONE', #105, #20, #81 ) ;
#91 = CARTESIAN_POINT ( 'NONE',  ( 0.0000000000000000000, 0.0000000000000000000, 0.0000000000000000000 ) ) ;
#92 =( NAMED_UNIT ( * ) PLANE_ANGLE_UNIT ( ) SI_UNIT ( $, .RADIAN. ) );
#93 = PRODUCT_RELATED_PRODUCT_CATEGORY ( 'part', '', ( #103 ) ) ;
#94 = CARTESIAN_POINT ( 'NONE',  ( -0.2350000000000006251, 0.0000000000000000000, 4.000000000000000000 ) ) ;
#95 = AXIS2_PLACEMENT_3D ( 'NONE', #228, #230, #226 ) ;
#96 = CARTESIAN_POINT ( 'NONE',  ( -0.2497499999999999998, 0.0000000000000000000, 6.117110761741029900E-17 ) ) ;
#97 = PLANE ( 'NONE',  #12 ) ;
#98 = EDGE_CURVE ( 'NONE', #296, #166, #123, .T. ) ;
#99 = FACE_OUTER_BOUND ( 'NONE', #227, .T. ) ;
#100 = VECTOR ( 'NONE', #78, 39.37007874015748143 ) ;
#101 = FACE_OUTER_BOUND ( 'NONE', #89, .T. ) ;
#102 = DIRECTION ( 'NONE',  ( 1.000000000000000000, 0.0000000000000000000, -0.0000000000000000000 ) ) ;
#103 = PRODUCT ( 'Micro_SFP-500-812', 'Micro_SFP-500-812', '', ( #52 ) ) ;
#104 = APPLICATION_PROTOCOL_DEFINITION ( 'draft international standard', 'automotive_design', 1998, #298 ) ;
#105 = CARTESIAN_POINT ( 'NONE',  ( 0.0000000000000000000, 0.0000000000000000000, 4.000000000000000000 ) ) ;
#106 = ORIENTED_EDGE ( 'NONE', *, *, #179, .F. ) ;
#107 = DIRECTION ( 'NONE',  ( 1.000000000000000000, 0.0000000000000000000, 0.0000000000000000000 ) ) ;
#108 = ORIENTED_EDGE ( 'NONE', *, *, #164, .F. ) ;
#109 = APPLICATION_CONTEXT ( 'automotive_design' ) ;
#110 = CARTESIAN_POINT ( 'NONE',  ( -0.2497499999999999998, 0.0000000000000000000, 3.058555380870514950E-17 ) ) ;
#111 = CIRCLE ( 'NONE', #262, 0.2500000000000000000 ) ;
#112 =( NAMED_UNIT ( * ) SI_UNIT ( $, .STERADIAN. ) SOLID_ANGLE_UNIT ( ) );
#113 = CARTESIAN_POINT ( 'NONE',  ( 1.838706528002894427E-16, 0.0000000000000000000, 1.501417820454904462 ) ) ;
#114 = CARTESIAN_POINT ( 'NONE',  ( 0.0000000000000000000, 0.0000000000000000000, 0.0000000000000000000 ) ) ;
#115 = DIRECTION ( 'NONE',  ( -0.0000000000000000000, -0.0000000000000000000, -1.000000000000000000 ) ) ;
#116 = DIRECTION ( 'NONE',  ( 0.0000000000000000000, 0.0000000000000000000, -1.000000000000000000 ) ) ;
#117 = CONICAL_SURFACE ( 'NONE', #232, 0.2497499999999999998, 0.1745329251994338915 ) ;
#118 = PRODUCT_DEFINITION_CONTEXT ( 'detailed design', #109, 'design' ) ;
#119 = EDGE_CURVE ( 'NONE', #136, #59, #149, .T. ) ;
#120 = ADVANCED_FACE ( 'NONE', ( #7 ), #97, .F. ) ;
#121 = ORIENTED_EDGE ( 'NONE', *, *, #98, .F. ) ;
#122 = DIRECTION ( 'NONE',  ( 0.0000000000000000000, 0.0000000000000000000, 1.000000000000000000 ) ) ;
#123 = CIRCLE ( 'NONE', #187, 0.2497499999999999998 ) ;
#124 = DIRECTION ( 'NONE',  ( -1.000000000000000000, 0.0000000000000000000, 1.224646799147353454E-16 ) ) ;
#125 = LINE ( 'NONE', #94, #19 ) ;
#126 = CARTESIAN_POINT ( 'NONE',  ( -0.2497499999999998332, 3.058555380870514950E-17, 1.500000000000000222 ) ) ;
#127 = COLOUR_RGB ( '',0.7921568627450980005, 0.8196078431372548767, 0.9333333333333333481 ) ;
#128 = AXIS2_PLACEMENT_3D ( 'NONE', #114, #24, #258 ) ;
#129 = DIRECTION ( 'NONE',  ( -1.000000000000000000, 0.0000000000000000000, 1.224646799147353454E-16 ) ) ;
#130 = DIRECTION ( 'NONE',  ( -1.224646799147353207E-16, -0.0000000000000000000, -1.000000000000000000 ) ) ;
#131 = CARTESIAN_POINT ( 'NONE',  ( 1.836970198721030181E-16, 0.0000000000000000000, 1.500000000000000222 ) ) ;
#132 = STYLED_ITEM ( 'NONE', ( #253 ), #87 ) ;
#133 = DIRECTION ( 'NONE',  ( 1.224646799147353207E-16, 0.0000000000000000000, 1.000000000000000000 ) ) ;
#134 = EDGE_CURVE ( 'NONE', #166, #156, #280, .T. ) ;
#135 = PRESENTATION_LAYER_ASSIGNMENT (  '', '', ( #36 ) ) ;
#136 = VERTEX_POINT ( 'NONE', #178 ) ;
#137 = ORIENTED_EDGE ( 'NONE', *, *, #134, .F. ) ;
#138 = ORIENTED_EDGE ( 'NONE', *, *, #199, .F. ) ;
#139 = ORIENTED_EDGE ( 'NONE', *, *, #278, .T. ) ;
#140 = CARTESIAN_POINT ( 'NONE',  ( 0.0000000000000000000, 0.0000000000000000000, 4.000000000000000000 ) ) ;
#141 = FILL_AREA_STYLE ('',( #50 ) ) ;
#142 = EDGE_CURVE ( 'NONE', #296, #59, #264, .T. ) ;
#143 = ADVANCED_FACE ( 'NONE', ( #99 ), #198, .T. ) ;
#144 = CIRCLE ( 'NONE', #183, 0.2500000000000000000 ) ;
#145 = EDGE_LOOP ( 'NONE', ( #138, #23, #256, #67 ) ) ;
#146 = DIRECTION ( 'NONE',  ( 1.224646799147353207E-16, 0.0000000000000000000, 1.000000000000000000 ) ) ;
#147 =( NAMED_UNIT ( * ) SI_UNIT ( $, .STERADIAN. ) SOLID_ANGLE_UNIT ( ) );
#148 = AXIS2_PLACEMENT_3D ( 'NONE', #240, #73, #124 ) ;
#149 = LINE ( 'NONE', #9, #273 ) ;
#150 = CARTESIAN_POINT ( 'NONE',  ( -0.2350000000000006251, 0.0000000000000000000, 4.000000000000000000 ) ) ;
#151 = EDGE_CURVE ( 'NONE', #188, #136, #125, .T. ) ;
#152 = AXIS2_PLACEMENT_3D ( 'NONE', #288, #286, #292 ) ;
#153 = DIRECTION ( 'NONE',  ( 1.000000000000000000, 0.0000000000000000000, 0.0000000000000000000 ) ) ;
#154 = ORIENTED_EDGE ( 'NONE', *, *, #282, .T. ) ;
#155 = CARTESIAN_POINT ( 'NONE',  ( 0.0000000000000000000, 0.0000000000000000000, 4.000000000000000000 ) ) ;
#156 = VERTEX_POINT ( 'NONE', #220 ) ;
#157 = ADVANCED_FACE ( 'NONE', ( #242 ), #40, .T. ) ;
#158 = FILL_AREA_STYLE ('',( #182 ) ) ;
#159 = CLOSED_SHELL ( 'NONE', ( #30, #209, #48, #181, #157, #222, #270, #234, #143, #120 ) ) ;
#160 = AXIS2_PLACEMENT_3D ( 'NONE', #155, #204, #207 ) ;
#161 = EDGE_LOOP ( 'NONE', ( #233, #106, #254, #206 ) ) ;
#162 = PRESENTATION_STYLE_ASSIGNMENT (( #45 ) ) ;
#163 = DIRECTION ( 'NONE',  ( -1.000000000000000000, 0.0000000000000000000, 0.0000000000000000000 ) ) ;
#164 = EDGE_CURVE ( 'NONE', #88, #212, #68, .T. ) ;
#165 = CIRCLE ( 'NONE', #18, 0.2500000000000000000 ) ;
#166 = VERTEX_POINT ( 'NONE', #74 ) ;
#167 = VECTOR ( 'NONE', #130, 39.37007874015748143 ) ;
#168 = COLOUR_RGB ( '',0.7921568627450980005, 0.8196078431372548767, 0.9333333333333333481 ) ;
#169 = EDGE_LOOP ( 'NONE', ( #235, #193, #108, #189 ) ) ;
#170 = ORIENTED_EDGE ( 'NONE', *, *, #179, .T. ) ;
#171 = ADVANCED_BREP_SHAPE_REPRESENTATION ( 'Micro_SFP-500-812', ( #87, #128 ), #26 ) ;
#172 = EDGE_LOOP ( 'NONE', ( #82, #154 ) ) ;
#173 = PRODUCT_DEFINITION_FORMATION_WITH_SPECIFIED_SOURCE ( 'ANY', '', #103, .NOT_KNOWN. ) ;
#174 = CARTESIAN_POINT ( 'NONE',  ( 0.2350000000000006251, 2.877919977996287839E-17, 4.000000000000000000 ) ) ;
#175 = DIRECTION ( 'NONE',  ( -1.000000000000000000, 0.0000000000000000000, 0.0000000000000000000 ) ) ;
#176 = DIRECTION ( 'NONE',  ( -1.224646799147353207E-16, -0.0000000000000000000, -1.000000000000000000 ) ) ;
#177 =( GEOMETRIC_REPRESENTATION_CONTEXT ( 3 ) GLOBAL_UNCERTAINTY_ASSIGNED_CONTEXT ( ( #4 ) ) GLOBAL_UNIT_ASSIGNED_CONTEXT ( ( #211, #92, #112 ) ) REPRESENTATION_CONTEXT ( 'NONE', 'WORKASPACE' ) );
#178 = CARTESIAN_POINT ( 'NONE',  ( -0.2500000000000000000, 0.0000000000000000000, 3.985000000000000320 ) ) ;
#179 = EDGE_CURVE ( 'NONE', #166, #296, #1, .T. ) ;
#180 = CARTESIAN_POINT ( 'NONE',  ( 1.838706528002894427E-16, 0.0000000000000000000, 1.501417820454904462 ) ) ;
#181 = ADVANCED_FACE ( 'NONE', ( #101 ), #11, .T. ) ;
#182 = FILL_AREA_STYLE_COLOUR ( '', #168 ) ;
#183 = AXIS2_PLACEMENT_3D ( 'NONE', #180, #263, #38 ) ;
#184 = DIRECTION ( 'NONE',  ( 1.000000000000000000, 0.0000000000000000000, 0.0000000000000000000 ) ) ;
#185 = ORIENTED_EDGE ( 'NONE', *, *, #13, .T. ) ;
#186 = MECHANICAL_DESIGN_GEOMETRIC_PRESENTATION_REPRESENTATION (  '', ( #132 ), #249 ) ;
#187 = AXIS2_PLACEMENT_3D ( 'NONE', #70, #176, #225 ) ;
#188 = VERTEX_POINT ( 'NONE', #150 ) ;
#189 = ORIENTED_EDGE ( 'NONE', *, *, #278, .F. ) ;
#190 = ORIENTED_EDGE ( 'NONE', *, *, #290, .T. ) ;
#191 = LENGTH_MEASURE_WITH_UNIT ( LENGTH_MEASURE( 0.02539999999999999897 ), #231 );
#192 = AXIS2_PLACEMENT_3D ( 'NONE', #140, #215, #277 ) ;
#193 = ORIENTED_EDGE ( 'NONE', *, *, #39, .T. ) ;
#194 = EDGE_CURVE ( 'NONE', #59, #156, #144, .T. ) ;
#195 = DIRECTION ( 'NONE',  ( -1.224646799147353207E-16, -0.0000000000000000000, -1.000000000000000000 ) ) ;
#196 = AXIS2_PLACEMENT_3D ( 'NONE', #91, #33, #213 ) ;
#197 = UNCERTAINTY_MEASURE_WITH_UNIT (LENGTH_MEASURE( 1.000000000000000082E-05 ), #281, 'distance_accuracy_value', 'NONE');
#198 = CYLINDRICAL_SURFACE ( 'NONE', #148, 0.2497499999999999998 ) ;
#199 = EDGE_CURVE ( 'NONE', #239, #289, #72, .T. ) ;
#200 = CARTESIAN_POINT ( 'NONE',  ( 0.0000000000000000000, 0.0000000000000000000, 0.0000000000000000000 ) ) ;
#201 = CARTESIAN_POINT ( 'NONE',  ( 0.2497500000000001941, 0.0000000000000000000, 1.500000000000000222 ) ) ;
#202 = DIRECTION ( 'NONE',  ( 0.7071067811865394681, 8.659560562354834251E-17, -0.7071067811865555663 ) ) ;
#203 = LENGTH_MEASURE_WITH_UNIT ( LENGTH_MEASURE( 0.02539999999999999897 ), #15 );
#204 = DIRECTION ( 'NONE',  ( 0.0000000000000000000, 0.0000000000000000000, -1.000000000000000000 ) ) ;
#205 = DIRECTION ( 'NONE',  ( 0.0000000000000000000, 0.0000000000000000000, 1.000000000000000000 ) ) ;
#206 = ORIENTED_EDGE ( 'NONE', *, *, #64, .T. ) ;
#207 = DIRECTION ( 'NONE',  ( -1.000000000000000000, 0.0000000000000000000, 0.0000000000000000000 ) ) ;
#208 = EDGE_LOOP ( 'NONE', ( #121, #272, #252, #137 ) ) ;
#209 = ADVANCED_FACE ( 'NONE', ( #57 ), #268, .T. ) ;
#210 = EDGE_LOOP ( 'NONE', ( #190, #294 ) ) ;
#211 =( CONVERSION_BASED_UNIT ( 'INCH', #191 ) LENGTH_UNIT ( ) NAMED_UNIT ( #65 ) );
#212 = VERTEX_POINT ( 'NONE', #60 ) ;
#213 = DIRECTION ( 'NONE',  ( -1.000000000000000000, 0.0000000000000000000, 1.224646799147353454E-16 ) ) ;
#214 = PRESENTATION_LAYER_ASSIGNMENT (  '', '', ( #132 ) ) ;
#215 = DIRECTION ( 'NONE',  ( 0.0000000000000000000, 0.0000000000000000000, 1.000000000000000000 ) ) ;
#216 = AXIS2_PLACEMENT_3D ( 'NONE', #285, #266, #10 ) ;
#217 = DIMENSIONAL_EXPONENTS ( 1.000000000000000000, 0.0000000000000000000, 0.0000000000000000000, 0.0000000000000000000, 0.0000000000000000000, 0.0000000000000000000, 0.0000000000000000000 ) ;
#218 = CARTESIAN_POINT ( 'NONE',  ( 0.2497499999999999998, 3.058555380870514950E-17, -3.058555380870514950E-17 ) ) ;
#219 = CARTESIAN_POINT ( 'NONE',  ( 0.0000000000000000000, 0.0000000000000000000, 4.000000000000000000 ) ) ;
#220 = CARTESIAN_POINT ( 'NONE',  ( 0.2500000000000001665, 3.061616997868384867E-17, 1.501417820454904462 ) ) ;
#221 = DIRECTION ( 'NONE',  ( -0.1736481776669311916, 2.126576849575783316E-17, 0.9848077530122080203 ) ) ;
#222 = ADVANCED_FACE ( 'NONE', ( #14 ), #58, .T. ) ;
#223 = DIRECTION ( 'NONE',  ( -1.000000000000000000, 0.0000000000000000000, 0.0000000000000000000 ) ) ;
#224 = CIRCLE ( 'NONE', #90, 0.2350000000000006251 ) ;
#225 = DIRECTION ( 'NONE',  ( -1.000000000000000000, 0.0000000000000000000, 0.0000000000000000000 ) ) ;
#226 = DIRECTION ( 'NONE',  ( -1.000000000000000000, 0.0000000000000000000, 1.224646799147353454E-16 ) ) ;
#227 = EDGE_LOOP ( 'NONE', ( #293, #170, #139, #25 ) ) ;
#228 = CARTESIAN_POINT ( 'NONE',  ( 3.745650057197989622E-33, 0.0000000000000000000, 3.058555380870514950E-17 ) ) ;
#229 = CONICAL_SURFACE ( 'NONE', #160, 0.2350000000000006251, 0.7853981633974369547 ) ;
#230 = DIRECTION ( 'NONE',  ( -1.224646799147353207E-16, -0.0000000000000000000, -1.000000000000000000 ) ) ;
#231 =( LENGTH_UNIT ( ) NAMED_UNIT ( * ) SI_UNIT ( $, .METRE. ) );
#232 = AXIS2_PLACEMENT_3D ( 'NONE', #131, #133, #153 ) ;
#233 = ORIENTED_EDGE ( 'NONE', *, *, #142, .F. ) ;
#234 = ADVANCED_FACE ( 'NONE', ( #269 ), #117, .T. ) ;
#235 = ORIENTED_EDGE ( 'NONE', *, *, #98, .T. ) ;
#236 = DIMENSIONAL_EXPONENTS ( 1.000000000000000000, 0.0000000000000000000, 0.0000000000000000000, 0.0000000000000000000, 0.0000000000000000000, 0.0000000000000000000, 0.0000000000000000000 ) ;
#237 = FACE_OUTER_BOUND ( 'NONE', #53, .T. ) ;
#238 = SURFACE_STYLE_FILL_AREA ( #141 ) ;
#239 = VERTEX_POINT ( 'NONE', #61 ) ;
#240 = CARTESIAN_POINT ( 'NONE',  ( 0.0000000000000000000, 0.0000000000000000000, 0.0000000000000000000 ) ) ;
#241 = DIRECTION ( 'NONE',  ( -0.0000000000000000000, -0.0000000000000000000, -1.000000000000000000 ) ) ;
#242 = FACE_OUTER_BOUND ( 'NONE', #29, .T. ) ;
#243 = CIRCLE ( 'NONE', #192, 0.2350000000000006251 ) ;
#244 = VECTOR ( 'NONE', #221, 39.37007874015747433 ) ;
#245 = CARTESIAN_POINT ( 'NONE',  ( 0.0000000000000000000, 0.0000000000000000000, 3.985000000000000320 ) ) ;
#246 = ORIENTED_EDGE ( 'NONE', *, *, #119, .F. ) ;
#247 = SURFACE_STYLE_FILL_AREA ( #158 ) ;
#248 = VECTOR ( 'NONE', #115, 39.37007874015748143 ) ;
#249 =( GEOMETRIC_REPRESENTATION_CONTEXT ( 3 ) GLOBAL_UNCERTAINTY_ASSIGNED_CONTEXT ( ( #197 ) ) GLOBAL_UNIT_ASSIGNED_CONTEXT ( ( #281, #79, #147 ) ) REPRESENTATION_CONTEXT ( 'NONE', 'WORKASPACE' ) );
#250 = PRODUCT_DEFINITION_SHAPE ( 'NONE', 'NONE',  #75 ) ;
#251 = SURFACE_SIDE_STYLE ('',( #247 ) ) ;
#252 = ORIENTED_EDGE ( 'NONE', *, *, #194, .T. ) ;
#253 = PRESENTATION_STYLE_ASSIGNMENT (( #32 ) ) ;
#254 = ORIENTED_EDGE ( 'NONE', *, *, #134, .T. ) ;
#255 = DIRECTION ( 'NONE',  ( 1.000000000000000000, 0.0000000000000000000, 0.0000000000000000000 ) ) ;
#256 = ORIENTED_EDGE ( 'NONE', *, *, #151, .T. ) ;
#257 = UNCERTAINTY_MEASURE_WITH_UNIT (LENGTH_MEASURE( 1.000000000000000082E-05 ), #84, 'distance_accuracy_value', 'NONE');
#258 = DIRECTION ( 'NONE',  ( 1.000000000000000000, 0.0000000000000000000, 0.0000000000000000000 ) ) ;
#259 = AXIS2_PLACEMENT_3D ( 'NONE', #69, #116, #163 ) ;
#260 = SURFACE_SIDE_STYLE ('',( #238 ) ) ;
#261 = EDGE_CURVE ( 'NONE', #136, #289, #111, .T. ) ;
#262 = AXIS2_PLACEMENT_3D ( 'NONE', #245, #43, #107 ) ;
#263 = DIRECTION ( 'NONE',  ( -1.224646799147353207E-16, -0.0000000000000000000, -1.000000000000000000 ) ) ;
#264 = LINE ( 'NONE', #126, #244 ) ;
#265 = EDGE_CURVE ( 'NONE', #289, #136, #62, .T. ) ;
#266 = DIRECTION ( 'NONE',  ( -1.224646799147353207E-16, -0.0000000000000000000, -1.000000000000000000 ) ) ;
#267 = CARTESIAN_POINT ( 'NONE',  ( 3.745650057197989622E-33, 0.0000000000000000000, 3.058555380870514950E-17 ) ) ;
#268 = CONICAL_SURFACE ( 'NONE', #55, 0.2497499999999999998, 0.1745329251994338915 ) ;
#269 = FACE_OUTER_BOUND ( 'NONE', #161, .T. ) ;
#270 = ADVANCED_FACE ( 'NONE', ( #22 ), #229, .T. ) ;
#271 =( NAMED_UNIT ( * ) SI_UNIT ( $, .STERADIAN. ) SOLID_ANGLE_UNIT ( ) );
#272 = ORIENTED_EDGE ( 'NONE', *, *, #142, .T. ) ;
#273 = VECTOR ( 'NONE', #241, 39.37007874015748143 ) ;
#274 = CYLINDRICAL_SURFACE ( 'NONE', #196, 0.2497499999999999998 ) ;
#275 = ORIENTED_EDGE ( 'NONE', *, *, #199, .T. ) ;
#276 = ORIENTED_EDGE ( 'NONE', *, *, #265, .T. ) ;
#277 = DIRECTION ( 'NONE',  ( 1.000000000000000000, 0.0000000000000000000, 0.0000000000000000000 ) ) ;
#278 = EDGE_CURVE ( 'NONE', #296, #88, #41, .T. ) ;
#279 = LENGTH_MEASURE_WITH_UNIT ( LENGTH_MEASURE( 0.02539999999999999897 ), #5 );
#280 = LINE ( 'NONE', #201, #100 ) ;
#281 =( CONVERSION_BASED_UNIT ( 'INCH', #279 ) LENGTH_UNIT ( ) NAMED_UNIT ( #236 ) );
#282 = EDGE_CURVE ( 'NONE', #212, #88, #51, .T. ) ;
#283 = DIRECTION ( 'NONE',  ( -0.7071067811865394681, 0.0000000000000000000, -0.7071067811865555663 ) ) ;
#284 = CARTESIAN_POINT ( 'NONE',  ( 0.0000000000000000000, 0.0000000000000000000, 4.000000000000000000 ) ) ;
#285 = CARTESIAN_POINT ( 'NONE',  ( 1.836970198721030181E-16, 0.0000000000000000000, 1.500000000000000222 ) ) ;
#286 = DIRECTION ( 'NONE',  ( 0.0000000000000000000, 0.0000000000000000000, -1.000000000000000000 ) ) ;
#287 = AXIS2_PLACEMENT_3D ( 'NONE', #219, #34, #175 ) ;
#288 = CARTESIAN_POINT ( 'NONE',  ( 0.0000000000000000000, 0.0000000000000000000, 3.985000000000000320 ) ) ;
#289 = VERTEX_POINT ( 'NONE', #17 ) ;
#290 = EDGE_CURVE ( 'NONE', #188, #239, #224, .T. ) ;
#291 =( NAMED_UNIT ( * ) PLANE_ANGLE_UNIT ( ) SI_UNIT ( $, .RADIAN. ) );
#292 = DIRECTION ( 'NONE',  ( 1.000000000000000000, 0.0000000000000000000, 0.0000000000000000000 ) ) ;
#293 = ORIENTED_EDGE ( 'NONE', *, *, #39, .F. ) ;
#294 = ORIENTED_EDGE ( 'NONE', *, *, #83, .T. ) ;
#295 = APPLICATION_PROTOCOL_DEFINITION ( 'draft international standard', 'automotive_design', 1998, #109 ) ;
#296 = VERTEX_POINT ( 'NONE', #80 ) ;
#297 = DIRECTION ( 'NONE',  ( -1.224646799147353207E-16, -0.0000000000000000000, -1.000000000000000000 ) ) ;
#298 = APPLICATION_CONTEXT ( 'automotive_design' ) ;
#299 = VECTOR ( 'NONE', #195, 39.37007874015748143 ) ;
ENDSEC;
END-ISO-10303-21;
