ISO-10303-21;
HEADER;
FILE_DESCRIPTION (( 'STEP AP214' ),
    '1' );
FILE_NAME ('30407.STEP',
    '2023-06-22T18:28:15',
    ( '' ),
    ( '' ),
    'SwSTEP 2.0',
    'SolidWorks 2023',
    '' );
FILE_SCHEMA (( 'AUTOMOTIVE_DESIGN' ));
ENDSEC;

DATA;
#1 = DIRECTION ( 'NONE',  ( 1.000000000000000000, -1.440760940173361028E-17, 0.000000000000000000 ) ) ;
#2 = CARTESIAN_POINT ( 'NONE',  ( 0.000000000000000000, 0.000000000000000000, 0.000000000000000000 ) ) ;
#3 = ADVANCED_FACE ( 'NONE', ( #49 ), #232, .T. ) ;
#4 = LENGTH_MEASURE_WITH_UNIT ( LENGTH_MEASURE( 0.02539999999999999897 ), #28 );
#5 =( LENGTH_UNIT ( ) NAMED_UNIT ( * ) SI_UNIT ( $, .METRE. ) );
#6 = LENGTH_MEASURE_WITH_UNIT ( LENGTH_MEASURE( 0.02539999999999999897 ), #65 );
#7 = VECTOR ( 'NONE', #11, 39.37007874015748143 ) ;
#8 = EDGE_LOOP ( 'NONE', ( #21, #48, #259, #56 ) ) ;
#9 = CYLINDRICAL_SURFACE ( 'NONE', #243, 0.2187500000000000000 ) ;
#10 = VERTEX_POINT ( 'NONE', #278 ) ;
#11 = DIRECTION ( 'NONE',  ( 1.440760940173361028E-17, 1.000000000000000000, -0.000000000000000000 ) ) ;
#12 = APPLICATION_PROTOCOL_DEFINITION ( 'draft international standard', 'automotive_design', 1998, #241 ) ;
#13 = DIRECTION ( 'NONE',  ( 1.440760940173361028E-17, 1.000000000000000000, -0.000000000000000000 ) ) ;
#14 = PLANE ( 'NONE',  #239 ) ;
#15 = ORIENTED_EDGE ( 'NONE', *, *, #45, .F. ) ;
#16 = CIRCLE ( 'NONE', #229, 0.2187500000000000000 ) ;
#17 = AXIS2_PLACEMENT_3D ( 'NONE', #114, #291, #62 ) ;
#18 = EDGE_CURVE ( 'NONE', #10, #189, #16, .T. ) ;
#19 = FACE_OUTER_BOUND ( 'NONE', #8, .T. ) ;
#20 = EDGE_LOOP ( 'NONE', ( #279, #118 ) ) ;
#21 = ORIENTED_EDGE ( 'NONE', *, *, #18, .T. ) ;
#22 = CARTESIAN_POINT ( 'NONE',  ( 3.061616997868392262E-17, 2.750000000000000000, 0.000000000000000000 ) ) ;
#23 = AXIS2_PLACEMENT_3D ( 'NONE', #22, #123, #99 ) ;
#24 = ADVANCED_FACE ( 'NONE', ( #19 ), #9, .T. ) ;
#25 = SURFACE_SIDE_STYLE ('',( #51 ) ) ;
#26 =( CONVERSION_BASED_UNIT ( 'INCH', #6 ) LENGTH_UNIT ( ) NAMED_UNIT ( #139 ) );
#27 = MECHANICAL_DESIGN_GEOMETRIC_PRESENTATION_REPRESENTATION (  '', ( #141 ), #249 ) ;
#28 =( LENGTH_UNIT ( ) NAMED_UNIT ( * ) SI_UNIT ( $, .METRE. ) );
#29 = PRESENTATION_STYLE_ASSIGNMENT (( #309 ) ) ;
#30 = CARTESIAN_POINT ( 'NONE',  ( 0.2187500000000000000, 2.750000000000000000, 0.000000000000000000 ) ) ;
#31 = SURFACE_STYLE_USAGE ( .BOTH. , #25 ) ;
#32 = DIRECTION ( 'NONE',  ( 1.440760940173361028E-17, 1.000000000000000000, -0.000000000000000000 ) ) ;
#33 = LENGTH_MEASURE_WITH_UNIT ( LENGTH_MEASURE( 0.02539999999999999897 ), #126 );
#34 = PRESENTATION_LAYER_ASSIGNMENT (  '', '', ( #199 ) ) ;
#35 = PRODUCT ( '30407', '30407', '', ( #185 ) ) ;
#36 = LINE ( 'NONE', #163, #7 ) ;
#37 = DIRECTION ( 'NONE',  ( -1.000000000000000000, 0.000000000000000000, 0.000000000000000000 ) ) ;
#38 = ADVANCED_FACE ( 'NONE', ( #39 ), #108, .T. ) ;
#39 = FACE_OUTER_BOUND ( 'NONE', #231, .T. ) ;
#40 = FILL_AREA_STYLE_COLOUR ( '', #54 ) ;
#41 =( GEOMETRIC_REPRESENTATION_CONTEXT ( 3 ) GLOBAL_UNCERTAINTY_ASSIGNED_CONTEXT ( ( #74 ) ) GLOBAL_UNIT_ASSIGNED_CONTEXT ( ( #269, #102, #286 ) ) REPRESENTATION_CONTEXT ( 'NONE', 'WORKASPACE' ) );
#42 = MANIFOLD_SOLID_BREP ( 'Revolve - Tool Body (Straight Shanked)', #76 ) ;
#43 = SURFACE_SIDE_STYLE ('',( #89 ) ) ;
#44 = SURFACE_STYLE_USAGE ( .BOTH. , #187 ) ;
#45 = EDGE_CURVE ( 'NONE', #145, #188, #190, .T. ) ;
#46 = FILL_AREA_STYLE ('',( #212 ) ) ;
#47 = PRESENTATION_LAYER_ASSIGNMENT (  '', '', ( #100 ) ) ;
#48 = ORIENTED_EDGE ( 'NONE', *, *, #52, .T. ) ;
#49 = FACE_OUTER_BOUND ( 'NONE', #20, .T. ) ;
#50 = LINE ( 'NONE', #146, #143 ) ;
#51 = SURFACE_STYLE_FILL_AREA ( #169 ) ;
#52 = EDGE_CURVE ( 'NONE', #189, #154, #50, .T. ) ;
#53 = EDGE_CURVE ( 'NONE', #111, #164, #223, .T. ) ;
#54 = COLOUR_RGB ( '',1.000000000000000000, 0.000000000000000000, 0.000000000000000000 ) ;
#55 = PRESENTATION_STYLE_ASSIGNMENT (( #44 ) ) ;
#56 = ORIENTED_EDGE ( 'NONE', *, *, #131, .F. ) ;
#57 = DIRECTION ( 'NONE',  ( 0.000000000000000000, 0.000000000000000000, -1.000000000000000000 ) ) ;
#58 = PRODUCT_RELATED_PRODUCT_CATEGORY ( 'part', '', ( #35 ) ) ;
#59 = DIRECTION ( 'NONE',  ( 0.000000000000000000, 0.000000000000000000, -1.000000000000000000 ) ) ;
#60 = CYLINDRICAL_SURFACE ( 'NONE', #153, 0.2187499999999999445 ) ;
#61 = STYLED_ITEM ( 'NONE', ( #29 ), #42 ) ;
#62 = DIRECTION ( 'NONE',  ( -1.000000000000000000, 0.000000000000000000, 0.000000000000000000 ) ) ;
#63 = CARTESIAN_POINT ( 'NONE',  ( 0.000000000000000000, 0.6250000000000000000, 0.000000000000000000 ) ) ;
#64 = UNCERTAINTY_MEASURE_WITH_UNIT (LENGTH_MEASURE( 1.000000000000000082E-05 ), #140, 'distance_accuracy_value', 'NONE');
#65 =( LENGTH_UNIT ( ) NAMED_UNIT ( * ) SI_UNIT ( $, .METRE. ) );
#66 = ORIENTED_EDGE ( 'NONE', *, *, #125, .T. ) ;
#67 = AXIS2_PLACEMENT_3D ( 'NONE', #30, #129, #1 ) ;
#68 = ORIENTED_EDGE ( 'NONE', *, *, #144, .T. ) ;
#69 = ORIENTED_EDGE ( 'NONE', *, *, #45, .T. ) ;
#70 = FILL_AREA_STYLE_COLOUR ( '', #91 ) ;
#71 = MECHANICAL_DESIGN_GEOMETRIC_PRESENTATION_REPRESENTATION (  '', ( #214 ), #242 ) ;
#72 = AXIS2_PLACEMENT_3D ( 'NONE', #268, #32, #216 ) ;
#73 = PRODUCT_DEFINITION ( 'UNKNOWN', '', #288, #156 ) ;
#74 = UNCERTAINTY_MEASURE_WITH_UNIT (LENGTH_MEASURE( 1.000000000000000082E-05 ), #269, 'distance_accuracy_value', 'NONE');
#75 = DIRECTION ( 'NONE',  ( 1.440760940173361028E-17, 1.000000000000000000, -0.000000000000000000 ) ) ;
#76 = CLOSED_SHELL ( 'NONE', ( #38, #201, #270, #196 ) ) ;
#77 = PRESENTATION_LAYER_ASSIGNMENT (  '', '', ( #148 ) ) ;
#78 = UNCERTAINTY_MEASURE_WITH_UNIT (LENGTH_MEASURE( 1.000000000000000082E-05 ), #94, 'distance_accuracy_value', 'NONE');
#79 = PLANE ( 'NONE',  #72 ) ;
#80 = ORIENTED_EDGE ( 'NONE', *, *, #53, .T. ) ;
#81 = PRESENTATION_LAYER_ASSIGNMENT (  '', '', ( #141 ) ) ;
#82 = COLOUR_RGB ( '',0.7921568627450980005, 0.8196078431372548767, 0.9333333333333333481 ) ;
#83 = ORIENTED_EDGE ( 'NONE', *, *, #245, .F. ) ;
#84 = DIRECTION ( 'NONE',  ( 0.000000000000000000, 1.000000000000000000, 0.000000000000000000 ) ) ;
#85 =( LENGTH_UNIT ( ) NAMED_UNIT ( * ) SI_UNIT ( $, .METRE. ) );
#86 = DIRECTION ( 'NONE',  ( 0.000000000000000000, 0.000000000000000000, 1.000000000000000000 ) ) ;
#87 =( CONVERSION_BASED_UNIT ( 'INCH', #180 ) LENGTH_UNIT ( ) NAMED_UNIT ( #110 ) );
#88 = DIRECTION ( 'NONE',  ( -1.000000000000000000, 0.000000000000000000, 0.000000000000000000 ) ) ;
#89 = SURFACE_STYLE_FILL_AREA ( #274 ) ;
#90 = DIRECTION ( 'NONE',  ( 0.000000000000000000, 0.000000000000000000, -1.000000000000000000 ) ) ;
#91 = COLOUR_RGB ( '',1.000000000000000000, 0.000000000000000000, 0.000000000000000000 ) ;
#92 = SURFACE_STYLE_FILL_AREA ( #297 ) ;
#93 = EDGE_LOOP ( 'NONE', ( #83, #69, #121, #255 ) ) ;
#94 =( CONVERSION_BASED_UNIT ( 'INCH', #305 ) LENGTH_UNIT ( ) NAMED_UNIT ( #115 ) );
#95 = ORIENTED_EDGE ( 'NONE', *, *, #245, .T. ) ;
#96 = APPLICATION_CONTEXT ( 'automotive_design' ) ;
#97 = EDGE_LOOP ( 'NONE', ( #166, #68 ) ) ;
#98 = DIMENSIONAL_EXPONENTS ( 1.000000000000000000, 0.000000000000000000, 0.000000000000000000, 0.000000000000000000, 0.000000000000000000, 0.000000000000000000, 0.000000000000000000 ) ;
#99 = DIRECTION ( 'NONE',  ( -1.000000000000000000, 0.000000000000000000, 0.000000000000000000 ) ) ;
#100 = STYLED_ITEM ( 'NONE', ( #55 ), #307 ) ;
#101 = UNCERTAINTY_MEASURE_WITH_UNIT (LENGTH_MEASURE( 1.000000000000000082E-05 ), #308, 'distance_accuracy_value', 'NONE');
#102 =( NAMED_UNIT ( * ) PLANE_ANGLE_UNIT ( ) SI_UNIT ( $, .RADIAN. ) );
#103 = CARTESIAN_POINT ( 'NONE',  ( -0.2187499999999999167, 2.750000000000000000, 0.000000000000000000 ) ) ;
#104 = DIRECTION ( 'NONE',  ( -0.000000000000000000, -1.000000000000000000, -0.000000000000000000 ) ) ;
#105 = CARTESIAN_POINT ( 'NONE',  ( 0.2187500000000000000, 0.6250000000000000000, 2.678914873134835372E-17 ) ) ;
#106 = ADVANCED_FACE ( 'NONE', ( #192 ), #283, .T. ) ;
#107 =( GEOMETRIC_REPRESENTATION_CONTEXT ( 3 ) GLOBAL_UNCERTAINTY_ASSIGNED_CONTEXT ( ( #64 ) ) GLOBAL_UNIT_ASSIGNED_CONTEXT ( ( #140, #135, #228 ) ) REPRESENTATION_CONTEXT ( 'NONE', 'WORKASPACE' ) );
#108 = CYLINDRICAL_SURFACE ( 'NONE', #134, 0.2187499999999999445 ) ;
#109 = DIRECTION ( 'NONE',  ( 0.000000000000000000, -1.000000000000000000, -0.000000000000000000 ) ) ;
#110 = DIMENSIONAL_EXPONENTS ( 1.000000000000000000, 0.000000000000000000, 0.000000000000000000, 0.000000000000000000, 0.000000000000000000, 0.000000000000000000, 0.000000000000000000 ) ;
#111 = VERTEX_POINT ( 'NONE', #155 ) ;
#112 = DIRECTION ( 'NONE',  ( 0.000000000000000000, 0.000000000000000000, -1.000000000000000000 ) ) ;
#113 = PRESENTATION_STYLE_ASSIGNMENT (( #160 ) ) ;
#114 = CARTESIAN_POINT ( 'NONE',  ( 3.061616997868392262E-17, 2.750000000000000000, 0.000000000000000000 ) ) ;
#115 = DIMENSIONAL_EXPONENTS ( 1.000000000000000000, 0.000000000000000000, 0.000000000000000000, 0.000000000000000000, 0.000000000000000000, 0.000000000000000000, 0.000000000000000000 ) ;
#116 = DIRECTION ( 'NONE',  ( 0.000000000000000000, 0.000000000000000000, -1.000000000000000000 ) ) ;
#117 = CIRCLE ( 'NONE', #210, 0.2187500000000000000 ) ;
#118 = ORIENTED_EDGE ( 'NONE', *, *, #137, .F. ) ;
#119 = FILL_AREA_STYLE ('',( #254 ) ) ;
#120 = PRESENTATION_STYLE_ASSIGNMENT (( #280 ) ) ;
#121 = ORIENTED_EDGE ( 'NONE', *, *, #165, .T. ) ;
#122 = MECHANICAL_DESIGN_GEOMETRIC_PRESENTATION_REPRESENTATION (  '', ( #61 ), #215 ) ;
#123 = DIRECTION ( 'NONE',  ( 1.440760940173361028E-17, 1.000000000000000000, -0.000000000000000000 ) ) ;
#124 =( NAMED_UNIT ( * ) SI_UNIT ( $, .STERADIAN. ) SOLID_ANGLE_UNIT ( ) );
#125 = EDGE_CURVE ( 'NONE', #188, #145, #261, .T. ) ;
#126 =( LENGTH_UNIT ( ) NAMED_UNIT ( * ) SI_UNIT ( $, .METRE. ) );
#127 = AXIS2_PLACEMENT_3D ( 'NONE', #162, #84, #177 ) ;
#128 = AXIS2_PLACEMENT_3D ( 'NONE', #182, #224, #300 ) ;
#129 = DIRECTION ( 'NONE',  ( -1.440760940173361028E-17, -1.000000000000000000, 0.000000000000000000 ) ) ;
#130 = AXIS2_PLACEMENT_3D ( 'NONE', #294, #204, #37 ) ;
#131 = EDGE_CURVE ( 'NONE', #10, #191, #295, .T. ) ;
#132 = CARTESIAN_POINT ( 'NONE',  ( 0.000000000000000000, 0.000000000000000000, -0.2187500000000000000 ) ) ;
#133 = CLOSED_SHELL ( 'NONE', ( #24, #3, #106, #307 ) ) ;
#134 = AXIS2_PLACEMENT_3D ( 'NONE', #203, #13, #296 ) ;
#135 =( NAMED_UNIT ( * ) PLANE_ANGLE_UNIT ( ) SI_UNIT ( $, .RADIAN. ) );
#136 = FILL_AREA_STYLE_COLOUR ( '', #142 ) ;
#137 = EDGE_CURVE ( 'NONE', #189, #10, #301, .T. ) ;
#138 = SURFACE_STYLE_USAGE ( .BOTH. , #43 ) ;
#139 = DIMENSIONAL_EXPONENTS ( 1.000000000000000000, 0.000000000000000000, 0.000000000000000000, 0.000000000000000000, 0.000000000000000000, 0.000000000000000000, 0.000000000000000000 ) ;
#140 =( CONVERSION_BASED_UNIT ( 'INCH', #181 ) LENGTH_UNIT ( ) NAMED_UNIT ( #284 ) );
#141 = STYLED_ITEM ( 'NONE', ( #113 ), #24 ) ;
#142 = COLOUR_RGB ( '',1.000000000000000000, 0.000000000000000000, 0.000000000000000000 ) ;
#143 = VECTOR ( 'NONE', #236, 39.37007874015748143 ) ;
#144 = EDGE_CURVE ( 'NONE', #154, #191, #292, .T. ) ;
#145 = VERTEX_POINT ( 'NONE', #105 ) ;
#146 = CARTESIAN_POINT ( 'NONE',  ( 2.678914873134835064E-17, 0.000000000000000000, 0.2187500000000000000 ) ) ;
#147 = LENGTH_MEASURE_WITH_UNIT ( LENGTH_MEASURE( 0.02539999999999999897 ), #211 );
#148 = STYLED_ITEM ( 'NONE', ( #195 ), #106 ) ;
#149 = MANIFOLD_SOLID_BREP ( 'Revolve - Cutting Edge', #133 ) ;
#150 = VECTOR ( 'NONE', #75, 39.37007874015748143 ) ;
#151 = FACE_OUTER_BOUND ( 'NONE', #257, .T. ) ;
#152 =( NAMED_UNIT ( * ) SI_UNIT ( $, .STERADIAN. ) SOLID_ANGLE_UNIT ( ) );
#153 = AXIS2_PLACEMENT_3D ( 'NONE', #226, #197, #88 ) ;
#154 = VERTEX_POINT ( 'NONE', #290 ) ;
#155 = CARTESIAN_POINT ( 'NONE',  ( 0.2187500000000000000, 2.750000000000000000, 2.678914873134835372E-17 ) ) ;
#156 = PRODUCT_DEFINITION_CONTEXT ( 'detailed design', #241, 'design' ) ;
#157 = PRESENTATION_LAYER_ASSIGNMENT (  '', '', ( #214 ) ) ;
#158 = AXIS2_PLACEMENT_3D ( 'NONE', #244, #248, #57 ) ;
#159 = DIMENSIONAL_EXPONENTS ( 1.000000000000000000, 0.000000000000000000, 0.000000000000000000, 0.000000000000000000, 0.000000000000000000, 0.000000000000000000, 0.000000000000000000 ) ;
#160 = SURFACE_STYLE_USAGE ( .BOTH. , #184 ) ;
#161 = SHAPE_DEFINITION_REPRESENTATION ( #173, #234 ) ;
#162 = CARTESIAN_POINT ( 'NONE',  ( 0.000000000000000000, 0.6250000000000000000, 0.000000000000000000 ) ) ;
#163 = CARTESIAN_POINT ( 'NONE',  ( 0.2187500000000000000, 2.750000000000000000, 2.678914873134834756E-17 ) ) ;
#164 = VERTEX_POINT ( 'NONE', #264 ) ;
#165 = EDGE_CURVE ( 'NONE', #188, #164, #193, .T. ) ;
#166 = ORIENTED_EDGE ( 'NONE', *, *, #213, .T. ) ;
#167 = ORIENTED_EDGE ( 'NONE', *, *, #52, .F. ) ;
#168 = DIRECTION ( 'NONE',  ( 1.440760940173361028E-17, 1.000000000000000000, -0.000000000000000000 ) ) ;
#169 = FILL_AREA_STYLE ('',( #70 ) ) ;
#170 = COLOUR_RGB ( '',0.7921568627450980005, 0.8196078431372548767, 0.9333333333333333481 ) ;
#171 =( NAMED_UNIT ( * ) SI_UNIT ( $, .STERADIAN. ) SOLID_ANGLE_UNIT ( ) );
#172 = CARTESIAN_POINT ( 'NONE',  ( -0.2187500000000000000, 0.6250000000000000000, 0.000000000000000000 ) ) ;
#173 = PRODUCT_DEFINITION_SHAPE ( 'NONE', 'NONE',  #73 ) ;
#174 = SURFACE_SIDE_STYLE ('',( #265 ) ) ;
#175 = DIRECTION ( 'NONE',  ( -0.000000000000000000, -1.000000000000000000, -0.000000000000000000 ) ) ;
#176 = MECHANICAL_DESIGN_GEOMETRIC_PRESENTATION_REPRESENTATION (  '', ( #148 ), #217 ) ;
#177 = DIRECTION ( 'NONE',  ( 0.000000000000000000, -0.000000000000000000, 1.000000000000000000 ) ) ;
#178 = UNCERTAINTY_MEASURE_WITH_UNIT (LENGTH_MEASURE( 1.000000000000000082E-05 ), #87, 'distance_accuracy_value', 'NONE');
#179 = ORIENTED_EDGE ( 'NONE', *, *, #165, .F. ) ;
#180 = LENGTH_MEASURE_WITH_UNIT ( LENGTH_MEASURE( 0.02539999999999999897 ), #5 );
#181 = LENGTH_MEASURE_WITH_UNIT ( LENGTH_MEASURE( 0.02539999999999999897 ), #85 );
#182 = CARTESIAN_POINT ( 'NONE',  ( 0.000000000000000000, 0.6250000000000000000, 0.000000000000000000 ) ) ;
#183 = DIRECTION ( 'NONE',  ( 1.000000000000000000, 0.000000000000000000, 0.000000000000000000 ) ) ;
#184 = SURFACE_SIDE_STYLE ('',( #272 ) ) ;
#185 = PRODUCT_CONTEXT ( 'NONE', #96, 'mechanical' ) ;
#186 = DIRECTION ( 'NONE',  ( -0.000000000000000000, -1.000000000000000000, -0.000000000000000000 ) ) ;
#187 = SURFACE_SIDE_STYLE ('',( #92 ) ) ;
#188 = VERTEX_POINT ( 'NONE', #172 ) ;
#189 = VERTEX_POINT ( 'NONE', #266 ) ;
#190 = CIRCLE ( 'NONE', #252, 0.2187500000000000000 ) ;
#191 = VERTEX_POINT ( 'NONE', #219 ) ;
#192 = FACE_OUTER_BOUND ( 'NONE', #282, .T. ) ;
#193 = LINE ( 'NONE', #103, #150 ) ;
#194 = FACE_OUTER_BOUND ( 'NONE', #198, .T. ) ;
#195 = PRESENTATION_STYLE_ASSIGNMENT (( #31 ) ) ;
#196 = ADVANCED_FACE ( 'NONE', ( #151 ), #240, .F. ) ;
#197 = DIRECTION ( 'NONE',  ( 1.440760940173361028E-17, 1.000000000000000000, -0.000000000000000000 ) ) ;
#198 = EDGE_LOOP ( 'NONE', ( #293, #15 ) ) ;
#199 = STYLED_ITEM ( 'NONE', ( #256 ), #149 ) ;
#200 = CARTESIAN_POINT ( 'NONE',  ( 0.000000000000000000, 0.000000000000000000, 0.000000000000000000 ) ) ;
#201 = ADVANCED_FACE ( 'NONE', ( #194 ), #79, .F. ) ;
#202 = FILL_AREA_STYLE_COLOUR ( '', #170 ) ;
#203 = CARTESIAN_POINT ( 'NONE',  ( 3.061616997868392262E-17, 2.750000000000000000, 0.000000000000000000 ) ) ;
#204 = DIRECTION ( 'NONE',  ( 1.440760940173361028E-17, 1.000000000000000000, -0.000000000000000000 ) ) ;
#205 = COLOUR_RGB ( '',1.000000000000000000, 0.000000000000000000, 0.000000000000000000 ) ;
#206 =( NAMED_UNIT ( * ) PLANE_ANGLE_UNIT ( ) SI_UNIT ( $, .RADIAN. ) );
#207 = ORIENTED_EDGE ( 'NONE', *, *, #303, .F. ) ;
#208 =( NAMED_UNIT ( * ) PLANE_ANGLE_UNIT ( ) SI_UNIT ( $, .RADIAN. ) );
#209 =( CONVERSION_BASED_UNIT ( 'INCH', #147 ) LENGTH_UNIT ( ) NAMED_UNIT ( #98 ) );
#210 = AXIS2_PLACEMENT_3D ( 'NONE', #2, #104, #90 ) ;
#211 =( LENGTH_UNIT ( ) NAMED_UNIT ( * ) SI_UNIT ( $, .METRE. ) );
#212 = FILL_AREA_STYLE_COLOUR ( '', #205 ) ;
#213 = EDGE_CURVE ( 'NONE', #191, #154, #117, .T. ) ;
#214 = STYLED_ITEM ( 'NONE', ( #120 ), #3 ) ;
#215 =( GEOMETRIC_REPRESENTATION_CONTEXT ( 3 ) GLOBAL_UNCERTAINTY_ASSIGNED_CONTEXT ( ( #78 ) ) GLOBAL_UNIT_ASSIGNED_CONTEXT ( ( #94, #208, #233 ) ) REPRESENTATION_CONTEXT ( 'NONE', 'WORKASPACE' ) );
#216 = DIRECTION ( 'NONE',  ( -1.000000000000000000, 1.440760940173361028E-17, 0.000000000000000000 ) ) ;
#217 =( GEOMETRIC_REPRESENTATION_CONTEXT ( 3 ) GLOBAL_UNCERTAINTY_ASSIGNED_CONTEXT ( ( #101 ) ) GLOBAL_UNIT_ASSIGNED_CONTEXT ( ( #308, #262, #152 ) ) REPRESENTATION_CONTEXT ( 'NONE', 'WORKASPACE' ) );
#218 = AXIS2_PLACEMENT_3D ( 'NONE', #250, #86, #183 ) ;
#219 = CARTESIAN_POINT ( 'NONE',  ( 0.000000000000000000, 0.000000000000000000, -0.2187500000000000000 ) ) ;
#220 = DIRECTION ( 'NONE',  ( -0.000000000000000000, -1.000000000000000000, -0.000000000000000000 ) ) ;
#221 = CARTESIAN_POINT ( 'NONE',  ( 0.000000000000000000, 0.000000000000000000, 0.000000000000000000 ) ) ;
#222 = CARTESIAN_POINT ( 'NONE',  ( 0.000000000000000000, 0.000000000000000000, 0.000000000000000000 ) ) ;
#223 = CIRCLE ( 'NONE', #23, 0.2187499999999999445 ) ;
#224 = DIRECTION ( 'NONE',  ( -0.000000000000000000, -1.000000000000000000, -0.000000000000000000 ) ) ;
#225 = FILL_AREA_STYLE ('',( #136 ) ) ;
#226 = CARTESIAN_POINT ( 'NONE',  ( 3.061616997868392262E-17, 2.750000000000000000, 0.000000000000000000 ) ) ;
#227 =( NAMED_UNIT ( * ) SI_UNIT ( $, .STERADIAN. ) SOLID_ANGLE_UNIT ( ) );
#228 =( NAMED_UNIT ( * ) SI_UNIT ( $, .STERADIAN. ) SOLID_ANGLE_UNIT ( ) );
#229 = AXIS2_PLACEMENT_3D ( 'NONE', #63, #186, #246 ) ;
#230 = MECHANICAL_DESIGN_GEOMETRIC_PRESENTATION_REPRESENTATION (  '', ( #199 ), #41 ) ;
#231 = EDGE_LOOP ( 'NONE', ( #66, #95, #207, #179 ) ) ;
#232 = PLANE ( 'NONE',  #127 ) ;
#233 =( NAMED_UNIT ( * ) SI_UNIT ( $, .STERADIAN. ) SOLID_ANGLE_UNIT ( ) );
#234 = ADVANCED_BREP_SHAPE_REPRESENTATION ( '30407', ( #149, #42, #218 ), #253 ) ;
#235 = SURFACE_STYLE_FILL_AREA ( #46 ) ;
#236 = DIRECTION ( 'NONE',  ( -0.000000000000000000, -1.000000000000000000, -0.000000000000000000 ) ) ;
#237 = PRESENTATION_LAYER_ASSIGNMENT (  '', '', ( #61 ) ) ;
#238 =( NAMED_UNIT ( * ) PLANE_ANGLE_UNIT ( ) SI_UNIT ( $, .RADIAN. ) );
#239 = AXIS2_PLACEMENT_3D ( 'NONE', #221, #109, #116 ) ;
#240 = PLANE ( 'NONE',  #67 ) ;
#241 = APPLICATION_CONTEXT ( 'automotive_design' ) ;
#242 =( GEOMETRIC_REPRESENTATION_CONTEXT ( 3 ) GLOBAL_UNCERTAINTY_ASSIGNED_CONTEXT ( ( #289 ) ) GLOBAL_UNIT_ASSIGNED_CONTEXT ( ( #209, #238, #124 ) ) REPRESENTATION_CONTEXT ( 'NONE', 'WORKASPACE' ) );
#243 = AXIS2_PLACEMENT_3D ( 'NONE', #200, #273, #59 ) ;
#244 = CARTESIAN_POINT ( 'NONE',  ( 0.000000000000000000, 0.000000000000000000, 0.000000000000000000 ) ) ;
#245 = EDGE_CURVE ( 'NONE', #145, #111, #36, .T. ) ;
#246 = DIRECTION ( 'NONE',  ( 0.000000000000000000, 0.000000000000000000, -1.000000000000000000 ) ) ;
#247 = FACE_OUTER_BOUND ( 'NONE', #97, .T. ) ;
#248 = DIRECTION ( 'NONE',  ( -0.000000000000000000, -1.000000000000000000, -0.000000000000000000 ) ) ;
#249 =( GEOMETRIC_REPRESENTATION_CONTEXT ( 3 ) GLOBAL_UNCERTAINTY_ASSIGNED_CONTEXT ( ( #178 ) ) GLOBAL_UNIT_ASSIGNED_CONTEXT ( ( #87, #276, #227 ) ) REPRESENTATION_CONTEXT ( 'NONE', 'WORKASPACE' ) );
#250 = CARTESIAN_POINT ( 'NONE',  ( 0.000000000000000000, 0.000000000000000000, 0.000000000000000000 ) ) ;
#251 = ORIENTED_EDGE ( 'NONE', *, *, #303, .T. ) ;
#252 = AXIS2_PLACEMENT_3D ( 'NONE', #275, #168, #258 ) ;
#253 =( GEOMETRIC_REPRESENTATION_CONTEXT ( 3 ) GLOBAL_UNCERTAINTY_ASSIGNED_CONTEXT ( ( #267 ) ) GLOBAL_UNIT_ASSIGNED_CONTEXT ( ( #26, #206, #171 ) ) REPRESENTATION_CONTEXT ( 'NONE', 'WORKASPACE' ) );
#254 = FILL_AREA_STYLE_COLOUR ( '', #82 ) ;
#255 = ORIENTED_EDGE ( 'NONE', *, *, #53, .F. ) ;
#256 = PRESENTATION_STYLE_ASSIGNMENT (( #138 ) ) ;
#257 = EDGE_LOOP ( 'NONE', ( #251, #80 ) ) ;
#258 = DIRECTION ( 'NONE',  ( -1.000000000000000000, 0.000000000000000000, 0.000000000000000000 ) ) ;
#259 = ORIENTED_EDGE ( 'NONE', *, *, #213, .F. ) ;
#260 = DIMENSIONAL_EXPONENTS ( 1.000000000000000000, 0.000000000000000000, 0.000000000000000000, 0.000000000000000000, 0.000000000000000000, 0.000000000000000000, 0.000000000000000000 ) ;
#261 = CIRCLE ( 'NONE', #130, 0.2187500000000000000 ) ;
#262 =( NAMED_UNIT ( * ) PLANE_ANGLE_UNIT ( ) SI_UNIT ( $, .RADIAN. ) );
#263 = APPLICATION_PROTOCOL_DEFINITION ( 'draft international standard', 'automotive_design', 1998, #96 ) ;
#264 = CARTESIAN_POINT ( 'NONE',  ( -0.2187499999999999167, 2.750000000000000000, 0.000000000000000000 ) ) ;
#265 = SURFACE_STYLE_FILL_AREA ( #119 ) ;
#266 = CARTESIAN_POINT ( 'NONE',  ( 2.678914873134835064E-17, 0.6250000000000000000, 0.2187500000000000000 ) ) ;
#267 = UNCERTAINTY_MEASURE_WITH_UNIT (LENGTH_MEASURE( 1.000000000000000082E-05 ), #26, 'distance_accuracy_value', 'NONE');
#268 = CARTESIAN_POINT ( 'NONE',  ( 2.270397594860092216E-35, 0.6250000000000000000, 0.000000000000000000 ) ) ;
#269 =( CONVERSION_BASED_UNIT ( 'INCH', #4 ) LENGTH_UNIT ( ) NAMED_UNIT ( #159 ) );
#270 = ADVANCED_FACE ( 'NONE', ( #277 ), #60, .T. ) ;
#271 = MECHANICAL_DESIGN_GEOMETRIC_PRESENTATION_REPRESENTATION (  '', ( #100 ), #107 ) ;
#272 = SURFACE_STYLE_FILL_AREA ( #225 ) ;
#273 = DIRECTION ( 'NONE',  ( -0.000000000000000000, -1.000000000000000000, -0.000000000000000000 ) ) ;
#274 = FILL_AREA_STYLE ('',( #202 ) ) ;
#275 = CARTESIAN_POINT ( 'NONE',  ( 0.000000000000000000, 0.6250000000000000000, 0.000000000000000000 ) ) ;
#276 =( NAMED_UNIT ( * ) PLANE_ANGLE_UNIT ( ) SI_UNIT ( $, .RADIAN. ) );
#277 = FACE_OUTER_BOUND ( 'NONE', #93, .T. ) ;
#278 = CARTESIAN_POINT ( 'NONE',  ( 0.000000000000000000, 0.6250000000000000000, -0.2187500000000000000 ) ) ;
#279 = ORIENTED_EDGE ( 'NONE', *, *, #18, .F. ) ;
#280 = SURFACE_STYLE_USAGE ( .BOTH. , #302 ) ;
#281 = AXIS2_PLACEMENT_3D ( 'NONE', #222, #220, #112 ) ;
#282 = EDGE_LOOP ( 'NONE', ( #167, #304, #298, #299 ) ) ;
#283 = CYLINDRICAL_SURFACE ( 'NONE', #158, 0.2187500000000000000 ) ;
#284 = DIMENSIONAL_EXPONENTS ( 1.000000000000000000, 0.000000000000000000, 0.000000000000000000, 0.000000000000000000, 0.000000000000000000, 0.000000000000000000, 0.000000000000000000 ) ;
#285 = CIRCLE ( 'NONE', #17, 0.2187499999999999445 ) ;
#286 =( NAMED_UNIT ( * ) SI_UNIT ( $, .STERADIAN. ) SOLID_ANGLE_UNIT ( ) );
#287 = VECTOR ( 'NONE', #175, 39.37007874015748143 ) ;
#288 = PRODUCT_DEFINITION_FORMATION_WITH_SPECIFIED_SOURCE ( 'ANY', '', #35, .NOT_KNOWN. ) ;
#289 = UNCERTAINTY_MEASURE_WITH_UNIT (LENGTH_MEASURE( 1.000000000000000082E-05 ), #209, 'distance_accuracy_value', 'NONE');
#290 = CARTESIAN_POINT ( 'NONE',  ( 2.678914873134835064E-17, 0.000000000000000000, 0.2187500000000000000 ) ) ;
#291 = DIRECTION ( 'NONE',  ( 1.440760940173361028E-17, 1.000000000000000000, -0.000000000000000000 ) ) ;
#292 = CIRCLE ( 'NONE', #281, 0.2187500000000000000 ) ;
#293 = ORIENTED_EDGE ( 'NONE', *, *, #125, .F. ) ;
#294 = CARTESIAN_POINT ( 'NONE',  ( 0.000000000000000000, 0.6250000000000000000, 0.000000000000000000 ) ) ;
#295 = LINE ( 'NONE', #132, #287 ) ;
#296 = DIRECTION ( 'NONE',  ( -1.000000000000000000, 0.000000000000000000, 0.000000000000000000 ) ) ;
#297 = FILL_AREA_STYLE ('',( #40 ) ) ;
#298 = ORIENTED_EDGE ( 'NONE', *, *, #131, .T. ) ;
#299 = ORIENTED_EDGE ( 'NONE', *, *, #144, .F. ) ;
#300 = DIRECTION ( 'NONE',  ( 0.000000000000000000, 0.000000000000000000, -1.000000000000000000 ) ) ;
#301 = CIRCLE ( 'NONE', #128, 0.2187500000000000000 ) ;
#302 = SURFACE_SIDE_STYLE ('',( #235 ) ) ;
#303 = EDGE_CURVE ( 'NONE', #164, #111, #285, .T. ) ;
#304 = ORIENTED_EDGE ( 'NONE', *, *, #137, .T. ) ;
#305 = LENGTH_MEASURE_WITH_UNIT ( LENGTH_MEASURE( 0.02539999999999999897 ), #306 );
#306 =( LENGTH_UNIT ( ) NAMED_UNIT ( * ) SI_UNIT ( $, .METRE. ) );
#307 = ADVANCED_FACE ( 'NONE', ( #247 ), #14, .T. ) ;
#308 =( CONVERSION_BASED_UNIT ( 'INCH', #33 ) LENGTH_UNIT ( ) NAMED_UNIT ( #260 ) );
#309 = SURFACE_STYLE_USAGE ( .BOTH. , #174 ) ;
ENDSEC;
END-ISO-10303-21;
