ISO-10303-21;
HEADER;
FILE_DESCRIPTION (( 'STEP AP214' ),
    '1' );
FILE_NAME ('06510.STEP',
    '2023-07-05T16:03:58',
    ( '' ),
    ( '' ),
    'SwSTEP 2.0',
    'SolidWorks 2023',
    '' );
FILE_SCHEMA (( 'AUTOMOTIVE_DESIGN' ));
ENDSEC;

DATA;
#1 = CARTESIAN_POINT ( 'NONE',  ( 2.859903368367275526E-16, 0.1082531754730542140, 0.000000000000000000 ) ) ;
#2 = DIRECTION ( 'NONE',  ( -1.000000000000000000, 0.000000000000000000, 0.000000000000000000 ) ) ;
#3 = STYLED_ITEM ( 'NONE', ( #180 ), #252 ) ;
#4 =( GEOMETRIC_REPRESENTATION_CONTEXT ( 3 ) GLOBAL_UNCERTAINTY_ASSIGNED_CONTEXT ( ( #22 ) ) GLOBAL_UNIT_ASSIGNED_CONTEXT ( ( #32, #218, #154 ) ) REPRESENTATION_CONTEXT ( 'NONE', 'WORKASPACE' ) );
#5 = LENGTH_MEASURE_WITH_UNIT ( LENGTH_MEASURE( 0.02539999999999999897 ), #88 );
#6 = CARTESIAN_POINT ( 'NONE',  ( 0.000000000000000000, 39.37007874015748143, 0.000000000000000000 ) ) ;
#7 = DIRECTION ( 'NONE',  ( -1.451753476719974375E-16, 1.000000000000000000, 0.000000000000000000 ) ) ;
#8 = LENGTH_MEASURE_WITH_UNIT ( LENGTH_MEASURE( 0.02539999999999999897 ), #199 );
#9 = CARTESIAN_POINT ( 'NONE',  ( 0.000000000000000000, 0.1082531754730542556, 0.000000000000000000 ) ) ;
#10 = CIRCLE ( 'NONE', #246, 0.1874999999999996947 ) ;
#11 = ORIENTED_EDGE ( 'NONE', *, *, #36, .T. ) ;
#12 = EDGE_CURVE ( 'NONE', #60, #227, #236, .T. ) ;
#13 = DIRECTION ( 'NONE',  ( 0.000000000000000000, 0.000000000000000000, 1.000000000000000000 ) ) ;
#14 = COLOUR_RGB ( '',1.000000000000000000, 0.000000000000000000, 0.000000000000000000 ) ;
#15 = PRESENTATION_STYLE_ASSIGNMENT (( #119 ) ) ;
#16 =( NAMED_UNIT ( * ) PLANE_ANGLE_UNIT ( ) SI_UNIT ( $, .RADIAN. ) );
#17 = PRODUCT_CONTEXT ( 'NONE', #24, 'mechanical' ) ;
#18 = APPLICATION_CONTEXT ( 'automotive_design' ) ;
#19 = ORIENTED_EDGE ( 'NONE', *, *, #43, .F. ) ;
#20 = DIRECTION ( 'NONE',  ( -1.451753476719974375E-16, 1.000000000000000000, -0.000000000000000000 ) ) ;
#21 = SURFACE_STYLE_USAGE ( .BOTH. , #123 ) ;
#22 = UNCERTAINTY_MEASURE_WITH_UNIT (LENGTH_MEASURE( 1.000000000000000082E-05 ), #32, 'distance_accuracy_value', 'NONE');
#23 = LINE ( 'NONE', #189, #54 ) ;
#24 = APPLICATION_CONTEXT ( 'automotive_design' ) ;
#25 = DIRECTION ( 'NONE',  ( 0.000000000000000000, 0.000000000000000000, -1.000000000000000000 ) ) ;
#26 =( CONVERSION_BASED_UNIT ( 'INCH', #149 ) LENGTH_UNIT ( ) NAMED_UNIT ( #140 ) );
#27 = PRODUCT_DEFINITION_CONTEXT ( 'detailed design', #18, 'design' ) ;
#28 = DIRECTION ( 'NONE',  ( -1.451753476719974375E-16, 1.000000000000000000, -0.000000000000000000 ) ) ;
#29 = FACE_OUTER_BOUND ( 'NONE', #243, .T. ) ;
#30 = VECTOR ( 'NONE', #139, 39.37007874015748143 ) ;
#31 = SURFACE_SIDE_STYLE ('',( #234 ) ) ;
#32 =( CONVERSION_BASED_UNIT ( 'INCH', #198 ) LENGTH_UNIT ( ) NAMED_UNIT ( #78 ) );
#33 = ORIENTED_EDGE ( 'NONE', *, *, #81, .F. ) ;
#34 =( NAMED_UNIT ( * ) PLANE_ANGLE_UNIT ( ) SI_UNIT ( $, .RADIAN. ) );
#35 = AXIS2_PLACEMENT_3D ( 'NONE', #9, #193, #133 ) ;
#36 = EDGE_CURVE ( 'NONE', #57, #187, #69, .T. ) ;
#37 = SURFACE_STYLE_FILL_AREA ( #171 ) ;
#38 = PRODUCT_RELATED_PRODUCT_CATEGORY ( 'part', '', ( #192 ) ) ;
#39 = MECHANICAL_DESIGN_GEOMETRIC_PRESENTATION_REPRESENTATION (  '', ( #3 ), #4 ) ;
#40 = DIRECTION ( 'NONE',  ( -1.000000000000000000, 0.000000000000000000, 0.000000000000000000 ) ) ;
#41 = ORIENTED_EDGE ( 'NONE', *, *, #43, .T. ) ;
#42 = SURFACE_STYLE_USAGE ( .BOTH. , #249 ) ;
#43 = EDGE_CURVE ( 'NONE', #166, #187, #23, .T. ) ;
#44 = FACE_OUTER_BOUND ( 'NONE', #127, .T. ) ;
#45 = DIRECTION ( 'NONE',  ( 0.000000000000000000, 0.000000000000000000, 1.000000000000000000 ) ) ;
#46 = DIRECTION ( 'NONE',  ( 1.451753476719974375E-16, -1.000000000000000000, 0.000000000000000000 ) ) ;
#47 =( LENGTH_UNIT ( ) NAMED_UNIT ( * ) SI_UNIT ( $, .METRE. ) );
#48 = UNCERTAINTY_MEASURE_WITH_UNIT (LENGTH_MEASURE( 1.000000000000000082E-05 ), #256, 'distance_accuracy_value', 'NONE');
#49 = DIMENSIONAL_EXPONENTS ( 1.000000000000000000, 0.000000000000000000, 0.000000000000000000, 0.000000000000000000, 0.000000000000000000, 0.000000000000000000, 0.000000000000000000 ) ;
#50 = CARTESIAN_POINT ( 'NONE',  ( 0.1874999999999998057, 2.500000000000000000, 2.296212748401285877E-17 ) ) ;
#51 = STYLED_ITEM ( 'NONE', ( #197 ), #138 ) ;
#52 = SURFACE_STYLE_USAGE ( .BOTH. , #141 ) ;
#53 =( NAMED_UNIT ( * ) SI_UNIT ( $, .STERADIAN. ) SOLID_ANGLE_UNIT ( ) );
#54 = VECTOR ( 'NONE', #125, 39.37007874015748143 ) ;
#55 = ORIENTED_EDGE ( 'NONE', *, *, #90, .F. ) ;
#56 = PRESENTATION_LAYER_ASSIGNMENT (  '', '', ( #82 ) ) ;
#57 = VERTEX_POINT ( 'NONE', #62 ) ;
#58 = ADVANCED_FACE ( 'NONE', ( #173 ), #61, .T. ) ;
#59 = FILL_AREA_STYLE_COLOUR ( '', #96 ) ;
#60 = VERTEX_POINT ( 'NONE', #247 ) ;
#61 = CONICAL_SURFACE ( 'NONE', #116, 68.19097667594041923, 1.047197551196600074 ) ;
#62 = CARTESIAN_POINT ( 'NONE',  ( 0.1874999999999999722, 2.500000000000000000, 2.296212748401286801E-17 ) ) ;
#63 = FACE_OUTER_BOUND ( 'NONE', #259, .T. ) ;
#64 = EDGE_CURVE ( 'NONE', #161, #60, #229, .T. ) ;
#65 = LINE ( 'NONE', #235, #124 ) ;
#66 = DIMENSIONAL_EXPONENTS ( 1.000000000000000000, 0.000000000000000000, 0.000000000000000000, 0.000000000000000000, 0.000000000000000000, 0.000000000000000000, 0.000000000000000000 ) ;
#67 = UNCERTAINTY_MEASURE_WITH_UNIT (LENGTH_MEASURE( 1.000000000000000082E-05 ), #99, 'distance_accuracy_value', 'NONE');
#68 = FACE_OUTER_BOUND ( 'NONE', #206, .T. ) ;
#69 = CIRCLE ( 'NONE', #264, 0.1875000000000000555 ) ;
#70 = FILL_AREA_STYLE ('',( #86 ) ) ;
#71 = CIRCLE ( 'NONE', #128, 0.1875000000000000555 ) ;
#72 = DIRECTION ( 'NONE',  ( 0.000000000000000000, 1.000000000000000000, 0.000000000000000000 ) ) ;
#73 =( LENGTH_UNIT ( ) NAMED_UNIT ( * ) SI_UNIT ( $, .METRE. ) );
#74 = CYLINDRICAL_SURFACE ( 'NONE', #224, 0.1874999999999998890 ) ;
#75 = EDGE_CURVE ( 'NONE', #166, #262, #201, .T. ) ;
#76 = FILL_AREA_STYLE_COLOUR ( '', #177 ) ;
#77 = DIRECTION ( 'NONE',  ( -1.451753476719974375E-16, 1.000000000000000000, -0.000000000000000000 ) ) ;
#78 = DIMENSIONAL_EXPONENTS ( 1.000000000000000000, 0.000000000000000000, 0.000000000000000000, 0.000000000000000000, 0.000000000000000000, 0.000000000000000000, 0.000000000000000000 ) ;
#79 =( NAMED_UNIT ( * ) PLANE_ANGLE_UNIT ( ) SI_UNIT ( $, .RADIAN. ) );
#80 = PLANE ( 'NONE',  #144 ) ;
#81 = EDGE_CURVE ( 'NONE', #262, #57, #191, .T. ) ;
#82 = STYLED_ITEM ( 'NONE', ( #129 ), #251 ) ;
#83 =( NAMED_UNIT ( * ) PLANE_ANGLE_UNIT ( ) SI_UNIT ( $, .RADIAN. ) );
#84 =( CONVERSION_BASED_UNIT ( 'INCH', #5 ) LENGTH_UNIT ( ) NAMED_UNIT ( #49 ) );
#85 = ADVANCED_BREP_SHAPE_REPRESENTATION ( '06510', ( #251, #252, #195 ), #160 ) ;
#86 = FILL_AREA_STYLE_COLOUR ( '', #14 ) ;
#87 = ADVANCED_FACE ( 'NONE', ( #68 ), #137, .F. ) ;
#88 =( LENGTH_UNIT ( ) NAMED_UNIT ( * ) SI_UNIT ( $, .METRE. ) );
#89 = SURFACE_STYLE_FILL_AREA ( #219 ) ;
#90 = EDGE_CURVE ( 'NONE', #187, #57, #71, .T. ) ;
#91 = STYLED_ITEM ( 'NONE', ( #261 ), #58 ) ;
#92 = ORIENTED_EDGE ( 'NONE', *, *, #75, .T. ) ;
#93 =( NAMED_UNIT ( * ) SI_UNIT ( $, .STERADIAN. ) SOLID_ANGLE_UNIT ( ) );
#94 =( LENGTH_UNIT ( ) NAMED_UNIT ( * ) SI_UNIT ( $, .METRE. ) );
#95 = CARTESIAN_POINT ( 'NONE',  ( 0.000000000000000000, 39.37007874015748143, 0.000000000000000000 ) ) ;
#96 = COLOUR_RGB ( '',1.000000000000000000, 0.000000000000000000, 0.000000000000000000 ) ;
#97 =( NAMED_UNIT ( * ) SI_UNIT ( $, .STERADIAN. ) SOLID_ANGLE_UNIT ( ) );
#98 = SURFACE_STYLE_FILL_AREA ( #70 ) ;
#99 =( CONVERSION_BASED_UNIT ( 'INCH', #250 ) LENGTH_UNIT ( ) NAMED_UNIT ( #66 ) );
#100 = CARTESIAN_POINT ( 'NONE',  ( 0.000000000000000000, 0.000000000000000000, 0.000000000000000000 ) ) ;
#101 = PRESENTATION_LAYER_ASSIGNMENT (  '', '', ( #91 ) ) ;
#102 =( NAMED_UNIT ( * ) SI_UNIT ( $, .STERADIAN. ) SOLID_ANGLE_UNIT ( ) );
#103 = ORIENTED_EDGE ( 'NONE', *, *, #186, .T. ) ;
#104 = FILL_AREA_STYLE ('',( #76 ) ) ;
#105 = DIMENSIONAL_EXPONENTS ( 1.000000000000000000, 0.000000000000000000, 0.000000000000000000, 0.000000000000000000, 0.000000000000000000, 0.000000000000000000, 0.000000000000000000 ) ;
#106 = CARTESIAN_POINT ( 'NONE',  ( 0.000000000000000000, 0.1082531754730542695, 0.000000000000000000 ) ) ;
#107 = DIRECTION ( 'NONE',  ( -1.000000000000000000, -1.451753476719974375E-16, 0.000000000000000000 ) ) ;
#108 = FILL_AREA_STYLE_COLOUR ( '', #241 ) ;
#109 = AXIS2_PLACEMENT_3D ( 'NONE', #1, #156, #237 ) ;
#110 = UNCERTAINTY_MEASURE_WITH_UNIT (LENGTH_MEASURE( 1.000000000000000082E-05 ), #26, 'distance_accuracy_value', 'NONE');
#111 = DIRECTION ( 'NONE',  ( 1.000000000000000000, 1.451753476719974375E-16, 0.000000000000000000 ) ) ;
#112 =( NAMED_UNIT ( * ) PLANE_ANGLE_UNIT ( ) SI_UNIT ( $, .RADIAN. ) );
#113 = SURFACE_STYLE_USAGE ( .BOTH. , #31 ) ;
#114 = ADVANCED_FACE ( 'NONE', ( #44 ), #80, .F. ) ;
#115 = FILL_AREA_STYLE_COLOUR ( '', #232 ) ;
#116 = AXIS2_PLACEMENT_3D ( 'NONE', #95, #72, #168 ) ;
#117 = ORIENTED_EDGE ( 'NONE', *, *, #36, .F. ) ;
#118 = APPLICATION_PROTOCOL_DEFINITION ( 'draft international standard', 'automotive_design', 1998, #24 ) ;
#119 = SURFACE_STYLE_USAGE ( .BOTH. , #162 ) ;
#120 = AXIS2_PLACEMENT_3D ( 'NONE', #153, #28, #2 ) ;
#121 = PRESENTATION_LAYER_ASSIGNMENT (  '', '', ( #51 ) ) ;
#122 = EDGE_LOOP ( 'NONE', ( #33, #258, #41, #117 ) ) ;
#123 = SURFACE_SIDE_STYLE ('',( #37 ) ) ;
#124 = VECTOR ( 'NONE', #136, 39.37007874015748854 ) ;
#125 = DIRECTION ( 'NONE',  ( -1.451753476719974375E-16, 1.000000000000000000, -0.000000000000000000 ) ) ;
#126 = ORIENTED_EDGE ( 'NONE', *, *, #221, .F. ) ;
#127 = EDGE_LOOP ( 'NONE', ( #145, #126 ) ) ;
#128 = AXIS2_PLACEMENT_3D ( 'NONE', #151, #155, #217 ) ;
#129 = PRESENTATION_STYLE_ASSIGNMENT (( #42 ) ) ;
#130 = DIMENSIONAL_EXPONENTS ( 1.000000000000000000, 0.000000000000000000, 0.000000000000000000, 0.000000000000000000, 0.000000000000000000, 0.000000000000000000, 0.000000000000000000 ) ;
#131 = CARTESIAN_POINT ( 'NONE',  ( 2.859903368367275526E-16, 0.1082531754730542140, 0.000000000000000000 ) ) ;
#132 = UNCERTAINTY_MEASURE_WITH_UNIT (LENGTH_MEASURE( 1.000000000000000082E-05 ), #84, 'distance_accuracy_value', 'NONE');
#133 = DIRECTION ( 'NONE',  ( 0.000000000000000000, -0.000000000000000000, 1.000000000000000000 ) ) ;
#134 =( NAMED_UNIT ( * ) SI_UNIT ( $, .STERADIAN. ) SOLID_ANGLE_UNIT ( ) );
#135 = DIRECTION ( 'NONE',  ( 0.000000000000000000, 1.000000000000000000, 0.000000000000000000 ) ) ;
#136 = DIRECTION ( 'NONE',  ( 0.000000000000000000, 0.4999999999999979461, 0.8660254037844397068 ) ) ;
#137 = PLANE ( 'NONE',  #257 ) ;
#138 = ADVANCED_FACE ( 'NONE', ( #196 ), #200, .T. ) ;
#139 = DIRECTION ( 'NONE',  ( -1.451753476719974375E-16, 1.000000000000000000, -0.000000000000000000 ) ) ;
#140 = DIMENSIONAL_EXPONENTS ( 1.000000000000000000, 0.000000000000000000, 0.000000000000000000, 0.000000000000000000, 0.000000000000000000, 0.000000000000000000, 0.000000000000000000 ) ;
#141 = SURFACE_SIDE_STYLE ('',( #89 ) ) ;
#142 = AXIS2_PLACEMENT_3D ( 'NONE', #106, #253, #25 ) ;
#143 = EDGE_CURVE ( 'NONE', #227, #60, #220, .T. ) ;
#144 = AXIS2_PLACEMENT_3D ( 'NONE', #174, #7, #107 ) ;
#145 = ORIENTED_EDGE ( 'NONE', *, *, #75, .F. ) ;
#146 = EDGE_LOOP ( 'NONE', ( #265, #179 ) ) ;
#147 = EDGE_LOOP ( 'NONE', ( #182, #103, #245 ) ) ;
#148 = AXIS2_PLACEMENT_3D ( 'NONE', #207, #230, #228 ) ;
#149 = LENGTH_MEASURE_WITH_UNIT ( LENGTH_MEASURE( 0.02539999999999999897 ), #94 );
#150 = ORIENTED_EDGE ( 'NONE', *, *, #64, .T. ) ;
#151 = CARTESIAN_POINT ( 'NONE',  ( -6.123233995736764803E-17, 2.500000000000000000, 0.000000000000000000 ) ) ;
#152 = PRODUCT_DEFINITION_SHAPE ( 'NONE', 'NONE',  #157 ) ;
#153 = CARTESIAN_POINT ( 'NONE',  ( -6.123233995736766036E-17, 2.500000000000000000, 0.000000000000000000 ) ) ;
#154 =( NAMED_UNIT ( * ) SI_UNIT ( $, .STERADIAN. ) SOLID_ANGLE_UNIT ( ) );
#155 = DIRECTION ( 'NONE',  ( -1.451753476719974375E-16, 1.000000000000000000, -0.000000000000000000 ) ) ;
#156 = DIRECTION ( 'NONE',  ( -1.451753476719974375E-16, 1.000000000000000000, -0.000000000000000000 ) ) ;
#157 = PRODUCT_DEFINITION ( 'UNKNOWN', '', #185, #27 ) ;
#158 =( GEOMETRIC_REPRESENTATION_CONTEXT ( 3 ) GLOBAL_UNCERTAINTY_ASSIGNED_CONTEXT ( ( #67 ) ) GLOBAL_UNIT_ASSIGNED_CONTEXT ( ( #99, #16, #97 ) ) REPRESENTATION_CONTEXT ( 'NONE', 'WORKASPACE' ) );
#159 = PRESENTATION_LAYER_ASSIGNMENT (  '', '', ( #3 ) ) ;
#160 =( GEOMETRIC_REPRESENTATION_CONTEXT ( 3 ) GLOBAL_UNCERTAINTY_ASSIGNED_CONTEXT ( ( #132 ) ) GLOBAL_UNIT_ASSIGNED_CONTEXT ( ( #84, #112, #93 ) ) REPRESENTATION_CONTEXT ( 'NONE', 'WORKASPACE' ) );
#161 = VERTEX_POINT ( 'NONE', #178 ) ;
#162 = SURFACE_SIDE_STYLE ('',( #98 ) ) ;
#163 = CLOSED_SHELL ( 'NONE', ( #164, #114, #233, #87 ) ) ;
#164 = ADVANCED_FACE ( 'NONE', ( #63 ), #211, .T. ) ;
#165 = MECHANICAL_DESIGN_GEOMETRIC_PRESENTATION_REPRESENTATION (  '', ( #82 ), #175 ) ;
#166 = VERTEX_POINT ( 'NONE', #254 ) ;
#167 = ORIENTED_EDGE ( 'NONE', *, *, #186, .F. ) ;
#168 = DIRECTION ( 'NONE',  ( 0.000000000000000000, 0.000000000000000000, 1.000000000000000000 ) ) ;
#169 = AXIS2_PLACEMENT_3D ( 'NONE', #6, #135, #45 ) ;
#170 = CARTESIAN_POINT ( 'NONE',  ( -6.123233995736766036E-17, 2.500000000000000000, 0.000000000000000000 ) ) ;
#171 = FILL_AREA_STYLE ('',( #59 ) ) ;
#172 = SURFACE_STYLE_FILL_AREA ( #104 ) ;
#173 = FACE_OUTER_BOUND ( 'NONE', #147, .T. ) ;
#174 = CARTESIAN_POINT ( 'NONE',  ( 2.859903368367275526E-16, 0.1082531754730542278, 0.000000000000000000 ) ) ;
#175 =( GEOMETRIC_REPRESENTATION_CONTEXT ( 3 ) GLOBAL_UNCERTAINTY_ASSIGNED_CONTEXT ( ( #213 ) ) GLOBAL_UNIT_ASSIGNED_CONTEXT ( ( #240, #34, #134 ) ) REPRESENTATION_CONTEXT ( 'NONE', 'WORKASPACE' ) );
#176 =( LENGTH_UNIT ( ) NAMED_UNIT ( * ) SI_UNIT ( $, .METRE. ) );
#177 = COLOUR_RGB ( '',0.7921568627450980005, 0.8196078431372548767, 0.9333333333333333481 ) ;
#178 = CARTESIAN_POINT ( 'NONE',  ( 0.000000000000000000, 0.000000000000000000, 0.000000000000000000 ) ) ;
#179 = ORIENTED_EDGE ( 'NONE', *, *, #12, .F. ) ;
#180 = PRESENTATION_STYLE_ASSIGNMENT (( #52 ) ) ;
#181 = MECHANICAL_DESIGN_GEOMETRIC_PRESENTATION_REPRESENTATION (  '', ( #91 ), #158 ) ;
#182 = ORIENTED_EDGE ( 'NONE', *, *, #64, .F. ) ;
#183 = SHAPE_DEFINITION_REPRESENTATION ( #152, #85 ) ;
#184 =( GEOMETRIC_REPRESENTATION_CONTEXT ( 3 ) GLOBAL_UNCERTAINTY_ASSIGNED_CONTEXT ( ( #48 ) ) GLOBAL_UNIT_ASSIGNED_CONTEXT ( ( #256, #83, #53 ) ) REPRESENTATION_CONTEXT ( 'NONE', 'WORKASPACE' ) );
#185 = PRODUCT_DEFINITION_FORMATION_WITH_SPECIFIED_SOURCE ( 'ANY', '', #192, .NOT_KNOWN. ) ;
#186 = EDGE_CURVE ( 'NONE', #161, #227, #65, .T. ) ;
#187 = VERTEX_POINT ( 'NONE', #214 ) ;
#188 = DIRECTION ( 'NONE',  ( -1.000000000000000000, 0.000000000000000000, 0.000000000000000000 ) ) ;
#189 = CARTESIAN_POINT ( 'NONE',  ( -0.1874999999999999445, 2.500000000000000000, 0.000000000000000000 ) ) ;
#190 = DIRECTION ( 'NONE',  ( -1.000000000000000000, -1.821231995776178437E-16, 0.000000000000000000 ) ) ;
#191 = LINE ( 'NONE', #50, #30 ) ;
#192 = PRODUCT ( '06510', '06510', '', ( #17 ) ) ;
#193 = DIRECTION ( 'NONE',  ( 0.000000000000000000, 1.000000000000000000, 0.000000000000000000 ) ) ;
#194 =( GEOMETRIC_REPRESENTATION_CONTEXT ( 3 ) GLOBAL_UNCERTAINTY_ASSIGNED_CONTEXT ( ( #110 ) ) GLOBAL_UNIT_ASSIGNED_CONTEXT ( ( #26, #79, #102 ) ) REPRESENTATION_CONTEXT ( 'NONE', 'WORKASPACE' ) );
#195 = AXIS2_PLACEMENT_3D ( 'NONE', #202, #13, #204 ) ;
#196 = FACE_OUTER_BOUND ( 'NONE', #146, .T. ) ;
#197 = PRESENTATION_STYLE_ASSIGNMENT (( #113 ) ) ;
#198 = LENGTH_MEASURE_WITH_UNIT ( LENGTH_MEASURE( 0.02539999999999999897 ), #47 );
#199 =( LENGTH_UNIT ( ) NAMED_UNIT ( * ) SI_UNIT ( $, .METRE. ) );
#200 = PLANE ( 'NONE',  #35 ) ;
#201 = CIRCLE ( 'NONE', #109, 0.1874999999999996947 ) ;
#202 = CARTESIAN_POINT ( 'NONE',  ( 0.000000000000000000, 0.000000000000000000, 0.000000000000000000 ) ) ;
#203 = PRESENTATION_LAYER_ASSIGNMENT (  '', '', ( #216 ) ) ;
#204 = DIRECTION ( 'NONE',  ( 1.000000000000000000, 0.000000000000000000, 0.000000000000000000 ) ) ;
#205 = CONICAL_SURFACE ( 'NONE', #169, 68.19097667594041923, 1.047197551196600074 ) ;
#206 = EDGE_LOOP ( 'NONE', ( #223, #11 ) ) ;
#207 = CARTESIAN_POINT ( 'NONE',  ( 0.000000000000000000, 0.1082531754730542695, 0.000000000000000000 ) ) ;
#208 = MECHANICAL_DESIGN_GEOMETRIC_PRESENTATION_REPRESENTATION (  '', ( #216 ), #194 ) ;
#209 = LENGTH_MEASURE_WITH_UNIT ( LENGTH_MEASURE( 0.02539999999999999897 ), #176 );
#210 = CARTESIAN_POINT ( 'NONE',  ( 0.000000000000000000, 0.1082531754730542695, 0.1875000000000000278 ) ) ;
#211 = CYLINDRICAL_SURFACE ( 'NONE', #120, 0.1874999999999998890 ) ;
#212 = ADVANCED_FACE ( 'NONE', ( #29 ), #205, .T. ) ;
#213 = UNCERTAINTY_MEASURE_WITH_UNIT (LENGTH_MEASURE( 1.000000000000000082E-05 ), #240, 'distance_accuracy_value', 'NONE');
#214 = CARTESIAN_POINT ( 'NONE',  ( -0.1875000000000001110, 2.500000000000000000, 0.000000000000000000 ) ) ;
#215 = CARTESIAN_POINT ( 'NONE',  ( 0.1874999999999999722, 0.1082531754730542417, 2.296212748401286801E-17 ) ) ;
#216 = STYLED_ITEM ( 'NONE', ( #15 ), #212 ) ;
#217 = DIRECTION ( 'NONE',  ( -1.000000000000000000, 0.000000000000000000, 0.000000000000000000 ) ) ;
#218 =( NAMED_UNIT ( * ) PLANE_ANGLE_UNIT ( ) SI_UNIT ( $, .RADIAN. ) );
#219 = FILL_AREA_STYLE ('',( #108 ) ) ;
#220 = CIRCLE ( 'NONE', #142, 0.1875000000000000278 ) ;
#221 = EDGE_CURVE ( 'NONE', #262, #166, #10, .T. ) ;
#222 = CLOSED_SHELL ( 'NONE', ( #212, #138, #58 ) ) ;
#223 = ORIENTED_EDGE ( 'NONE', *, *, #90, .T. ) ;
#224 = AXIS2_PLACEMENT_3D ( 'NONE', #170, #248, #188 ) ;
#225 = CARTESIAN_POINT ( 'NONE',  ( -6.123233995736764803E-17, 2.500000000000000000, 0.000000000000000000 ) ) ;
#226 = APPLICATION_PROTOCOL_DEFINITION ( 'draft international standard', 'automotive_design', 1998, #18 ) ;
#227 = VERTEX_POINT ( 'NONE', #210 ) ;
#228 = DIRECTION ( 'NONE',  ( 0.000000000000000000, 0.000000000000000000, -1.000000000000000000 ) ) ;
#229 = LINE ( 'NONE', #100, #238 ) ;
#230 = DIRECTION ( 'NONE',  ( -0.000000000000000000, -1.000000000000000000, -0.000000000000000000 ) ) ;
#231 = DIRECTION ( 'NONE',  ( 1.060575238724908024E-16, 0.4999999999999979461, -0.8660254037844397068 ) ) ;
#232 = COLOUR_RGB ( '',1.000000000000000000, 0.000000000000000000, 0.000000000000000000 ) ;
#233 = ADVANCED_FACE ( 'NONE', ( #263 ), #74, .T. ) ;
#234 = SURFACE_STYLE_FILL_AREA ( #255 ) ;
#235 = CARTESIAN_POINT ( 'NONE',  ( 0.000000000000000000, 0.000000000000000000, 0.000000000000000000 ) ) ;
#236 = CIRCLE ( 'NONE', #148, 0.1875000000000000278 ) ;
#237 = DIRECTION ( 'NONE',  ( -1.000000000000000000, -1.821231995776178437E-16, 0.000000000000000000 ) ) ;
#238 = VECTOR ( 'NONE', #231, 39.37007874015748854 ) ;
#239 = CARTESIAN_POINT ( 'NONE',  ( 0.1874999999999999722, 2.500000000000000000, 0.000000000000000000 ) ) ;
#240 =( CONVERSION_BASED_UNIT ( 'INCH', #8 ) LENGTH_UNIT ( ) NAMED_UNIT ( #130 ) );
#241 = COLOUR_RGB ( '',0.7921568627450980005, 0.8196078431372548767, 0.9333333333333333481 ) ;
#242 = ORIENTED_EDGE ( 'NONE', *, *, #81, .T. ) ;
#243 = EDGE_LOOP ( 'NONE', ( #167, #150, #244 ) ) ;
#244 = ORIENTED_EDGE ( 'NONE', *, *, #12, .T. ) ;
#245 = ORIENTED_EDGE ( 'NONE', *, *, #143, .T. ) ;
#246 = AXIS2_PLACEMENT_3D ( 'NONE', #131, #20, #190 ) ;
#247 = CARTESIAN_POINT ( 'NONE',  ( 2.296212748401287726E-17, 0.1082531754730542695, -0.1875000000000000278 ) ) ;
#248 = DIRECTION ( 'NONE',  ( -1.451753476719974375E-16, 1.000000000000000000, -0.000000000000000000 ) ) ;
#249 = SURFACE_SIDE_STYLE ('',( #172 ) ) ;
#250 = LENGTH_MEASURE_WITH_UNIT ( LENGTH_MEASURE( 0.02539999999999999897 ), #73 );
#251 = MANIFOLD_SOLID_BREP ( 'Revolve - Cutting Edge', #222 ) ;
#252 = MANIFOLD_SOLID_BREP ( 'Revolve - Tool Body (Pointed)', #163 ) ;
#253 = DIRECTION ( 'NONE',  ( -0.000000000000000000, -1.000000000000000000, -0.000000000000000000 ) ) ;
#254 = CARTESIAN_POINT ( 'NONE',  ( -0.1874999999999994449, 0.1082531754730541723, 0.000000000000000000 ) ) ;
#255 = FILL_AREA_STYLE ('',( #115 ) ) ;
#256 =( CONVERSION_BASED_UNIT ( 'INCH', #209 ) LENGTH_UNIT ( ) NAMED_UNIT ( #105 ) );
#257 = AXIS2_PLACEMENT_3D ( 'NONE', #239, #46, #111 ) ;
#258 = ORIENTED_EDGE ( 'NONE', *, *, #221, .T. ) ;
#259 = EDGE_LOOP ( 'NONE', ( #92, #242, #55, #19 ) ) ;
#260 = MECHANICAL_DESIGN_GEOMETRIC_PRESENTATION_REPRESENTATION (  '', ( #51 ), #184 ) ;
#261 = PRESENTATION_STYLE_ASSIGNMENT (( #21 ) ) ;
#262 = VERTEX_POINT ( 'NONE', #215 ) ;
#263 = FACE_OUTER_BOUND ( 'NONE', #122, .T. ) ;
#264 = AXIS2_PLACEMENT_3D ( 'NONE', #225, #77, #40 ) ;
#265 = ORIENTED_EDGE ( 'NONE', *, *, #143, .F. ) ;
ENDSEC;
END-ISO-10303-21;
