ISO-10303-21;
HEADER;
FILE_DESCRIPTION (( 'STEP AP214' ),
    '1' );
FILE_NAME ('Micro_GEM-093-2.STEP',
    '2021-09-01T19:14:16',
    ( '' ),
    ( '' ),
    'SwSTEP 2.0',
    'SolidWorks 2020',
    '' );
FILE_SCHEMA (( 'AUTOMOTIVE_DESIGN' ));
ENDSEC;

DATA;
#1 = AXIS2_PLACEMENT_3D ( 'NONE', #151, #155, #245 ) ;
#2 = EDGE_CURVE ( 'NONE', #212, #107, #283, .T. ) ;
#3 = AXIS2_PLACEMENT_3D ( 'NONE', #82, #264, #58 ) ;
#4 = EDGE_CURVE ( 'NONE', #60, #105, #231, .T. ) ;
#5 = CARTESIAN_POINT ( 'NONE',  ( 0.0000000000000000000, 0.0000000000000000000, 0.0000000000000000000 ) ) ;
#6 = FILL_AREA_STYLE_COLOUR ( '', #52 ) ;
#7 = FACE_OUTER_BOUND ( 'NONE', #251, .T. ) ;
#8 = ORIENTED_EDGE ( 'NONE', *, *, #202, .T. ) ;
#9 = AXIS2_PLACEMENT_3D ( 'NONE', #222, #31, #266 ) ;
#10 = UNCERTAINTY_MEASURE_WITH_UNIT (LENGTH_MEASURE( 1.000000000000000082E-05 ), #195, 'distance_accuracy_value', 'NONE');
#11 = EDGE_CURVE ( 'NONE', #60, #257, #66, .T. ) ;
#12 = SURFACE_STYLE_FILL_AREA ( #55 ) ;
#13 = CARTESIAN_POINT ( 'NONE',  ( 0.04685310000000000169, 5.737849894513085128E-18, 0.0000000000000000000 ) ) ;
#14 = APPLICATION_CONTEXT ( 'automotive_design' ) ;
#15 = DIRECTION ( 'NONE',  ( -0.7071067811865462405, 0.0000000000000000000, -0.7071067811865486830 ) ) ;
#16 = FACE_OUTER_BOUND ( 'NONE', #298, .T. ) ;
#17 = DIRECTION ( 'NONE',  ( 1.000000000000000000, 0.0000000000000000000, 0.0000000000000000000 ) ) ;
#18 = ORIENTED_EDGE ( 'NONE', *, *, #215, .F. ) ;
#19 = ADVANCED_FACE ( 'NONE', ( #16 ), #21, .T. ) ;
#20 = AXIS2_PLACEMENT_3D ( 'NONE', #263, #262, #249 ) ;
#21 = CYLINDRICAL_SURFACE ( 'NONE', #138, 0.04685310000000000169 ) ;
#22 = ORIENTED_EDGE ( 'NONE', *, *, #49, .T. ) ;
#23 = DIRECTION ( 'NONE',  ( 0.7071067811865462405, 8.659560562354916834E-17, -0.7071067811865486830 ) ) ;
#24 =( CONVERSION_BASED_UNIT ( 'INCH', #41 ) LENGTH_UNIT ( ) NAMED_UNIT ( #78 ) );
#25 = ADVANCED_FACE ( 'NONE', ( #273 ), #65, .T. ) ;
#26 =( LENGTH_UNIT ( ) NAMED_UNIT ( * ) SI_UNIT ( $, .METRE. ) );
#27 = ORIENTED_EDGE ( 'NONE', *, *, #119, .F. ) ;
#28 = VECTOR ( 'NONE', #15, 39.37007874015748854 ) ;
#29 = EDGE_CURVE ( 'NONE', #156, #267, #30, .T. ) ;
#30 = CIRCLE ( 'NONE', #236, 0.04750000000000064587 ) ;
#31 = DIRECTION ( 'NONE',  ( -1.224646799147353700E-16, -0.0000000000000000000, -1.000000000000000000 ) ) ;
#32 = PRODUCT_DEFINITION_SHAPE ( 'NONE', 'NONE',  #265 ) ;
#33 = CARTESIAN_POINT ( 'NONE',  ( 0.0000000000000000000, 0.0000000000000000000, 1.485000000000000764 ) ) ;
#34 = CARTESIAN_POINT ( 'NONE',  ( 0.0000000000000000000, 0.0000000000000000000, 0.0000000000000000000 ) ) ;
#35 = CARTESIAN_POINT ( 'NONE',  ( 0.04685310000000004332, 0.0000000000000000000, 0.3750000000000000555 ) ) ;
#36 = CIRCLE ( 'NONE', #282, 0.04685310000000000169 ) ;
#37 = AXIS2_PLACEMENT_3D ( 'NONE', #233, #48, #110 ) ;
#38 = LENGTH_MEASURE_WITH_UNIT ( LENGTH_MEASURE( 0.02539999999999999897 ), #81 );
#39 = ORIENTED_EDGE ( 'NONE', *, *, #180, .T. ) ;
#40 = CARTESIAN_POINT ( 'NONE',  ( 0.0000000000000000000, 0.0000000000000000000, 0.0000000000000000000 ) ) ;
#41 = LENGTH_MEASURE_WITH_UNIT ( LENGTH_MEASURE( 0.02539999999999999897 ), #26 );
#42 = DIRECTION ( 'NONE',  ( -1.224646799147353700E-16, -0.0000000000000000000, -1.000000000000000000 ) ) ;
#43 = VERTEX_POINT ( 'NONE', #293 ) ;
#44 = CONICAL_SURFACE ( 'NONE', #1, 0.04750000000000064587, 0.7853981633974466137 ) ;
#45 = AXIS2_PLACEMENT_3D ( 'NONE', #281, #256, #295 ) ;
#46 = DIRECTION ( 'NONE',  ( 1.000000000000000000, 0.0000000000000000000, -0.0000000000000000000 ) ) ;
#47 = EDGE_LOOP ( 'NONE', ( #18, #141, #111, #285 ) ) ;
#48 = DIRECTION ( 'NONE',  ( 1.224646799147353700E-16, 0.0000000000000000000, 1.000000000000000000 ) ) ;
#49 = EDGE_CURVE ( 'NONE', #105, #248, #120, .T. ) ;
#50 = APPLICATION_PROTOCOL_DEFINITION ( 'draft international standard', 'automotive_design', 1998, #174 ) ;
#51 = DIRECTION ( 'NONE',  ( 1.000000000000000000, 0.0000000000000000000, 0.0000000000000000000 ) ) ;
#52 = COLOUR_RGB ( '',0.7921568627450980005, 0.8196078431372548767, 0.9333333333333333481 ) ;
#53 = DIRECTION ( 'NONE',  ( 0.0000000000000000000, 0.0000000000000000000, 1.000000000000000000 ) ) ;
#54 = ADVANCED_FACE ( 'NONE', ( #77 ), #276, .T. ) ;
#55 = FILL_AREA_STYLE ('',( #6 ) ) ;
#56 = CARTESIAN_POINT ( 'NONE',  ( 0.04685310000000004332, 0.0000000000000000000, 0.3750000000000000555 ) ) ;
#57 = CARTESIAN_POINT ( 'NONE',  ( 7.026839507303433011E-34, 0.0000000000000000000, 5.737849894513087439E-18 ) ) ;
#58 = DIRECTION ( 'NONE',  ( -1.000000000000000000, 0.0000000000000000000, 0.0000000000000000000 ) ) ;
#59 = CARTESIAN_POINT ( 'NONE',  ( 4.592425496802576684E-17, 0.0000000000000000000, 0.3750000000000000555 ) ) ;
#60 = VERTEX_POINT ( 'NONE', #56 ) ;
#61 = FACE_OUTER_BOUND ( 'NONE', #139, .T. ) ;
#62 = ORIENTED_EDGE ( 'NONE', *, *, #148, .F. ) ;
#63 = EDGE_LOOP ( 'NONE', ( #182, #218 ) ) ;
#64 = VECTOR ( 'NONE', #42, 39.37007874015748143 ) ;
#65 = CONICAL_SURFACE ( 'NONE', #83, 0.04685310000000000169, 0.1745329251994338915 ) ;
#66 = CIRCLE ( 'NONE', #268, 0.04685310000000000169 ) ;
#67 = SURFACE_STYLE_USAGE ( .BOTH. , #144 ) ;
#68 = DIRECTION ( 'NONE',  ( 1.000000000000000000, 0.0000000000000000000, -0.0000000000000000000 ) ) ;
#69 = AXIS2_PLACEMENT_3D ( 'NONE', #290, #226, #17 ) ;
#70 =( GEOMETRIC_REPRESENTATION_CONTEXT ( 3 ) GLOBAL_UNCERTAINTY_ASSIGNED_CONTEXT ( ( #152 ) ) GLOBAL_UNIT_ASSIGNED_CONTEXT ( ( #24, #299, #118 ) ) REPRESENTATION_CONTEXT ( 'NONE', 'WORKASPACE' ) );
#71 = ADVANCED_FACE ( 'NONE', ( #178 ), #44, .T. ) ;
#72 = VECTOR ( 'NONE', #242, 39.37007874015748143 ) ;
#73 = AXIS2_PLACEMENT_3D ( 'NONE', #34, #274, #46 ) ;
#74 = DIRECTION ( 'NONE',  ( -1.224646799147353700E-16, -0.0000000000000000000, -1.000000000000000000 ) ) ;
#75 = CONICAL_SURFACE ( 'NONE', #237, 0.04750000000000064587, 0.7853981633974466137 ) ;
#76 = PRESENTATION_STYLE_ASSIGNMENT (( #85 ) ) ;
#77 = FACE_OUTER_BOUND ( 'NONE', #288, .T. ) ;
#78 = DIMENSIONAL_EXPONENTS ( 1.000000000000000000, 0.0000000000000000000, 0.0000000000000000000, 0.0000000000000000000, 0.0000000000000000000, 0.0000000000000000000, 0.0000000000000000000 ) ;
#79 = ADVANCED_BREP_SHAPE_REPRESENTATION ( 'Micro_GEM-093-2', ( #188, #239 ), #70 ) ;
#80 = DIRECTION ( 'NONE',  ( 1.000000000000000000, 0.0000000000000000000, 0.0000000000000000000 ) ) ;
#81 =( LENGTH_UNIT ( ) NAMED_UNIT ( * ) SI_UNIT ( $, .METRE. ) );
#82 = CARTESIAN_POINT ( 'NONE',  ( 0.0000000000000000000, 0.0000000000000000000, 1.500000000000000222 ) ) ;
#83 = AXIS2_PLACEMENT_3D ( 'NONE', #59, #205, #158 ) ;
#84 = ORIENTED_EDGE ( 'NONE', *, *, #126, .T. ) ;
#85 = SURFACE_STYLE_USAGE ( .BOTH. , #101 ) ;
#86 = DIRECTION ( 'NONE',  ( -1.000000000000000000, 0.0000000000000000000, 1.224646799147353700E-16 ) ) ;
#87 = ORIENTED_EDGE ( 'NONE', *, *, #259, .F. ) ;
#88 = EDGE_LOOP ( 'NONE', ( #62, #114, #172, #125 ) ) ;
#89 = CARTESIAN_POINT ( 'NONE',  ( -0.04750000000000064587, 0.0000000000000000000, 1.500000000000000222 ) ) ;
#90 = CARTESIAN_POINT ( 'NONE',  ( -0.04685310000000000169, 0.0000000000000000000, 1.147569978902617488E-17 ) ) ;
#91 = CARTESIAN_POINT ( 'NONE',  ( 0.0000000000000000000, 0.0000000000000000000, 1.500000000000000222 ) ) ;
#92 =( NAMED_UNIT ( * ) PLANE_ANGLE_UNIT ( ) SI_UNIT ( $, .RADIAN. ) );
#93 = AXIS2_PLACEMENT_3D ( 'NONE', #287, #196, #183 ) ;
#94 = MECHANICAL_DESIGN_GEOMETRIC_PRESENTATION_REPRESENTATION (  '', ( #121 ), #109 ) ;
#95 = CIRCLE ( 'NONE', #45, 0.06250000000000002776 ) ;
#96 = SHAPE_DEFINITION_REPRESENTATION ( #32, #79 ) ;
#97 = PRODUCT ( 'Micro_GEM-093-2', 'Micro_GEM-093-2', '', ( #260 ) ) ;
#98 = EDGE_CURVE ( 'NONE', #60, #107, #153, .T. ) ;
#99 =( NAMED_UNIT ( * ) PLANE_ANGLE_UNIT ( ) SI_UNIT ( $, .RADIAN. ) );
#100 = CARTESIAN_POINT ( 'NONE',  ( 4.592425496802576684E-17, 0.0000000000000000000, 0.3750000000000000555 ) ) ;
#101 = SURFACE_SIDE_STYLE ('',( #12 ) ) ;
#102 = DIRECTION ( 'NONE',  ( -1.224646799147353700E-16, -0.0000000000000000000, -1.000000000000000000 ) ) ;
#103 = FACE_OUTER_BOUND ( 'NONE', #47, .T. ) ;
#104 = DIRECTION ( 'NONE',  ( -1.224646799147353700E-16, -0.0000000000000000000, -1.000000000000000000 ) ) ;
#105 = VERTEX_POINT ( 'NONE', #13 ) ;
#106 = DIRECTION ( 'NONE',  ( -1.000000000000000000, 0.0000000000000000000, 1.224646799147353700E-16 ) ) ;
#107 = VERTEX_POINT ( 'NONE', #198 ) ;
#108 = MECHANICAL_DESIGN_GEOMETRIC_PRESENTATION_REPRESENTATION (  '', ( #203 ), #186 ) ;
#109 =( GEOMETRIC_REPRESENTATION_CONTEXT ( 3 ) GLOBAL_UNCERTAINTY_ASSIGNED_CONTEXT ( ( #206 ) ) GLOBAL_UNIT_ASSIGNED_CONTEXT ( ( #140, #92, #192 ) ) REPRESENTATION_CONTEXT ( 'NONE', 'WORKASPACE' ) );
#110 = DIRECTION ( 'NONE',  ( 1.000000000000000000, 0.0000000000000000000, 0.0000000000000000000 ) ) ;
#111 = ORIENTED_EDGE ( 'NONE', *, *, #279, .T. ) ;
#112 = ORIENTED_EDGE ( 'NONE', *, *, #279, .F. ) ;
#113 = CONICAL_SURFACE ( 'NONE', #37, 0.04685310000000000169, 0.1745329251994338915 ) ;
#114 = ORIENTED_EDGE ( 'NONE', *, *, #147, .T. ) ;
#115 = COLOUR_RGB ( '',0.7921568627450980005, 0.8196078431372548767, 0.9333333333333333481 ) ;
#116 = DIRECTION ( 'NONE',  ( 0.0000000000000000000, 0.0000000000000000000, -1.000000000000000000 ) ) ;
#117 = PRODUCT_RELATED_PRODUCT_CATEGORY ( 'part', '', ( #97 ) ) ;
#118 =( NAMED_UNIT ( * ) SI_UNIT ( $, .STERADIAN. ) SOLID_ANGLE_UNIT ( ) );
#119 = EDGE_CURVE ( 'NONE', #156, #43, #286, .T. ) ;
#120 = CIRCLE ( 'NONE', #93, 0.04685310000000000169 ) ;
#121 = STYLED_ITEM ( 'NONE', ( #230 ), #79 ) ;
#122 = ADVANCED_FACE ( 'NONE', ( #61 ), #214, .T. ) ;
#123 = CARTESIAN_POINT ( 'NONE',  ( -0.04750000000000064587, 0.0000000000000000000, 1.500000000000000222 ) ) ;
#124 = CARTESIAN_POINT ( 'NONE',  ( 0.0000000000000000000, 0.0000000000000000000, 1.500000000000000222 ) ) ;
#125 = ORIENTED_EDGE ( 'NONE', *, *, #98, .F. ) ;
#126 = EDGE_CURVE ( 'NONE', #257, #248, #157, .T. ) ;
#127 = AXIS2_PLACEMENT_3D ( 'NONE', #124, #53, #220 ) ;
#128 = CARTESIAN_POINT ( 'NONE',  ( -0.04685310000000000169, 0.0000000000000000000, 5.737849894513087439E-18 ) ) ;
#129 = DIRECTION ( 'NONE',  ( 0.1736481776669313859, 0.0000000000000000000, 0.9848077530122077983 ) ) ;
#130 = CYLINDRICAL_SURFACE ( 'NONE', #20, 0.06250000000000002776 ) ;
#131 = DIRECTION ( 'NONE',  ( -1.224646799147353700E-16, -0.0000000000000000000, -1.000000000000000000 ) ) ;
#132 = ORIENTED_EDGE ( 'NONE', *, *, #193, .F. ) ;
#133 = CARTESIAN_POINT ( 'NONE',  ( -0.04685309999999995312, 5.737849894513085128E-18, 0.3750000000000000555 ) ) ;
#134 = CARTESIAN_POINT ( 'NONE',  ( 5.679152322418705982E-17, 0.0000000000000000000, 0.4637379795033760299 ) ) ;
#135 = PRODUCT_DEFINITION_CONTEXT ( 'detailed design', #174, 'design' ) ;
#136 = SURFACE_STYLE_FILL_AREA ( #292 ) ;
#137 = ORIENTED_EDGE ( 'NONE', *, *, #4, .T. ) ;
#138 = AXIS2_PLACEMENT_3D ( 'NONE', #40, #104, #86 ) ;
#139 = EDGE_LOOP ( 'NONE', ( #296, #201, #84, #143 ) ) ;
#140 =( CONVERSION_BASED_UNIT ( 'INCH', #238 ) LENGTH_UNIT ( ) NAMED_UNIT ( #227 ) );
#141 = ORIENTED_EDGE ( 'NONE', *, *, #193, .T. ) ;
#142 = LINE ( 'NONE', #207, #229 ) ;
#143 = ORIENTED_EDGE ( 'NONE', *, *, #49, .F. ) ;
#144 = SURFACE_SIDE_STYLE ('',( #136 ) ) ;
#145 = CARTESIAN_POINT ( 'NONE',  ( -0.04685309999999995312, 6.695946194592023262E-18, 0.3750000000000000555 ) ) ;
#146 = VECTOR ( 'NONE', #217, 39.37007874015748143 ) ;
#147 = EDGE_CURVE ( 'NONE', #257, #212, #197, .T. ) ;
#148 = EDGE_CURVE ( 'NONE', #257, #60, #277, .T. ) ;
#149 = VECTOR ( 'NONE', #272, 39.37007874015747433 ) ;
#150 = CARTESIAN_POINT ( 'NONE',  ( 0.06250000000000002776, 7.654042494670959086E-18, 1.500000000000000222 ) ) ;
#151 = CARTESIAN_POINT ( 'NONE',  ( 0.0000000000000000000, 0.0000000000000000000, 1.500000000000000222 ) ) ;
#152 = UNCERTAINTY_MEASURE_WITH_UNIT (LENGTH_MEASURE( 1.000000000000000082E-05 ), #24, 'distance_accuracy_value', 'NONE');
#153 = LINE ( 'NONE', #35, #169 ) ;
#154 = ORIENTED_EDGE ( 'NONE', *, *, #173, .T. ) ;
#155 = DIRECTION ( 'NONE',  ( 0.0000000000000000000, 0.0000000000000000000, -1.000000000000000000 ) ) ;
#156 = VERTEX_POINT ( 'NONE', #204 ) ;
#157 = LINE ( 'NONE', #128, #146 ) ;
#158 = DIRECTION ( 'NONE',  ( 1.000000000000000000, 0.0000000000000000000, 0.0000000000000000000 ) ) ;
#159 = APPLICATION_PROTOCOL_DEFINITION ( 'draft international standard', 'automotive_design', 1998, #14 ) ;
#160 = CARTESIAN_POINT ( 'NONE',  ( 0.04685310000000000169, 5.737849894513085128E-18, -5.737849894513087439E-18 ) ) ;
#161 = ORIENTED_EDGE ( 'NONE', *, *, #215, .T. ) ;
#162 = FACE_OUTER_BOUND ( 'NONE', #63, .T. ) ;
#163 = FACE_OUTER_BOUND ( 'NONE', #211, .T. ) ;
#164 = PRESENTATION_LAYER_ASSIGNMENT (  '', '', ( #121 ) ) ;
#165 = ADVANCED_FACE ( 'NONE', ( #103 ), #130, .T. ) ;
#166 = PRESENTATION_LAYER_ASSIGNMENT (  '', '', ( #203 ) ) ;
#167 = DIRECTION ( 'NONE',  ( 0.0000000000000000000, 0.0000000000000000000, 1.000000000000000000 ) ) ;
#168 = AXIS2_PLACEMENT_3D ( 'NONE', #134, #102, #80 ) ;
#169 = VECTOR ( 'NONE', #129, 39.37007874015748143 ) ;
#170 = CARTESIAN_POINT ( 'NONE',  ( -0.06249999999999996531, 0.0000000000000000000, 0.4637379795033760299 ) ) ;
#171 = PLANE ( 'NONE',  #73 ) ;
#172 = ORIENTED_EDGE ( 'NONE', *, *, #2, .T. ) ;
#173 = EDGE_CURVE ( 'NONE', #267, #294, #194, .T. ) ;
#174 = APPLICATION_CONTEXT ( 'automotive_design' ) ;
#175 = DIRECTION ( 'NONE',  ( -1.224646799147353700E-16, -0.0000000000000000000, -1.000000000000000000 ) ) ;
#176 = ORIENTED_EDGE ( 'NONE', *, *, #126, .F. ) ;
#177 = CIRCLE ( 'NONE', #127, 0.04750000000000064587 ) ;
#178 = FACE_OUTER_BOUND ( 'NONE', #234, .T. ) ;
#179 = ORIENTED_EDGE ( 'NONE', *, *, #11, .F. ) ;
#180 = EDGE_CURVE ( 'NONE', #107, #212, #297, .T. ) ;
#181 = DIRECTION ( 'NONE',  ( 0.0000000000000000000, 0.0000000000000000000, -1.000000000000000000 ) ) ;
#182 = ORIENTED_EDGE ( 'NONE', *, *, #187, .T. ) ;
#183 = DIRECTION ( 'NONE',  ( -1.000000000000000000, 0.0000000000000000000, 1.224646799147353700E-16 ) ) ;
#184 = ORIENTED_EDGE ( 'NONE', *, *, #119, .T. ) ;
#185 = CARTESIAN_POINT ( 'NONE',  ( 0.0000000000000000000, 0.0000000000000000000, 1.500000000000000222 ) ) ;
#186 =( GEOMETRIC_REPRESENTATION_CONTEXT ( 3 ) GLOBAL_UNCERTAINTY_ASSIGNED_CONTEXT ( ( #10 ) ) GLOBAL_UNIT_ASSIGNED_CONTEXT ( ( #195, #99, #269 ) ) REPRESENTATION_CONTEXT ( 'NONE', 'WORKASPACE' ) );
#187 = EDGE_CURVE ( 'NONE', #267, #156, #177, .T. ) ;
#188 = MANIFOLD_SOLID_BREP ( 'Cut-Revolve1', #216 ) ;
#189 = ORIENTED_EDGE ( 'NONE', *, *, #259, .T. ) ;
#190 = DIRECTION ( 'NONE',  ( -0.0000000000000000000, -0.0000000000000000000, -1.000000000000000000 ) ) ;
#191 = AXIS2_PLACEMENT_3D ( 'NONE', #244, #175, #106 ) ;
#192 =( NAMED_UNIT ( * ) SI_UNIT ( $, .STERADIAN. ) SOLID_ANGLE_UNIT ( ) );
#193 = EDGE_CURVE ( 'NONE', #43, #294, #219, .T. ) ;
#194 = LINE ( 'NONE', #123, #28 ) ;
#195 =( CONVERSION_BASED_UNIT ( 'INCH', #38 ) LENGTH_UNIT ( ) NAMED_UNIT ( #243 ) );
#196 = DIRECTION ( 'NONE',  ( -1.224646799147353700E-16, -0.0000000000000000000, -1.000000000000000000 ) ) ;
#197 = LINE ( 'NONE', #133, #149 ) ;
#198 = CARTESIAN_POINT ( 'NONE',  ( 0.06250000000000008327, 7.654042494670966789E-18, 0.4637379795033760299 ) ) ;
#199 = LINE ( 'NONE', #150, #72 ) ;
#200 = CARTESIAN_POINT ( 'NONE',  ( 0.0000000000000000000, 0.0000000000000000000, 1.500000000000000222 ) ) ;
#201 = ORIENTED_EDGE ( 'NONE', *, *, #11, .T. ) ;
#202 = EDGE_CURVE ( 'NONE', #248, #105, #36, .T. ) ;
#203 = STYLED_ITEM ( 'NONE', ( #76 ), #188 ) ;
#204 = CARTESIAN_POINT ( 'NONE',  ( 0.04750000000000064587, 6.735557395310483192E-18, 1.500000000000000222 ) ) ;
#205 = DIRECTION ( 'NONE',  ( 1.224646799147353700E-16, 0.0000000000000000000, 1.000000000000000000 ) ) ;
#206 = UNCERTAINTY_MEASURE_WITH_UNIT (LENGTH_MEASURE( 1.000000000000000082E-05 ), #140, 'distance_accuracy_value', 'NONE');
#207 = CARTESIAN_POINT ( 'NONE',  ( -0.06250000000000002776, 0.0000000000000000000, 1.500000000000000222 ) ) ;
#208 = DIRECTION ( 'NONE',  ( 0.0000000000000000000, 0.0000000000000000000, 1.000000000000000000 ) ) ;
#209 = ORIENTED_EDGE ( 'NONE', *, *, #2, .F. ) ;
#210 = DIRECTION ( 'NONE',  ( -1.000000000000000000, 0.0000000000000000000, 0.0000000000000000000 ) ) ;
#211 = EDGE_LOOP ( 'NONE', ( #250, #184, #87, #225 ) ) ;
#212 = VERTEX_POINT ( 'NONE', #170 ) ;
#213 = CARTESIAN_POINT ( 'NONE',  ( -0.06250000000000002776, 0.0000000000000000000, 1.485000000000000764 ) ) ;
#214 = CYLINDRICAL_SURFACE ( 'NONE', #191, 0.04685310000000000169 ) ;
#215 = EDGE_CURVE ( 'NONE', #43, #107, #199, .T. ) ;
#216 = CLOSED_SHELL ( 'NONE', ( #19, #25, #255, #54, #165, #275, #71, #240, #122, #223 ) ) ;
#217 = DIRECTION ( 'NONE',  ( -1.224646799147353700E-16, -0.0000000000000000000, -1.000000000000000000 ) ) ;
#218 = ORIENTED_EDGE ( 'NONE', *, *, #29, .T. ) ;
#219 = CIRCLE ( 'NONE', #241, 0.06250000000000002776 ) ;
#220 = DIRECTION ( 'NONE',  ( 1.000000000000000000, 0.0000000000000000000, 0.0000000000000000000 ) ) ;
#221 = ORIENTED_EDGE ( 'NONE', *, *, #187, .F. ) ;
#222 = CARTESIAN_POINT ( 'NONE',  ( 4.592425496802576684E-17, 0.0000000000000000000, 0.3750000000000000555 ) ) ;
#223 = ADVANCED_FACE ( 'NONE', ( #7 ), #171, .F. ) ;
#224 = ORIENTED_EDGE ( 'NONE', *, *, #98, .T. ) ;
#225 = ORIENTED_EDGE ( 'NONE', *, *, #173, .F. ) ;
#226 = DIRECTION ( 'NONE',  ( -1.224646799147353700E-16, -0.0000000000000000000, -1.000000000000000000 ) ) ;
#227 = DIMENSIONAL_EXPONENTS ( 1.000000000000000000, 0.0000000000000000000, 0.0000000000000000000, 0.0000000000000000000, 0.0000000000000000000, 0.0000000000000000000, 0.0000000000000000000 ) ;
#228 = DIRECTION ( 'NONE',  ( 1.000000000000000000, 0.0000000000000000000, 0.0000000000000000000 ) ) ;
#229 = VECTOR ( 'NONE', #190, 39.37007874015748143 ) ;
#230 = PRESENTATION_STYLE_ASSIGNMENT (( #67 ) ) ;
#231 = LINE ( 'NONE', #160, #64 ) ;
#232 = DIRECTION ( 'NONE',  ( 0.0000000000000000000, 0.0000000000000000000, 1.000000000000000000 ) ) ;
#233 = CARTESIAN_POINT ( 'NONE',  ( 4.592425496802576684E-17, 0.0000000000000000000, 0.3750000000000000555 ) ) ;
#234 = EDGE_LOOP ( 'NONE', ( #27, #221, #154, #132 ) ) ;
#235 = FACE_OUTER_BOUND ( 'NONE', #253, .T. ) ;
#236 = AXIS2_PLACEMENT_3D ( 'NONE', #200, #208, #228 ) ;
#237 = AXIS2_PLACEMENT_3D ( 'NONE', #91, #116, #210 ) ;
#238 = LENGTH_MEASURE_WITH_UNIT ( LENGTH_MEASURE( 0.02539999999999999897 ), #258 );
#239 = AXIS2_PLACEMENT_3D ( 'NONE', #5, #167, #51 ) ;
#240 = ADVANCED_FACE ( 'NONE', ( #235 ), #113, .T. ) ;
#241 = AXIS2_PLACEMENT_3D ( 'NONE', #33, #181, #284 ) ;
#242 = DIRECTION ( 'NONE',  ( -0.0000000000000000000, -0.0000000000000000000, -1.000000000000000000 ) ) ;
#243 = DIMENSIONAL_EXPONENTS ( 1.000000000000000000, 0.0000000000000000000, 0.0000000000000000000, 0.0000000000000000000, 0.0000000000000000000, 0.0000000000000000000, 0.0000000000000000000 ) ;
#244 = CARTESIAN_POINT ( 'NONE',  ( 0.0000000000000000000, 0.0000000000000000000, 0.0000000000000000000 ) ) ;
#245 = DIRECTION ( 'NONE',  ( -1.000000000000000000, 0.0000000000000000000, 0.0000000000000000000 ) ) ;
#246 = DIRECTION ( 'NONE',  ( -1.000000000000000000, 0.0000000000000000000, 1.224646799147353700E-16 ) ) ;
#247 = CARTESIAN_POINT ( 'NONE',  ( 0.04750000000000064587, 5.817072295950006528E-18, 1.500000000000000222 ) ) ;
#248 = VERTEX_POINT ( 'NONE', #90 ) ;
#249 = DIRECTION ( 'NONE',  ( -1.000000000000000000, 0.0000000000000000000, 0.0000000000000000000 ) ) ;
#250 = ORIENTED_EDGE ( 'NONE', *, *, #29, .F. ) ;
#251 = EDGE_LOOP ( 'NONE', ( #8, #22 ) ) ;
#252 = AXIS2_PLACEMENT_3D ( 'NONE', #185, #232, #68 ) ;
#253 = EDGE_LOOP ( 'NONE', ( #254, #179, #224, #39 ) ) ;
#254 = ORIENTED_EDGE ( 'NONE', *, *, #147, .F. ) ;
#255 = ADVANCED_FACE ( 'NONE', ( #163 ), #75, .T. ) ;
#256 = DIRECTION ( 'NONE',  ( 0.0000000000000000000, 0.0000000000000000000, -1.000000000000000000 ) ) ;
#257 = VERTEX_POINT ( 'NONE', #145 ) ;
#258 =( LENGTH_UNIT ( ) NAMED_UNIT ( * ) SI_UNIT ( $, .METRE. ) );
#259 = EDGE_CURVE ( 'NONE', #294, #43, #95, .T. ) ;
#260 = PRODUCT_CONTEXT ( 'NONE', #14, 'mechanical' ) ;
#261 = PRODUCT_DEFINITION_FORMATION_WITH_SPECIFIED_SOURCE ( 'ANY', '', #97, .NOT_KNOWN. ) ;
#262 = DIRECTION ( 'NONE',  ( -0.0000000000000000000, -0.0000000000000000000, -1.000000000000000000 ) ) ;
#263 = CARTESIAN_POINT ( 'NONE',  ( 0.0000000000000000000, 0.0000000000000000000, 1.500000000000000222 ) ) ;
#264 = DIRECTION ( 'NONE',  ( -0.0000000000000000000, -0.0000000000000000000, -1.000000000000000000 ) ) ;
#265 = PRODUCT_DEFINITION ( 'UNKNOWN', '', #261, #135 ) ;
#266 = DIRECTION ( 'NONE',  ( -1.000000000000000000, 0.0000000000000000000, 0.0000000000000000000 ) ) ;
#267 = VERTEX_POINT ( 'NONE', #89 ) ;
#268 = AXIS2_PLACEMENT_3D ( 'NONE', #100, #131, #270 ) ;
#269 =( NAMED_UNIT ( * ) SI_UNIT ( $, .STERADIAN. ) SOLID_ANGLE_UNIT ( ) );
#270 = DIRECTION ( 'NONE',  ( -1.000000000000000000, 0.0000000000000000000, 0.0000000000000000000 ) ) ;
#271 = ORIENTED_EDGE ( 'NONE', *, *, #148, .T. ) ;
#272 = DIRECTION ( 'NONE',  ( -0.1736481776669311916, 2.126576849575783316E-17, 0.9848077530122080203 ) ) ;
#273 = FACE_OUTER_BOUND ( 'NONE', #88, .T. ) ;
#274 = DIRECTION ( 'NONE',  ( 0.0000000000000000000, 0.0000000000000000000, 1.000000000000000000 ) ) ;
#275 = ADVANCED_FACE ( 'NONE', ( #162 ), #280, .T. ) ;
#276 = CYLINDRICAL_SURFACE ( 'NONE', #3, 0.06250000000000002776 ) ;
#277 = CIRCLE ( 'NONE', #9, 0.04685310000000000169 ) ;
#278 = FILL_AREA_STYLE_COLOUR ( '', #115 ) ;
#279 = EDGE_CURVE ( 'NONE', #294, #212, #142, .T. ) ;
#280 = PLANE ( 'NONE',  #252 ) ;
#281 = CARTESIAN_POINT ( 'NONE',  ( 0.0000000000000000000, 0.0000000000000000000, 1.485000000000000764 ) ) ;
#282 = AXIS2_PLACEMENT_3D ( 'NONE', #57, #74, #246 ) ;
#283 = CIRCLE ( 'NONE', #168, 0.06250000000000002776 ) ;
#284 = DIRECTION ( 'NONE',  ( 1.000000000000000000, 0.0000000000000000000, 0.0000000000000000000 ) ) ;
#285 = ORIENTED_EDGE ( 'NONE', *, *, #180, .F. ) ;
#286 = LINE ( 'NONE', #247, #289 ) ;
#287 = CARTESIAN_POINT ( 'NONE',  ( 7.026839507303433011E-34, 0.0000000000000000000, 5.737849894513087439E-18 ) ) ;
#288 = EDGE_LOOP ( 'NONE', ( #189, #161, #209, #112 ) ) ;
#289 = VECTOR ( 'NONE', #23, 39.37007874015748854 ) ;
#290 = CARTESIAN_POINT ( 'NONE',  ( 5.679152322418705982E-17, 0.0000000000000000000, 0.4637379795033760299 ) ) ;
#291 = ORIENTED_EDGE ( 'NONE', *, *, #202, .F. ) ;
#292 = FILL_AREA_STYLE ('',( #278 ) ) ;
#293 = CARTESIAN_POINT ( 'NONE',  ( 0.06250000000000002776, 7.654042494670959086E-18, 1.485000000000000764 ) ) ;
#294 = VERTEX_POINT ( 'NONE', #213 ) ;
#295 = DIRECTION ( 'NONE',  ( 1.000000000000000000, 0.0000000000000000000, 0.0000000000000000000 ) ) ;
#296 = ORIENTED_EDGE ( 'NONE', *, *, #4, .F. ) ;
#297 = CIRCLE ( 'NONE', #69, 0.06250000000000002776 ) ;
#298 = EDGE_LOOP ( 'NONE', ( #271, #137, #291, #176 ) ) ;
#299 =( NAMED_UNIT ( * ) PLANE_ANGLE_UNIT ( ) SI_UNIT ( $, .RADIAN. ) );
ENDSEC;
END-ISO-10303-21;
