ISO-10303-21;
HEADER;
FILE_DESCRIPTION (( 'STEP AP214' ),
    '1' );
FILE_NAME ('84779.STEP',
    '2023-07-05T16:25:34',
    ( '' ),
    ( '' ),
    'SwSTEP 2.0',
    'SolidWorks 2023',
    '' );
FILE_SCHEMA (( 'AUTOMOTIVE_DESIGN' ));
ENDSEC;

DATA;
#1 = ORIENTED_EDGE ( 'NONE', *, *, #192, .F. ) ;
#2 = PRESENTATION_LAYER_ASSIGNMENT (  '', '', ( #53 ) ) ;
#3 =( GEOMETRIC_REPRESENTATION_CONTEXT ( 3 ) GLOBAL_UNCERTAINTY_ASSIGNED_CONTEXT ( ( #103 ) ) GLOBAL_UNIT_ASSIGNED_CONTEXT ( ( #108, #47, #17 ) ) REPRESENTATION_CONTEXT ( 'NONE', 'WORKASPACE' ) );
#4 = CARTESIAN_POINT ( 'NONE',  ( 6.123233995736772199E-17, 2.500000000000000000, 0.000000000000000000 ) ) ;
#5 = VERTEX_POINT ( 'NONE', #246 ) ;
#6 = DIMENSIONAL_EXPONENTS ( 1.000000000000000000, 0.000000000000000000, 0.000000000000000000, 0.000000000000000000, 0.000000000000000000, 0.000000000000000000, 0.000000000000000000 ) ;
#7 = CLOSED_SHELL ( 'NONE', ( #207, #170, #26, #83 ) ) ;
#8 = STYLED_ITEM ( 'NONE', ( #199 ), #264 ) ;
#9 = DIRECTION ( 'NONE',  ( 1.000000000000000000, 9.633888153292509464E-17, 0.000000000000000000 ) ) ;
#10 = EDGE_CURVE ( 'NONE', #21, #157, #262, .T. ) ;
#11 = AXIS2_PLACEMENT_3D ( 'NONE', #165, #153, #106 ) ;
#12 = COLOUR_RGB ( '',0.7921568627450980005, 0.8196078431372548767, 0.9333333333333333481 ) ;
#13 = LENGTH_MEASURE_WITH_UNIT ( LENGTH_MEASURE( 0.02539999999999999897 ), #100 );
#14 = PRESENTATION_LAYER_ASSIGNMENT (  '', '', ( #174 ) ) ;
#15 =( LENGTH_UNIT ( ) NAMED_UNIT ( * ) SI_UNIT ( $, .METRE. ) );
#16 = DIRECTION ( 'NONE',  ( -1.000000000000000000, 0.000000000000000000, 0.000000000000000000 ) ) ;
#17 =( NAMED_UNIT ( * ) SI_UNIT ( $, .STERADIAN. ) SOLID_ANGLE_UNIT ( ) );
#18 = EDGE_LOOP ( 'NONE', ( #234, #113, #248, #69 ) ) ;
#19 = VECTOR ( 'NONE', #55, 39.37007874015748143 ) ;
#20 = LINE ( 'NONE', #140, #19 ) ;
#21 = VERTEX_POINT ( 'NONE', #177 ) ;
#22 =( LENGTH_UNIT ( ) NAMED_UNIT ( * ) SI_UNIT ( $, .METRE. ) );
#23 = CARTESIAN_POINT ( 'NONE',  ( -0.1562499999999997224, 2.500000000000000000, 0.000000000000000000 ) ) ;
#24 = ORIENTED_EDGE ( 'NONE', *, *, #128, .T. ) ;
#25 = COLOUR_RGB ( '',1.000000000000000000, 0.000000000000000000, 0.000000000000000000 ) ;
#26 = ADVANCED_FACE ( 'NONE', ( #231 ), #135, .T. ) ;
#27 = SURFACE_STYLE_USAGE ( .BOTH. , #109 ) ;
#28 = ORIENTED_EDGE ( 'NONE', *, *, #192, .T. ) ;
#29 = FACE_OUTER_BOUND ( 'NONE', #67, .T. ) ;
#30 =( NAMED_UNIT ( * ) SI_UNIT ( $, .STERADIAN. ) SOLID_ANGLE_UNIT ( ) );
#31 = AXIS2_PLACEMENT_3D ( 'NONE', #257, #33, #117 ) ;
#32 = COLOUR_RGB ( '',1.000000000000000000, 0.000000000000000000, 0.000000000000000000 ) ;
#33 = DIRECTION ( 'NONE',  ( -9.633888153292509464E-17, 1.000000000000000000, -0.000000000000000000 ) ) ;
#34 =( CONVERSION_BASED_UNIT ( 'INCH', #256 ) LENGTH_UNIT ( ) NAMED_UNIT ( #6 ) );
#35 =( NAMED_UNIT ( * ) SI_UNIT ( $, .STERADIAN. ) SOLID_ANGLE_UNIT ( ) );
#36 = AXIS2_PLACEMENT_3D ( 'NONE', #133, #150, #45 ) ;
#37 = DIRECTION ( 'NONE',  ( 0.000000000000000000, 1.000000000000000000, 0.000000000000000000 ) ) ;
#38 = DIRECTION ( 'NONE',  ( -1.000000000000000000, -9.633888153292509464E-17, 0.000000000000000000 ) ) ;
#39 = DIRECTION ( 'NONE',  ( 0.000000000000000000, 0.000000000000000000, -1.000000000000000000 ) ) ;
#40 = UNCERTAINTY_MEASURE_WITH_UNIT (LENGTH_MEASURE( 1.000000000000000082E-05 ), #102, 'distance_accuracy_value', 'NONE');
#41 =( GEOMETRIC_REPRESENTATION_CONTEXT ( 3 ) GLOBAL_UNCERTAINTY_ASSIGNED_CONTEXT ( ( #122 ) ) GLOBAL_UNIT_ASSIGNED_CONTEXT ( ( #34, #76, #35 ) ) REPRESENTATION_CONTEXT ( 'NONE', 'WORKASPACE' ) );
#42 = EDGE_CURVE ( 'NONE', #81, #196, #20, .T. ) ;
#43 = PRESENTATION_STYLE_ASSIGNMENT (( #121 ) ) ;
#44 = CIRCLE ( 'NONE', #31, 0.1562499999999996669 ) ;
#45 = DIRECTION ( 'NONE',  ( -1.000000000000000000, 0.000000000000000000, 0.000000000000000000 ) ) ;
#46 = PRESENTATION_LAYER_ASSIGNMENT (  '', '', ( #8 ) ) ;
#47 =( NAMED_UNIT ( * ) PLANE_ANGLE_UNIT ( ) SI_UNIT ( $, .RADIAN. ) );
#48 = DIMENSIONAL_EXPONENTS ( 1.000000000000000000, 0.000000000000000000, 0.000000000000000000, 0.000000000000000000, 0.000000000000000000, 0.000000000000000000, 0.000000000000000000 ) ;
#49 = EDGE_LOOP ( 'NONE', ( #62, #131 ) ) ;
#50 = FACE_OUTER_BOUND ( 'NONE', #213, .T. ) ;
#51 = EDGE_LOOP ( 'NONE', ( #169, #236 ) ) ;
#52 = ADVANCED_FACE ( 'NONE', ( #29 ), #87, .T. ) ;
#53 = STYLED_ITEM ( 'NONE', ( #72 ), #52 ) ;
#54 = MECHANICAL_DESIGN_GEOMETRIC_PRESENTATION_REPRESENTATION (  '', ( #8 ), #232 ) ;
#55 = DIRECTION ( 'NONE',  ( 0.000000000000000000, 0.7071067811865464625, 0.7071067811865486830 ) ) ;
#56 = DIRECTION ( 'NONE',  ( -0.000000000000000000, -1.000000000000000000, -0.000000000000000000 ) ) ;
#57 = DIRECTION ( 'NONE',  ( -1.000000000000000000, 0.000000000000000000, 0.000000000000000000 ) ) ;
#58 = PRODUCT_DEFINITION_CONTEXT ( 'detailed design', #71, 'design' ) ;
#59 = CARTESIAN_POINT ( 'NONE',  ( 0.1562499999999998612, 2.500000000000000000, 1.913510623667736998E-17 ) ) ;
#60 = CLOSED_SHELL ( 'NONE', ( #264, #201, #52 ) ) ;
#61 = PRODUCT_RELATED_PRODUCT_CATEGORY ( 'part', '', ( #138 ) ) ;
#62 = ORIENTED_EDGE ( 'NONE', *, *, #137, .T. ) ;
#63 =( GEOMETRIC_REPRESENTATION_CONTEXT ( 3 ) GLOBAL_UNCERTAINTY_ASSIGNED_CONTEXT ( ( #146 ) ) GLOBAL_UNIT_ASSIGNED_CONTEXT ( ( #123, #104, #147 ) ) REPRESENTATION_CONTEXT ( 'NONE', 'WORKASPACE' ) );
#64 = VERTEX_POINT ( 'NONE', #259 ) ;
#65 = AXIS2_PLACEMENT_3D ( 'NONE', #233, #37, #144 ) ;
#66 = LINE ( 'NONE', #23, #241 ) ;
#67 = EDGE_LOOP ( 'NONE', ( #1, #193, #90 ) ) ;
#68 = SURFACE_STYLE_FILL_AREA ( #253 ) ;
#69 = ORIENTED_EDGE ( 'NONE', *, *, #10, .F. ) ;
#70 = EDGE_LOOP ( 'NONE', ( #263, #28, #85 ) ) ;
#71 = APPLICATION_CONTEXT ( 'automotive_design' ) ;
#72 = PRESENTATION_STYLE_ASSIGNMENT (( #114 ) ) ;
#73 = CARTESIAN_POINT ( 'NONE',  ( 0.000000000000000000, 0.000000000000000000, 0.000000000000000000 ) ) ;
#74 = AXIS2_PLACEMENT_3D ( 'NONE', #96, #210, #16 ) ;
#75 = PLANE ( 'NONE',  #176 ) ;
#76 =( NAMED_UNIT ( * ) PLANE_ANGLE_UNIT ( ) SI_UNIT ( $, .RADIAN. ) );
#77 = FACE_OUTER_BOUND ( 'NONE', #80, .T. ) ;
#78 = MANIFOLD_SOLID_BREP ( 'Revolve - Cutting Edge', #60 ) ;
#79 = DIRECTION ( 'NONE',  ( -9.633888153292509464E-17, 1.000000000000000000, -0.000000000000000000 ) ) ;
#80 = EDGE_LOOP ( 'NONE', ( #107, #195 ) ) ;
#81 = VERTEX_POINT ( 'NONE', #73 ) ;
#82 = APPLICATION_PROTOCOL_DEFINITION ( 'draft international standard', 'automotive_design', 1998, #186 ) ;
#83 = ADVANCED_FACE ( 'NONE', ( #204 ), #75, .F. ) ;
#84 = FILL_AREA_STYLE_COLOUR ( '', #12 ) ;
#85 = ORIENTED_EDGE ( 'NONE', *, *, #189, .T. ) ;
#86 = EDGE_CURVE ( 'NONE', #196, #64, #101, .T. ) ;
#87 = CONICAL_SURFACE ( 'NONE', #237, 39.37007874015760223, 0.7853981633974498333 ) ;
#88 = FILL_AREA_STYLE_COLOUR ( '', #129 ) ;
#89 =( NAMED_UNIT ( * ) SI_UNIT ( $, .STERADIAN. ) SOLID_ANGLE_UNIT ( ) );
#90 = ORIENTED_EDGE ( 'NONE', *, *, #86, .T. ) ;
#91 =( NAMED_UNIT ( * ) PLANE_ANGLE_UNIT ( ) SI_UNIT ( $, .RADIAN. ) );
#92 = ADVANCED_BREP_SHAPE_REPRESENTATION ( '84779', ( #78, #178, #11 ), #3 ) ;
#93 =( GEOMETRIC_REPRESENTATION_CONTEXT ( 3 ) GLOBAL_UNCERTAINTY_ASSIGNED_CONTEXT ( ( #40 ) ) GLOBAL_UNIT_ASSIGNED_CONTEXT ( ( #102, #126, #89 ) ) REPRESENTATION_CONTEXT ( 'NONE', 'WORKASPACE' ) );
#94 = CARTESIAN_POINT ( 'NONE',  ( 0.000000000000000000, 0.1562499999999995004, 0.000000000000000000 ) ) ;
#95 = PRODUCT_DEFINITION_SHAPE ( 'NONE', 'NONE',  #255 ) ;
#96 = CARTESIAN_POINT ( 'NONE',  ( 2.870265935501609472E-16, 0.1562499999999994726, 0.000000000000000000 ) ) ;
#97 = CIRCLE ( 'NONE', #245, 0.1562499999999999445 ) ;
#98 = DIRECTION ( 'NONE',  ( -0.000000000000000000, -1.000000000000000000, -0.000000000000000000 ) ) ;
#99 = CARTESIAN_POINT ( 'NONE',  ( 6.123233995736772199E-17, 2.500000000000000000, 0.000000000000000000 ) ) ;
#100 =( LENGTH_UNIT ( ) NAMED_UNIT ( * ) SI_UNIT ( $, .METRE. ) );
#101 = CIRCLE ( 'NONE', #217, 0.1562499999999999722 ) ;
#102 =( CONVERSION_BASED_UNIT ( 'INCH', #13 ) LENGTH_UNIT ( ) NAMED_UNIT ( #194 ) );
#103 = UNCERTAINTY_MEASURE_WITH_UNIT (LENGTH_MEASURE( 1.000000000000000082E-05 ), #108, 'distance_accuracy_value', 'NONE');
#104 =( NAMED_UNIT ( * ) PLANE_ANGLE_UNIT ( ) SI_UNIT ( $, .RADIAN. ) );
#105 = EDGE_CURVE ( 'NONE', #5, #172, #44, .T. ) ;
#106 = DIRECTION ( 'NONE',  ( 1.000000000000000000, 0.000000000000000000, 0.000000000000000000 ) ) ;
#107 = ORIENTED_EDGE ( 'NONE', *, *, #86, .F. ) ;
#108 =( CONVERSION_BASED_UNIT ( 'INCH', #212 ) LENGTH_UNIT ( ) NAMED_UNIT ( #265 ) );
#109 = SURFACE_SIDE_STYLE ('',( #68 ) ) ;
#110 = MECHANICAL_DESIGN_GEOMETRIC_PRESENTATION_REPRESENTATION (  '', ( #124 ), #63 ) ;
#111 = CARTESIAN_POINT ( 'NONE',  ( 6.123233995736772199E-17, 2.500000000000000000, 0.000000000000000000 ) ) ;
#112 = CARTESIAN_POINT ( 'NONE',  ( 0.000000000000000000, 0.1562499999999995004, 0.000000000000000000 ) ) ;
#113 = ORIENTED_EDGE ( 'NONE', *, *, #105, .T. ) ;
#114 = SURFACE_STYLE_USAGE ( .BOTH. , #118 ) ;
#115 = DIRECTION ( 'NONE',  ( 9.633888153292509464E-17, -1.000000000000000000, 0.000000000000000000 ) ) ;
#116 = STYLED_ITEM ( 'NONE', ( #43 ), #201 ) ;
#117 = DIRECTION ( 'NONE',  ( -1.000000000000000000, 0.000000000000000000, 0.000000000000000000 ) ) ;
#118 = SURFACE_SIDE_STYLE ('',( #219 ) ) ;
#119 = FILL_AREA_STYLE_COLOUR ( '', #32 ) ;
#120 = DIRECTION ( 'NONE',  ( -9.633888153292509464E-17, 1.000000000000000000, -0.000000000000000000 ) ) ;
#121 = SURFACE_STYLE_USAGE ( .BOTH. , #175 ) ;
#122 = UNCERTAINTY_MEASURE_WITH_UNIT (LENGTH_MEASURE( 1.000000000000000082E-05 ), #34, 'distance_accuracy_value', 'NONE');
#123 =( CONVERSION_BASED_UNIT ( 'INCH', #240 ) LENGTH_UNIT ( ) NAMED_UNIT ( #218 ) );
#124 = STYLED_ITEM ( 'NONE', ( #166 ), #178 ) ;
#125 = AXIS2_PLACEMENT_3D ( 'NONE', #112, #254, #132 ) ;
#126 =( NAMED_UNIT ( * ) PLANE_ANGLE_UNIT ( ) SI_UNIT ( $, .RADIAN. ) );
#127 = CARTESIAN_POINT ( 'NONE',  ( 0.000000000000000000, 0.1562499999999995004, 0.000000000000000000 ) ) ;
#128 = EDGE_CURVE ( 'NONE', #172, #5, #187, .T. ) ;
#129 = COLOUR_RGB ( '',1.000000000000000000, 0.000000000000000000, 0.000000000000000000 ) ;
#130 = DIRECTION ( 'NONE',  ( -9.633888153292509464E-17, 1.000000000000000000, -0.000000000000000000 ) ) ;
#131 = ORIENTED_EDGE ( 'NONE', *, *, #10, .T. ) ;
#132 = DIRECTION ( 'NONE',  ( 0.000000000000000000, -0.000000000000000000, 1.000000000000000000 ) ) ;
#133 = CARTESIAN_POINT ( 'NONE',  ( 6.123233995736772199E-17, 2.500000000000000000, 0.000000000000000000 ) ) ;
#134 = FACE_OUTER_BOUND ( 'NONE', #70, .T. ) ;
#135 = CYLINDRICAL_SURFACE ( 'NONE', #152, 0.1562499999999998057 ) ;
#136 = ORIENTED_EDGE ( 'NONE', *, *, #137, .F. ) ;
#137 = EDGE_CURVE ( 'NONE', #157, #21, #97, .T. ) ;
#138 = PRODUCT ( '84779', '84779', '', ( #173 ) ) ;
#139 = PRESENTATION_LAYER_ASSIGNMENT (  '', '', ( #116 ) ) ;
#140 = CARTESIAN_POINT ( 'NONE',  ( 0.000000000000000000, 0.000000000000000000, 0.000000000000000000 ) ) ;
#141 = CARTESIAN_POINT ( 'NONE',  ( 0.000000000000000000, 39.37007874015748143, 0.000000000000000000 ) ) ;
#142 = DIRECTION ( 'NONE',  ( -9.633888153292509464E-17, 1.000000000000000000, 0.000000000000000000 ) ) ;
#143 = EDGE_CURVE ( 'NONE', #5, #21, #260, .T. ) ;
#144 = DIRECTION ( 'NONE',  ( 0.000000000000000000, 0.000000000000000000, 1.000000000000000000 ) ) ;
#145 = LINE ( 'NONE', #191, #209 ) ;
#146 = UNCERTAINTY_MEASURE_WITH_UNIT (LENGTH_MEASURE( 1.000000000000000082E-05 ), #123, 'distance_accuracy_value', 'NONE');
#147 =( NAMED_UNIT ( * ) SI_UNIT ( $, .STERADIAN. ) SOLID_ANGLE_UNIT ( ) );
#148 = AXIS2_PLACEMENT_3D ( 'NONE', #127, #56, #39 ) ;
#149 = SURFACE_SIDE_STYLE ('',( #190 ) ) ;
#150 = DIRECTION ( 'NONE',  ( -9.633888153292509464E-17, 1.000000000000000000, -0.000000000000000000 ) ) ;
#151 =( NAMED_UNIT ( * ) SI_UNIT ( $, .STERADIAN. ) SOLID_ANGLE_UNIT ( ) );
#152 = AXIS2_PLACEMENT_3D ( 'NONE', #111, #130, #211 ) ;
#153 = DIRECTION ( 'NONE',  ( 0.000000000000000000, 0.000000000000000000, 1.000000000000000000 ) ) ;
#154 = DIRECTION ( 'NONE',  ( -9.633888153292509464E-17, 1.000000000000000000, -0.000000000000000000 ) ) ;
#155 = DIRECTION ( 'NONE',  ( -9.633888153292509464E-17, 1.000000000000000000, -0.000000000000000000 ) ) ;
#156 = ORIENTED_EDGE ( 'NONE', *, *, #143, .T. ) ;
#157 = VERTEX_POINT ( 'NONE', #168 ) ;
#158 =( LENGTH_UNIT ( ) NAMED_UNIT ( * ) SI_UNIT ( $, .METRE. ) );
#159 = SURFACE_SIDE_STYLE ('',( #181 ) ) ;
#160 = DIRECTION ( 'NONE',  ( 0.000000000000000000, 0.000000000000000000, 1.000000000000000000 ) ) ;
#161 = COLOUR_RGB ( '',0.7921568627450980005, 0.8196078431372548767, 0.9333333333333333481 ) ;
#162 = LENGTH_MEASURE_WITH_UNIT ( LENGTH_MEASURE( 0.02539999999999999897 ), #158 );
#163 = FACE_OUTER_BOUND ( 'NONE', #51, .T. ) ;
#164 = PRESENTATION_LAYER_ASSIGNMENT (  '', '', ( #124 ) ) ;
#165 = CARTESIAN_POINT ( 'NONE',  ( 0.000000000000000000, 0.000000000000000000, 0.000000000000000000 ) ) ;
#166 = PRESENTATION_STYLE_ASSIGNMENT (( #229 ) ) ;
#167 = UNCERTAINTY_MEASURE_WITH_UNIT (LENGTH_MEASURE( 1.000000000000000082E-05 ), #206, 'distance_accuracy_value', 'NONE');
#168 = CARTESIAN_POINT ( 'NONE',  ( -0.1562499999999998612, 2.500000000000000000, 0.000000000000000000 ) ) ;
#169 = ORIENTED_EDGE ( 'NONE', *, *, #128, .F. ) ;
#170 = ADVANCED_FACE ( 'NONE', ( #163 ), #226, .F. ) ;
#171 = LENGTH_MEASURE_WITH_UNIT ( LENGTH_MEASURE( 0.02539999999999999897 ), #179 );
#172 = VERTEX_POINT ( 'NONE', #251 ) ;
#173 = PRODUCT_CONTEXT ( 'NONE', #186, 'mechanical' ) ;
#174 = STYLED_ITEM ( 'NONE', ( #200 ), #78 ) ;
#175 = SURFACE_SIDE_STYLE ('',( #227 ) ) ;
#176 = AXIS2_PLACEMENT_3D ( 'NONE', #220, #115, #9 ) ;
#177 = CARTESIAN_POINT ( 'NONE',  ( 0.1562500000000000000, 2.500000000000000000, 1.913510623667737923E-17 ) ) ;
#178 = MANIFOLD_SOLID_BREP ( 'Revolve - Tool Body (Pointed)', #7 ) ;
#179 =( LENGTH_UNIT ( ) NAMED_UNIT ( * ) SI_UNIT ( $, .METRE. ) );
#180 = PRODUCT_DEFINITION_FORMATION_WITH_SPECIFIED_SOURCE ( 'ANY', '', #138, .NOT_KNOWN. ) ;
#181 = SURFACE_STYLE_FILL_AREA ( #223 ) ;
#182 = MECHANICAL_DESIGN_GEOMETRIC_PRESENTATION_REPRESENTATION (  '', ( #116 ), #93 ) ;
#183 = FILL_AREA_STYLE ('',( #119 ) ) ;
#184 =( LENGTH_UNIT ( ) NAMED_UNIT ( * ) SI_UNIT ( $, .METRE. ) );
#185 = CARTESIAN_POINT ( 'NONE',  ( 0.000000000000000000, 0.1562499999999995004, 0.1562500000000000000 ) ) ;
#186 = APPLICATION_CONTEXT ( 'automotive_design' ) ;
#187 = CIRCLE ( 'NONE', #74, 0.1562499999999996669 ) ;
#188 = CONICAL_SURFACE ( 'NONE', #65, 39.37007874015760223, 0.7853981633974498333 ) ;
#189 = EDGE_CURVE ( 'NONE', #64, #196, #250, .T. ) ;
#190 = SURFACE_STYLE_FILL_AREA ( #225 ) ;
#191 = CARTESIAN_POINT ( 'NONE',  ( 0.000000000000000000, 0.000000000000000000, 0.000000000000000000 ) ) ;
#192 = EDGE_CURVE ( 'NONE', #81, #64, #145, .T. ) ;
#193 = ORIENTED_EDGE ( 'NONE', *, *, #42, .T. ) ;
#194 = DIMENSIONAL_EXPONENTS ( 1.000000000000000000, 0.000000000000000000, 0.000000000000000000, 0.000000000000000000, 0.000000000000000000, 0.000000000000000000, 0.000000000000000000 ) ;
#195 = ORIENTED_EDGE ( 'NONE', *, *, #189, .F. ) ;
#196 = VERTEX_POINT ( 'NONE', #185 ) ;
#197 = DIRECTION ( 'NONE',  ( -1.000000000000000000, 0.000000000000000000, 0.000000000000000000 ) ) ;
#198 = MECHANICAL_DESIGN_GEOMETRIC_PRESENTATION_REPRESENTATION (  '', ( #174 ), #41 ) ;
#199 = PRESENTATION_STYLE_ASSIGNMENT (( #27 ) ) ;
#200 = PRESENTATION_STYLE_ASSIGNMENT (( #224 ) ) ;
#201 = ADVANCED_FACE ( 'NONE', ( #77 ), #242, .T. ) ;
#202 = FILL_AREA_STYLE_COLOUR ( '', #161 ) ;
#203 =( CONVERSION_BASED_UNIT ( 'INCH', #162 ) LENGTH_UNIT ( ) NAMED_UNIT ( #235 ) );
#204 = FACE_OUTER_BOUND ( 'NONE', #49, .T. ) ;
#205 = DIRECTION ( 'NONE',  ( 8.659560562354947649E-17, 0.7071067811865464625, -0.7071067811865486830 ) ) ;
#206 =( CONVERSION_BASED_UNIT ( 'INCH', #171 ) LENGTH_UNIT ( ) NAMED_UNIT ( #48 ) );
#207 = ADVANCED_FACE ( 'NONE', ( #50 ), #215, .T. ) ;
#208 = MECHANICAL_DESIGN_GEOMETRIC_PRESENTATION_REPRESENTATION (  '', ( #53 ), #238 ) ;
#209 = VECTOR ( 'NONE', #205, 39.37007874015748143 ) ;
#210 = DIRECTION ( 'NONE',  ( -9.633888153292509464E-17, 1.000000000000000000, -0.000000000000000000 ) ) ;
#211 = DIRECTION ( 'NONE',  ( -1.000000000000000000, 0.000000000000000000, 0.000000000000000000 ) ) ;
#212 = LENGTH_MEASURE_WITH_UNIT ( LENGTH_MEASURE( 0.02539999999999999897 ), #22 );
#213 = EDGE_LOOP ( 'NONE', ( #24, #156, #136, #252 ) ) ;
#214 =( NAMED_UNIT ( * ) PLANE_ANGLE_UNIT ( ) SI_UNIT ( $, .RADIAN. ) );
#215 = CYLINDRICAL_SURFACE ( 'NONE', #222, 0.1562499999999998057 ) ;
#216 = EDGE_CURVE ( 'NONE', #172, #157, #66, .T. ) ;
#217 = AXIS2_PLACEMENT_3D ( 'NONE', #94, #98, #221 ) ;
#218 = DIMENSIONAL_EXPONENTS ( 1.000000000000000000, 0.000000000000000000, 0.000000000000000000, 0.000000000000000000, 0.000000000000000000, 0.000000000000000000, 0.000000000000000000 ) ;
#219 = SURFACE_STYLE_FILL_AREA ( #183 ) ;
#220 = CARTESIAN_POINT ( 'NONE',  ( 0.1562500000000000000, 2.500000000000000000, 0.000000000000000000 ) ) ;
#221 = DIRECTION ( 'NONE',  ( 0.000000000000000000, 0.000000000000000000, -1.000000000000000000 ) ) ;
#222 = AXIS2_PLACEMENT_3D ( 'NONE', #4, #155, #197 ) ;
#223 = FILL_AREA_STYLE ('',( #202 ) ) ;
#224 = SURFACE_STYLE_USAGE ( .BOTH. , #159 ) ;
#225 = FILL_AREA_STYLE ('',( #84 ) ) ;
#226 = PLANE ( 'NONE',  #249 ) ;
#227 = SURFACE_STYLE_FILL_AREA ( #261 ) ;
#228 = VECTOR ( 'NONE', #79, 39.37007874015748143 ) ;
#229 = SURFACE_STYLE_USAGE ( .BOTH. , #149 ) ;
#230 = APPLICATION_PROTOCOL_DEFINITION ( 'draft international standard', 'automotive_design', 1998, #71 ) ;
#231 = FACE_OUTER_BOUND ( 'NONE', #18, .T. ) ;
#232 =( GEOMETRIC_REPRESENTATION_CONTEXT ( 3 ) GLOBAL_UNCERTAINTY_ASSIGNED_CONTEXT ( ( #167 ) ) GLOBAL_UNIT_ASSIGNED_CONTEXT ( ( #206, #214, #151 ) ) REPRESENTATION_CONTEXT ( 'NONE', 'WORKASPACE' ) );
#233 = CARTESIAN_POINT ( 'NONE',  ( 0.000000000000000000, 39.37007874015748143, 0.000000000000000000 ) ) ;
#234 = ORIENTED_EDGE ( 'NONE', *, *, #143, .F. ) ;
#235 = DIMENSIONAL_EXPONENTS ( 1.000000000000000000, 0.000000000000000000, 0.000000000000000000, 0.000000000000000000, 0.000000000000000000, 0.000000000000000000, 0.000000000000000000 ) ;
#236 = ORIENTED_EDGE ( 'NONE', *, *, #105, .F. ) ;
#237 = AXIS2_PLACEMENT_3D ( 'NONE', #141, #239, #160 ) ;
#238 =( GEOMETRIC_REPRESENTATION_CONTEXT ( 3 ) GLOBAL_UNCERTAINTY_ASSIGNED_CONTEXT ( ( #258 ) ) GLOBAL_UNIT_ASSIGNED_CONTEXT ( ( #203, #91, #30 ) ) REPRESENTATION_CONTEXT ( 'NONE', 'WORKASPACE' ) );
#239 = DIRECTION ( 'NONE',  ( 0.000000000000000000, 1.000000000000000000, 0.000000000000000000 ) ) ;
#240 = LENGTH_MEASURE_WITH_UNIT ( LENGTH_MEASURE( 0.02539999999999999897 ), #15 );
#241 = VECTOR ( 'NONE', #154, 39.37007874015748143 ) ;
#242 = PLANE ( 'NONE',  #125 ) ;
#243 = FILL_AREA_STYLE_COLOUR ( '', #25 ) ;
#244 = CARTESIAN_POINT ( 'NONE',  ( 2.870265935501609472E-16, 0.1562499999999995004, 0.000000000000000000 ) ) ;
#245 = AXIS2_PLACEMENT_3D ( 'NONE', #99, #120, #57 ) ;
#246 = CARTESIAN_POINT ( 'NONE',  ( 0.1562499999999999445, 0.1562499999999994726, 1.913510623667737614E-17 ) ) ;
#247 = SHAPE_DEFINITION_REPRESENTATION ( #95, #92 ) ;
#248 = ORIENTED_EDGE ( 'NONE', *, *, #216, .T. ) ;
#249 = AXIS2_PLACEMENT_3D ( 'NONE', #244, #142, #38 ) ;
#250 = CIRCLE ( 'NONE', #148, 0.1562499999999999722 ) ;
#251 = CARTESIAN_POINT ( 'NONE',  ( -0.1562499999999993894, 0.1562499999999994726, 0.000000000000000000 ) ) ;
#252 = ORIENTED_EDGE ( 'NONE', *, *, #216, .F. ) ;
#253 = FILL_AREA_STYLE ('',( #88 ) ) ;
#254 = DIRECTION ( 'NONE',  ( 0.000000000000000000, 1.000000000000000000, 0.000000000000000000 ) ) ;
#255 = PRODUCT_DEFINITION ( 'UNKNOWN', '', #180, #58 ) ;
#256 = LENGTH_MEASURE_WITH_UNIT ( LENGTH_MEASURE( 0.02539999999999999897 ), #184 );
#257 = CARTESIAN_POINT ( 'NONE',  ( 2.870265935501609472E-16, 0.1562499999999994726, 0.000000000000000000 ) ) ;
#258 = UNCERTAINTY_MEASURE_WITH_UNIT (LENGTH_MEASURE( 1.000000000000000082E-05 ), #203, 'distance_accuracy_value', 'NONE');
#259 = CARTESIAN_POINT ( 'NONE',  ( 1.913510623667739463E-17, 0.1562499999999995004, -0.1562500000000000000 ) ) ;
#260 = LINE ( 'NONE', #59, #228 ) ;
#261 = FILL_AREA_STYLE ('',( #243 ) ) ;
#262 = CIRCLE ( 'NONE', #36, 0.1562499999999999445 ) ;
#263 = ORIENTED_EDGE ( 'NONE', *, *, #42, .F. ) ;
#264 = ADVANCED_FACE ( 'NONE', ( #134 ), #188, .T. ) ;
#265 = DIMENSIONAL_EXPONENTS ( 1.000000000000000000, 0.000000000000000000, 0.000000000000000000, 0.000000000000000000, 0.000000000000000000, 0.000000000000000000, 0.000000000000000000 ) ;
ENDSEC;
END-ISO-10303-21;
