ISO-10303-21;
HEADER;
FILE_DESCRIPTION (( 'STEP AP214' ),
    '1' );
FILE_NAME ('Micro_DM-750-2120.STEP',
    '2021-09-02T16:11:02',
    ( '' ),
    ( '' ),
    'SwSTEP 2.0',
    'SolidWorks 2020',
    '' );
FILE_SCHEMA (( 'AUTOMOTIVE_DESIGN' ));
ENDSEC;

DATA;
#1 = FACE_OUTER_BOUND ( 'NONE', #92, .T. ) ;
#2 = UNCERTAINTY_MEASURE_WITH_UNIT (LENGTH_MEASURE( 1.000000000000000082E-05 ), #160, 'distance_accuracy_value', 'NONE');
#3 = DIRECTION ( 'NONE',  ( -0.0000000000000000000, -0.0000000000000000000, -1.000000000000000000 ) ) ;
#4 = PRESENTATION_STYLE_ASSIGNMENT (( #126 ) ) ;
#5 = PRODUCT_DEFINITION_CONTEXT ( 'detailed design', #101, 'design' ) ;
#6 = ORIENTED_EDGE ( 'NONE', *, *, #274, .F. ) ;
#7 = DIRECTION ( 'NONE',  ( -1.000000000000000000, 0.0000000000000000000, 0.0000000000000000000 ) ) ;
#8 = UNCERTAINTY_MEASURE_WITH_UNIT (LENGTH_MEASURE( 1.000000000000000082E-05 ), #67, 'distance_accuracy_value', 'NONE');
#9 = ORIENTED_EDGE ( 'NONE', *, *, #28, .F. ) ;
#10 = ORIENTED_EDGE ( 'NONE', *, *, #165, .T. ) ;
#11 = DIRECTION ( 'NONE',  ( -0.8660254037844400399, 1.060575238724908640E-16, 0.4999999999999976685 ) ) ;
#12 = ORIENTED_EDGE ( 'NONE', *, *, #112, .T. ) ;
#13 =( NAMED_UNIT ( * ) PLANE_ANGLE_UNIT ( ) SI_UNIT ( $, .RADIAN. ) );
#14 = ORIENTED_EDGE ( 'NONE', *, *, #295, .T. ) ;
#15 = CARTESIAN_POINT ( 'NONE',  ( 0.0000000000000000000, 0.0000000000000000000, 4.000000000000000000 ) ) ;
#16 = FACE_OUTER_BOUND ( 'NONE', #39, .T. ) ;
#17 = LINE ( 'NONE', #142, #134 ) ;
#18 = CARTESIAN_POINT ( 'NONE',  ( 0.0000000000000000000, 0.0000000000000000000, 0.0000000000000000000 ) ) ;
#19 = FACE_OUTER_BOUND ( 'NONE', #37, .T. ) ;
#20 = PRODUCT_DEFINITION_FORMATION_WITH_SPECIFIED_SOURCE ( 'ANY', '', #77, .NOT_KNOWN. ) ;
#21 = DIRECTION ( 'NONE',  ( -0.0000000000000000000, -0.0000000000000000000, -1.000000000000000000 ) ) ;
#22 = DIRECTION ( 'NONE',  ( -0.0000000000000000000, -0.0000000000000000000, -1.000000000000000000 ) ) ;
#23 = ADVANCED_FACE ( 'NONE', ( #16 ), #45, .T. ) ;
#24 = CARTESIAN_POINT ( 'NONE',  ( 0.007499999999999999722, 0.0000000000000000000, 1.707404996040164512E-17 ) ) ;
#25 = APPLICATION_CONTEXT ( 'automotive_design' ) ;
#26 = AXIS2_PLACEMENT_3D ( 'NONE', #287, #106, #197 ) ;
#27 = FACE_OUTER_BOUND ( 'NONE', #137, .T. ) ;
#28 = EDGE_CURVE ( 'NONE', #89, #59, #17, .T. ) ;
#29 = DIRECTION ( 'NONE',  ( -1.000000000000000000, 0.0000000000000000000, 0.0000000000000000000 ) ) ;
#30 = LINE ( 'NONE', #312, #65 ) ;
#31 = AXIS2_PLACEMENT_3D ( 'NONE', #15, #98, #189 ) ;
#32 = VECTOR ( 'NONE', #22, 39.37007874015748143 ) ;
#33 = CARTESIAN_POINT ( 'NONE',  ( -0.3749500000000001165, 4.591813173403003194E-17, 0.2121473564137267009 ) ) ;
#34 = EDGE_CURVE ( 'NONE', #44, #291, #75, .T. ) ;
#35 = ORIENTED_EDGE ( 'NONE', *, *, #103, .F. ) ;
#36 = FACE_OUTER_BOUND ( 'NONE', #183, .T. ) ;
#37 = EDGE_LOOP ( 'NONE', ( #127, #14, #267, #113 ) ) ;
#38 = FILL_AREA_STYLE_COLOUR ( '', #170 ) ;
#39 = EDGE_LOOP ( 'NONE', ( #161, #94 ) ) ;
#40 = ADVANCED_BREP_SHAPE_REPRESENTATION ( 'Micro_DM-750-2120', ( #289, #51 ), #273 ) ;
#41 = AXIS2_PLACEMENT_3D ( 'NONE', #276, #50, #7 ) ;
#42 = ORIENTED_EDGE ( 'NONE', *, *, #147, .F. ) ;
#43 = DIRECTION ( 'NONE',  ( -1.000000000000000000, 0.0000000000000000000, 0.0000000000000000000 ) ) ;
#44 = VERTEX_POINT ( 'NONE', #191 ) ;
#45 = PLANE ( 'NONE',  #31 ) ;
#46 = EDGE_CURVE ( 'NONE', #187, #293, #324, .T. ) ;
#47 = DIRECTION ( 'NONE',  ( -1.000000000000000000, 0.0000000000000000000, 0.0000000000000000000 ) ) ;
#48 = CIRCLE ( 'NONE', #214, 0.3750000000000000555 ) ;
#49 = DIRECTION ( 'NONE',  ( -1.000000000000000000, 0.0000000000000000000, 0.0000000000000000000 ) ) ;
#50 = DIRECTION ( 'NONE',  ( -0.0000000000000000000, -0.0000000000000000000, -1.000000000000000000 ) ) ;
#51 = AXIS2_PLACEMENT_3D ( 'NONE', #99, #239, #243 ) ;
#52 =( GEOMETRIC_REPRESENTATION_CONTEXT ( 3 ) GLOBAL_UNCERTAINTY_ASSIGNED_CONTEXT ( ( #249 ) ) GLOBAL_UNIT_ASSIGNED_CONTEXT ( ( #329, #74, #78 ) ) REPRESENTATION_CONTEXT ( 'NONE', 'WORKASPACE' ) );
#53 = FACE_OUTER_BOUND ( 'NONE', #63, .T. ) ;
#54 = LINE ( 'NONE', #131, #285 ) ;
#55 = EDGE_LOOP ( 'NONE', ( #35, #129 ) ) ;
#56 = CARTESIAN_POINT ( 'NONE',  ( 0.0000000000000000000, 0.0000000000000000000, 4.000000000000000000 ) ) ;
#57 = DIRECTION ( 'NONE',  ( -1.000000000000000000, 0.0000000000000000000, 0.0000000000000000000 ) ) ;
#58 = AXIS2_PLACEMENT_3D ( 'NONE', #258, #60, #175 ) ;
#59 = VERTEX_POINT ( 'NONE', #327 ) ;
#60 = DIRECTION ( 'NONE',  ( 0.0000000000000000000, 0.0000000000000000000, 1.000000000000000000 ) ) ;
#61 = ORIENTED_EDGE ( 'NONE', *, *, #28, .T. ) ;
#62 =( NAMED_UNIT ( * ) SI_UNIT ( $, .STERADIAN. ) SOLID_ANGLE_UNIT ( ) );
#63 = EDGE_LOOP ( 'NONE', ( #151, #91, #181, #6 ) ) ;
#64 = ORIENTED_EDGE ( 'NONE', *, *, #301, .T. ) ;
#65 = VECTOR ( 'NONE', #280, 39.37007874015748143 ) ;
#66 = CARTESIAN_POINT ( 'NONE',  ( -0.3749500000000001720, 0.0000000000000000000, 1.500000000000000222 ) ) ;
#67 =( CONVERSION_BASED_UNIT ( 'INCH', #203 ) LENGTH_UNIT ( ) NAMED_UNIT ( #300 ) );
#68 = PRODUCT_RELATED_PRODUCT_CATEGORY ( 'part', '', ( #77 ) ) ;
#69 = CLOSED_SHELL ( 'NONE', ( #199, #212, #139, #262, #233, #23, #290, #220, #260, #237, #156 ) ) ;
#70 = MECHANICAL_DESIGN_GEOMETRIC_PRESENTATION_REPRESENTATION (  '', ( #84 ), #208 ) ;
#71 = PRODUCT_CONTEXT ( 'NONE', #25, 'mechanical' ) ;
#72 = DIRECTION ( 'NONE',  ( -0.0000000000000000000, -0.0000000000000000000, -1.000000000000000000 ) ) ;
#73 = DIRECTION ( 'NONE',  ( -0.0000000000000000000, -0.0000000000000000000, -1.000000000000000000 ) ) ;
#74 =( NAMED_UNIT ( * ) PLANE_ANGLE_UNIT ( ) SI_UNIT ( $, .RADIAN. ) );
#75 = CIRCLE ( 'NONE', #110, 0.3749500000000001720 ) ;
#76 = AXIS2_PLACEMENT_3D ( 'NONE', #87, #182, #207 ) ;
#77 = PRODUCT ( 'Micro_DM-750-2120', 'Micro_DM-750-2120', '', ( #71 ) ) ;
#78 =( NAMED_UNIT ( * ) SI_UNIT ( $, .STERADIAN. ) SOLID_ANGLE_UNIT ( ) );
#79 = CARTESIAN_POINT ( 'NONE',  ( -0.3599999999999994316, 0.0000000000000000000, 4.000000000000000000 ) ) ;
#80 = CARTESIAN_POINT ( 'NONE',  ( 0.0000000000000000000, 0.0000000000000000000, 1.707404996040164512E-17 ) ) ;
#81 = SURFACE_STYLE_FILL_AREA ( #309 ) ;
#82 = AXIS2_PLACEMENT_3D ( 'NONE', #251, #202, #206 ) ;
#83 = CARTESIAN_POINT ( 'NONE',  ( 0.007499999999999999722, 0.0000000000000000000, 1.707404996040164512E-17 ) ) ;
#84 = STYLED_ITEM ( 'NONE', ( #4 ), #289 ) ;
#85 =( LENGTH_UNIT ( ) NAMED_UNIT ( * ) SI_UNIT ( $, .METRE. ) );
#86 = FACE_OUTER_BOUND ( 'NONE', #135, .T. ) ;
#87 = CARTESIAN_POINT ( 'NONE',  ( 0.0000000000000000000, 0.0000000000000000000, 4.000000000000000000 ) ) ;
#88 = CARTESIAN_POINT ( 'NONE',  ( 0.0000000000000000000, 0.0000000000000000000, 4.000000000000000000 ) ) ;
#89 = VERTEX_POINT ( 'NONE', #303 ) ;
#90 = FACE_OUTER_BOUND ( 'NONE', #159, .T. ) ;
#91 = ORIENTED_EDGE ( 'NONE', *, *, #34, .T. ) ;
#92 = EDGE_LOOP ( 'NONE', ( #176, #10 ) ) ;
#93 = ORIENTED_EDGE ( 'NONE', *, *, #165, .F. ) ;
#94 = ORIENTED_EDGE ( 'NONE', *, *, #143, .T. ) ;
#95 = AXIS2_PLACEMENT_3D ( 'NONE', #302, #244, #49 ) ;
#96 = ORIENTED_EDGE ( 'NONE', *, *, #178, .F. ) ;
#97 = EDGE_CURVE ( 'NONE', #209, #319, #297, .T. ) ;
#98 = DIRECTION ( 'NONE',  ( 0.0000000000000000000, 0.0000000000000000000, 1.000000000000000000 ) ) ;
#99 = CARTESIAN_POINT ( 'NONE',  ( 0.0000000000000000000, 0.0000000000000000000, 0.0000000000000000000 ) ) ;
#100 = DIRECTION ( 'NONE',  ( -0.0000000000000000000, -0.0000000000000000000, -1.000000000000000000 ) ) ;
#101 = APPLICATION_CONTEXT ( 'automotive_design' ) ;
#102 = CARTESIAN_POINT ( 'NONE',  ( -0.3749500000000001165, 0.0000000000000000000, 0.0000000000000000000 ) ) ;
#103 = EDGE_CURVE ( 'NONE', #291, #44, #192, .T. ) ;
#104 = AXIS2_PLACEMENT_3D ( 'NONE', #174, #257, #57 ) ;
#105 = DIRECTION ( 'NONE',  ( -0.0000000000000000000, 0.0000000000000000000, -1.000000000000000000 ) ) ;
#106 = DIRECTION ( 'NONE',  ( 0.0000000000000000000, 0.0000000000000000000, -1.000000000000000000 ) ) ;
#107 = AXIS2_PLACEMENT_3D ( 'NONE', #88, #315, #179 ) ;
#108 = ORIENTED_EDGE ( 'NONE', *, *, #97, .F. ) ;
#109 = CARTESIAN_POINT ( 'NONE',  ( -0.3750000000000000555, 0.0000000000000000000, 1.499999999999999778 ) ) ;
#110 = AXIS2_PLACEMENT_3D ( 'NONE', #271, #21, #322 ) ;
#111 = LINE ( 'NONE', #136, #186 ) ;
#112 = EDGE_CURVE ( 'NONE', #319, #89, #30, .T. ) ;
#113 = ORIENTED_EDGE ( 'NONE', *, *, #123, .F. ) ;
#114 = DIRECTION ( 'NONE',  ( -0.0000000000000000000, -0.0000000000000000000, -1.000000000000000000 ) ) ;
#115 = EDGE_LOOP ( 'NONE', ( #211, #132 ) ) ;
#116 = CARTESIAN_POINT ( 'NONE',  ( -0.3750000000000000555, 0.0000000000000000000, 3.984999999999998987 ) ) ;
#117 = VECTOR ( 'NONE', #256, 39.37007874015748143 ) ;
#118 = AXIS2_PLACEMENT_3D ( 'NONE', #80, #282, #219 ) ;
#119 =( NAMED_UNIT ( * ) PLANE_ANGLE_UNIT ( ) SI_UNIT ( $, .RADIAN. ) );
#120 = PRODUCT_DEFINITION ( 'UNKNOWN', '', #20, #5 ) ;
#121 = LENGTH_MEASURE_WITH_UNIT ( LENGTH_MEASURE( 0.02539999999999999897 ), #320 );
#122 = DIMENSIONAL_EXPONENTS ( 1.000000000000000000, 0.0000000000000000000, 0.0000000000000000000, 0.0000000000000000000, 0.0000000000000000000, 0.0000000000000000000, 0.0000000000000000000 ) ;
#123 = EDGE_CURVE ( 'NONE', #187, #259, #200, .T. ) ;
#124 = CYLINDRICAL_SURFACE ( 'NONE', #140, 0.3750000000000000555 ) ;
#125 = DIRECTION ( 'NONE',  ( 0.0000000000000000000, 0.0000000000000000000, 1.000000000000000000 ) ) ;
#126 = SURFACE_STYLE_USAGE ( .BOTH. , #279 ) ;
#127 = ORIENTED_EDGE ( 'NONE', *, *, #217, .F. ) ;
#128 = CYLINDRICAL_SURFACE ( 'NONE', #264, 0.3749500000000001165 ) ;
#129 = ORIENTED_EDGE ( 'NONE', *, *, #34, .F. ) ;
#130 = FILL_AREA_STYLE ('',( #38 ) ) ;
#131 = CARTESIAN_POINT ( 'NONE',  ( -0.3750000000000000555, 0.0000000000000000000, 4.000000000000000000 ) ) ;
#132 = ORIENTED_EDGE ( 'NONE', *, *, #217, .T. ) ;
#133 = SURFACE_SIDE_STYLE ('',( #269 ) ) ;
#134 = VECTOR ( 'NONE', #73, 39.37007874015748143 ) ;
#135 = EDGE_LOOP ( 'NONE', ( #234, #12, #228, #96 ) ) ;
#136 = CARTESIAN_POINT ( 'NONE',  ( 0.3749500000000001165, 4.591813173403002577E-17, 0.0000000000000000000 ) ) ;
#137 = EDGE_LOOP ( 'NONE', ( #316, #318, #232, #157 ) ) ;
#138 = FACE_OUTER_BOUND ( 'NONE', #275, .T. ) ;
#139 = ADVANCED_FACE ( 'NONE', ( #86 ), #230, .T. ) ;
#140 = AXIS2_PLACEMENT_3D ( 'NONE', #56, #221, #153 ) ;
#141 = CYLINDRICAL_SURFACE ( 'NONE', #164, 0.3749500000000001165 ) ;
#142 = CARTESIAN_POINT ( 'NONE',  ( 0.3750000000000000555, 4.592425496802575451E-17, 4.000000000000000000 ) ) ;
#143 = EDGE_CURVE ( 'NONE', #319, #209, #148, .T. ) ;
#144 = DIRECTION ( 'NONE',  ( -1.000000000000000000, 0.0000000000000000000, 0.0000000000000000000 ) ) ;
#145 = STYLED_ITEM ( 'NONE', ( #229 ), #40 ) ;
#146 = LINE ( 'NONE', #102, #32 ) ;
#147 = EDGE_CURVE ( 'NONE', #305, #265, #54, .T. ) ;
#148 = CIRCLE ( 'NONE', #58, 0.3599999999999994316 ) ;
#149 = CARTESIAN_POINT ( 'NONE',  ( 0.0000000000000000000, 0.0000000000000000000, 3.984999999999998987 ) ) ;
#150 = CONICAL_SURFACE ( 'NONE', #76, 0.3599999999999994316, 0.7853981633974415066 ) ;
#151 = ORIENTED_EDGE ( 'NONE', *, *, #301, .F. ) ;
#152 = CARTESIAN_POINT ( 'NONE',  ( 0.0000000000000000000, 0.0000000000000000000, 1.707404996040164512E-17 ) ) ;
#153 = DIRECTION ( 'NONE',  ( -1.000000000000000000, 0.0000000000000000000, 0.0000000000000000000 ) ) ;
#154 = ORIENTED_EDGE ( 'NONE', *, *, #255, .T. ) ;
#155 = FACE_BOUND ( 'NONE', #55, .T. ) ;
#156 = ADVANCED_FACE ( 'NONE', ( #169 ), #277, .F. ) ;
#157 = ORIENTED_EDGE ( 'NONE', *, *, #274, .T. ) ;
#158 = CARTESIAN_POINT ( 'NONE',  ( -0.007499999999999999722, 2.341830841669526008E-17, 1.707404996040164512E-17 ) ) ;
#159 = EDGE_LOOP ( 'NONE', ( #9, #154, #162, #93 ) ) ;
#160 =( CONVERSION_BASED_UNIT ( 'INCH', #294 ) LENGTH_UNIT ( ) NAMED_UNIT ( #323 ) );
#161 = ORIENTED_EDGE ( 'NONE', *, *, #97, .T. ) ;
#162 = ORIENTED_EDGE ( 'NONE', *, *, #147, .T. ) ;
#163 = APPLICATION_PROTOCOL_DEFINITION ( 'draft international standard', 'automotive_design', 1998, #25 ) ;
#164 = AXIS2_PLACEMENT_3D ( 'NONE', #18, #72, #144 ) ;
#165 = EDGE_CURVE ( 'NONE', #59, #265, #310, .T. ) ;
#166 = CIRCLE ( 'NONE', #118, 0.007499999999999999722 ) ;
#167 = SHAPE_DEFINITION_REPRESENTATION ( #298, #40 ) ;
#168 = CYLINDRICAL_SURFACE ( 'NONE', #41, 0.3750000000000000555 ) ;
#169 = FACE_OUTER_BOUND ( 'NONE', #115, .T. ) ;
#170 = COLOUR_RGB ( '',0.7921568627450980005, 0.8196078431372548767, 0.9333333333333333481 ) ;
#171 = FILL_AREA_STYLE_COLOUR ( '', #193 ) ;
#172 = DIRECTION ( 'NONE',  ( 0.0000000000000000000, 0.0000000000000000000, 1.000000000000000000 ) ) ;
#173 = EDGE_CURVE ( 'NONE', #291, #213, #146, .T. ) ;
#174 = CARTESIAN_POINT ( 'NONE',  ( 0.0000000000000000000, 0.0000000000000000000, 1.499999999999999778 ) ) ;
#175 = DIRECTION ( 'NONE',  ( 1.000000000000000000, 0.0000000000000000000, 0.0000000000000000000 ) ) ;
#176 = ORIENTED_EDGE ( 'NONE', *, *, #225, .T. ) ;
#177 = DIRECTION ( 'NONE',  ( 1.000000000000000000, 0.0000000000000000000, 0.0000000000000000000 ) ) ;
#178 = EDGE_CURVE ( 'NONE', #209, #305, #307, .T. ) ;
#179 = DIRECTION ( 'NONE',  ( -1.000000000000000000, 0.0000000000000000000, 0.0000000000000000000 ) ) ;
#180 = AXIS2_PLACEMENT_3D ( 'NONE', #152, #250, #177 ) ;
#181 = ORIENTED_EDGE ( 'NONE', *, *, #173, .T. ) ;
#182 = DIRECTION ( 'NONE',  ( 0.0000000000000000000, 0.0000000000000000000, -1.000000000000000000 ) ) ;
#183 = EDGE_LOOP ( 'NONE', ( #226, #61, #284, #42 ) ) ;
#184 =( NAMED_UNIT ( * ) SI_UNIT ( $, .STERADIAN. ) SOLID_ANGLE_UNIT ( ) );
#185 = ORIENTED_EDGE ( 'NONE', *, *, #255, .F. ) ;
#186 = VECTOR ( 'NONE', #114, 39.37007874015748143 ) ;
#187 = VERTEX_POINT ( 'NONE', #24 ) ;
#188 = CARTESIAN_POINT ( 'NONE',  ( 0.3599999999999994316, 4.500576986866520466E-17, 4.000000000000000000 ) ) ;
#189 = DIRECTION ( 'NONE',  ( 1.000000000000000000, 0.0000000000000000000, -0.0000000000000000000 ) ) ;
#190 = CARTESIAN_POINT ( 'NONE',  ( -0.007499999999999999722, 9.184850993605147975E-19, 1.707404996040164512E-17 ) ) ;
#191 = CARTESIAN_POINT ( 'NONE',  ( 0.3749500000000001720, 4.591813173403003194E-17, 1.500000000000000222 ) ) ;
#192 = CIRCLE ( 'NONE', #82, 0.3749500000000001720 ) ;
#193 = COLOUR_RGB ( '',0.7921568627450980005, 0.8196078431372548767, 0.9333333333333333481 ) ;
#194 = PRESENTATION_LAYER_ASSIGNMENT (  '', '', ( #145 ) ) ;
#195 = DIRECTION ( 'NONE',  ( 0.0000000000000000000, 0.0000000000000000000, 1.000000000000000000 ) ) ;
#196 = ORIENTED_EDGE ( 'NONE', *, *, #112, .F. ) ;
#197 = DIRECTION ( 'NONE',  ( 1.000000000000000000, 0.0000000000000000000, 0.0000000000000000000 ) ) ;
#198 = DIRECTION ( 'NONE',  ( -1.000000000000000000, 0.0000000000000000000, 0.0000000000000000000 ) ) ;
#199 = ADVANCED_FACE ( 'NONE', ( #272 ), #141, .T. ) ;
#200 = LINE ( 'NONE', #83, #117 ) ;
#201 = CARTESIAN_POINT ( 'NONE',  ( 0.0000000000000000000, 0.0000000000000000000, 1.707404996040164512E-17 ) ) ;
#202 = DIRECTION ( 'NONE',  ( -0.0000000000000000000, -0.0000000000000000000, -1.000000000000000000 ) ) ;
#203 = LENGTH_MEASURE_WITH_UNIT ( LENGTH_MEASURE( 0.02539999999999999897 ), #85 );
#204 = ORIENTED_EDGE ( 'NONE', *, *, #306, .F. ) ;
#205 = CARTESIAN_POINT ( 'NONE',  ( 0.0000000000000000000, 0.0000000000000000000, 0.2121473564137267009 ) ) ;
#206 = DIRECTION ( 'NONE',  ( -1.000000000000000000, 0.0000000000000000000, 0.0000000000000000000 ) ) ;
#207 = DIRECTION ( 'NONE',  ( -1.000000000000000000, 0.0000000000000000000, 0.0000000000000000000 ) ) ;
#208 =( GEOMETRIC_REPRESENTATION_CONTEXT ( 3 ) GLOBAL_UNCERTAINTY_ASSIGNED_CONTEXT ( ( #8 ) ) GLOBAL_UNIT_ASSIGNED_CONTEXT ( ( #67, #13, #62 ) ) REPRESENTATION_CONTEXT ( 'NONE', 'WORKASPACE' ) );
#209 = VERTEX_POINT ( 'NONE', #240 ) ;
#210 =( LENGTH_UNIT ( ) NAMED_UNIT ( * ) SI_UNIT ( $, .METRE. ) );
#211 = ORIENTED_EDGE ( 'NONE', *, *, #46, .T. ) ;
#212 = ADVANCED_FACE ( 'NONE', ( #19 ), #242, .T. ) ;
#213 = VERTEX_POINT ( 'NONE', #33 ) ;
#214 = AXIS2_PLACEMENT_3D ( 'NONE', #149, #222, #223 ) ;
#215 = EDGE_CURVE ( 'NONE', #305, #89, #236, .T. ) ;
#216 = AXIS2_PLACEMENT_3D ( 'NONE', #201, #125, #314 ) ;
#217 = EDGE_CURVE ( 'NONE', #293, #187, #166, .T. ) ;
#218 = MECHANICAL_DESIGN_GEOMETRIC_PRESENTATION_REPRESENTATION (  '', ( #145 ), #52 ) ;
#219 = DIRECTION ( 'NONE',  ( -1.000000000000000000, 0.0000000000000000000, 0.0000000000000000000 ) ) ;
#220 = ADVANCED_FACE ( 'NONE', ( #155, #1 ), #311, .T. ) ;
#221 = DIRECTION ( 'NONE',  ( -0.0000000000000000000, -0.0000000000000000000, -1.000000000000000000 ) ) ;
#222 = DIRECTION ( 'NONE',  ( 0.0000000000000000000, 0.0000000000000000000, -1.000000000000000000 ) ) ;
#223 = DIRECTION ( 'NONE',  ( 1.000000000000000000, 0.0000000000000000000, 0.0000000000000000000 ) ) ;
#224 = CARTESIAN_POINT ( 'NONE',  ( 0.3749500000000001720, 0.0000000000000000000, 1.500000000000000222 ) ) ;
#225 = EDGE_CURVE ( 'NONE', #265, #59, #325, .T. ) ;
#226 = ORIENTED_EDGE ( 'NONE', *, *, #215, .T. ) ;
#227 = DIRECTION ( 'NONE',  ( -0.0000000000000000000, -0.0000000000000000000, -1.000000000000000000 ) ) ;
#228 = ORIENTED_EDGE ( 'NONE', *, *, #215, .F. ) ;
#229 = PRESENTATION_STYLE_ASSIGNMENT (( #268 ) ) ;
#230 = CONICAL_SURFACE ( 'NONE', #107, 0.3599999999999994316, 0.7853981633974415066 ) ;
#231 = CONICAL_SURFACE ( 'NONE', #216, 0.007499999999999999722, 1.047197551196600518 ) ;
#232 = ORIENTED_EDGE ( 'NONE', *, *, #123, .T. ) ;
#233 = ADVANCED_FACE ( 'NONE', ( #90 ), #168, .T. ) ;
#234 = ORIENTED_EDGE ( 'NONE', *, *, #143, .F. ) ;
#235 = CARTESIAN_POINT ( 'NONE',  ( 0.0000000000000000000, 0.0000000000000000000, 0.2121473564137267009 ) ) ;
#236 = CIRCLE ( 'NONE', #26, 0.3750000000000000555 ) ;
#237 = ADVANCED_FACE ( 'NONE', ( #53 ), #128, .T. ) ;
#238 = CARTESIAN_POINT ( 'NONE',  ( 0.0000000000000000000, 0.0000000000000000000, 0.0000000000000000000 ) ) ;
#239 = DIRECTION ( 'NONE',  ( 0.0000000000000000000, 0.0000000000000000000, 1.000000000000000000 ) ) ;
#240 = CARTESIAN_POINT ( 'NONE',  ( -0.3599999999999994316, 0.0000000000000000000, 4.000000000000000000 ) ) ;
#241 = AXIS2_PLACEMENT_3D ( 'NONE', #326, #100, #47 ) ;
#242 = CONICAL_SURFACE ( 'NONE', #180, 0.007499999999999999722, 1.047197551196600518 ) ;
#243 = DIRECTION ( 'NONE',  ( 1.000000000000000000, 0.0000000000000000000, 0.0000000000000000000 ) ) ;
#244 = DIRECTION ( 'NONE',  ( -0.0000000000000000000, -0.0000000000000000000, -1.000000000000000000 ) ) ;
#245 = DIRECTION ( 'NONE',  ( -0.7071067811865426878, 0.0000000000000000000, -0.7071067811865523467 ) ) ;
#246 = AXIS2_PLACEMENT_3D ( 'NONE', #224, #105, #29 ) ;
#247 = CARTESIAN_POINT ( 'NONE',  ( 0.3749500000000001165, 0.0000000000000000000, 0.2121473564137267009 ) ) ;
#248 = CARTESIAN_POINT ( 'NONE',  ( 0.0000000000000000000, 0.0000000000000000000, 0.0000000000000000000 ) ) ;
#249 = UNCERTAINTY_MEASURE_WITH_UNIT (LENGTH_MEASURE( 1.000000000000000082E-05 ), #329, 'distance_accuracy_value', 'NONE');
#250 = DIRECTION ( 'NONE',  ( 0.0000000000000000000, 0.0000000000000000000, 1.000000000000000000 ) ) ;
#251 = CARTESIAN_POINT ( 'NONE',  ( 0.0000000000000000000, 0.0000000000000000000, 1.500000000000000222 ) ) ;
#252 = AXIS2_PLACEMENT_3D ( 'NONE', #308, #172, #283 ) ;
#253 = AXIS2_PLACEMENT_3D ( 'NONE', #235, #263, #43 ) ;
#254 = DIRECTION ( 'NONE',  ( -0.0000000000000000000, -0.0000000000000000000, -1.000000000000000000 ) ) ;
#255 = EDGE_CURVE ( 'NONE', #89, #305, #48, .T. ) ;
#256 = DIRECTION ( 'NONE',  ( 0.8660254037844400399, 0.0000000000000000000, 0.4999999999999976685 ) ) ;
#257 = DIRECTION ( 'NONE',  ( -0.0000000000000000000, -0.0000000000000000000, -1.000000000000000000 ) ) ;
#258 = CARTESIAN_POINT ( 'NONE',  ( 0.0000000000000000000, 0.0000000000000000000, 4.000000000000000000 ) ) ;
#259 = VERTEX_POINT ( 'NONE', #247 ) ;
#260 = ADVANCED_FACE ( 'NONE', ( #27 ), #231, .T. ) ;
#261 = ORIENTED_EDGE ( 'NONE', *, *, #173, .F. ) ;
#262 = ADVANCED_FACE ( 'NONE', ( #36 ), #124, .T. ) ;
#263 = DIRECTION ( 'NONE',  ( -0.0000000000000000000, -0.0000000000000000000, -1.000000000000000000 ) ) ;
#264 = AXIS2_PLACEMENT_3D ( 'NONE', #248, #254, #281 ) ;
#265 = VERTEX_POINT ( 'NONE', #109 ) ;
#266 = LINE ( 'NONE', #190, #286 ) ;
#267 = ORIENTED_EDGE ( 'NONE', *, *, #306, .T. ) ;
#268 = SURFACE_STYLE_USAGE ( .BOTH. , #133 ) ;
#269 = SURFACE_STYLE_FILL_AREA ( #130 ) ;
#270 = AXIS2_PLACEMENT_3D ( 'NONE', #238, #195, #299 ) ;
#271 = CARTESIAN_POINT ( 'NONE',  ( 0.0000000000000000000, 0.0000000000000000000, 1.500000000000000222 ) ) ;
#272 = FACE_OUTER_BOUND ( 'NONE', #288, .T. ) ;
#273 =( GEOMETRIC_REPRESENTATION_CONTEXT ( 3 ) GLOBAL_UNCERTAINTY_ASSIGNED_CONTEXT ( ( #2 ) ) GLOBAL_UNIT_ASSIGNED_CONTEXT ( ( #160, #119, #184 ) ) REPRESENTATION_CONTEXT ( 'NONE', 'WORKASPACE' ) );
#274 = EDGE_CURVE ( 'NONE', #259, #213, #304, .T. ) ;
#275 = EDGE_LOOP ( 'NONE', ( #196, #108, #313, #185 ) ) ;
#276 = CARTESIAN_POINT ( 'NONE',  ( 0.0000000000000000000, 0.0000000000000000000, 4.000000000000000000 ) ) ;
#277 = PLANE ( 'NONE',  #270 ) ;
#278 = AXIS2_PLACEMENT_3D ( 'NONE', #205, #3, #198 ) ;
#279 = SURFACE_SIDE_STYLE ('',( #81 ) ) ;
#280 = DIRECTION ( 'NONE',  ( 0.7071067811865426878, 8.659560562354873694E-17, -0.7071067811865523467 ) ) ;
#281 = DIRECTION ( 'NONE',  ( -1.000000000000000000, 0.0000000000000000000, 0.0000000000000000000 ) ) ;
#282 = DIRECTION ( 'NONE',  ( -0.0000000000000000000, -0.0000000000000000000, -1.000000000000000000 ) ) ;
#283 = DIRECTION ( 'NONE',  ( 1.000000000000000000, 0.0000000000000000000, 0.0000000000000000000 ) ) ;
#284 = ORIENTED_EDGE ( 'NONE', *, *, #225, .F. ) ;
#285 = VECTOR ( 'NONE', #227, 39.37007874015748143 ) ;
#286 = VECTOR ( 'NONE', #11, 39.37007874015748143 ) ;
#287 = CARTESIAN_POINT ( 'NONE',  ( 0.0000000000000000000, 0.0000000000000000000, 3.984999999999998987 ) ) ;
#288 = EDGE_LOOP ( 'NONE', ( #328, #64, #204, #261 ) ) ;
#289 = MANIFOLD_SOLID_BREP ( 'Cut-Revolve4', #69 ) ;
#290 = ADVANCED_FACE ( 'NONE', ( #138 ), #150, .T. ) ;
#291 = VERTEX_POINT ( 'NONE', #66 ) ;
#292 = CIRCLE ( 'NONE', #253, 0.3749500000000000610 ) ;
#293 = VERTEX_POINT ( 'NONE', #158 ) ;
#294 = LENGTH_MEASURE_WITH_UNIT ( LENGTH_MEASURE( 0.02539999999999999897 ), #210 );
#295 = EDGE_CURVE ( 'NONE', #293, #213, #266, .T. ) ;
#296 = APPLICATION_PROTOCOL_DEFINITION ( 'draft international standard', 'automotive_design', 1998, #101 ) ;
#297 = CIRCLE ( 'NONE', #252, 0.3599999999999994316 ) ;
#298 = PRODUCT_DEFINITION_SHAPE ( 'NONE', 'NONE',  #120 ) ;
#299 = DIRECTION ( 'NONE',  ( 1.000000000000000000, 0.0000000000000000000, -0.0000000000000000000 ) ) ;
#300 = DIMENSIONAL_EXPONENTS ( 1.000000000000000000, 0.0000000000000000000, 0.0000000000000000000, 0.0000000000000000000, 0.0000000000000000000, 0.0000000000000000000, 0.0000000000000000000 ) ;
#301 = EDGE_CURVE ( 'NONE', #44, #259, #111, .T. ) ;
#302 = CARTESIAN_POINT ( 'NONE',  ( 0.0000000000000000000, 0.0000000000000000000, 1.499999999999999778 ) ) ;
#303 = CARTESIAN_POINT ( 'NONE',  ( 0.3750000000000000555, 4.592425496802575451E-17, 3.984999999999998987 ) ) ;
#304 = CIRCLE ( 'NONE', #278, 0.3749500000000000610 ) ;
#305 = VERTEX_POINT ( 'NONE', #116 ) ;
#306 = EDGE_CURVE ( 'NONE', #213, #259, #292, .T. ) ;
#307 = LINE ( 'NONE', #79, #317 ) ;
#308 = CARTESIAN_POINT ( 'NONE',  ( 0.0000000000000000000, 0.0000000000000000000, 4.000000000000000000 ) ) ;
#309 = FILL_AREA_STYLE ('',( #171 ) ) ;
#310 = CIRCLE ( 'NONE', #95, 0.3750000000000000555 ) ;
#311 = PLANE ( 'NONE',  #246 ) ;
#312 = CARTESIAN_POINT ( 'NONE',  ( 0.3599999999999994316, 4.408728476930464865E-17, 4.000000000000000000 ) ) ;
#313 = ORIENTED_EDGE ( 'NONE', *, *, #178, .T. ) ;
#314 = DIRECTION ( 'NONE',  ( 1.000000000000000000, 0.0000000000000000000, 0.0000000000000000000 ) ) ;
#315 = DIRECTION ( 'NONE',  ( 0.0000000000000000000, 0.0000000000000000000, -1.000000000000000000 ) ) ;
#316 = ORIENTED_EDGE ( 'NONE', *, *, #295, .F. ) ;
#317 = VECTOR ( 'NONE', #245, 39.37007874015748143 ) ;
#318 = ORIENTED_EDGE ( 'NONE', *, *, #46, .F. ) ;
#319 = VERTEX_POINT ( 'NONE', #188 ) ;
#320 =( LENGTH_UNIT ( ) NAMED_UNIT ( * ) SI_UNIT ( $, .METRE. ) );
#321 = PRESENTATION_LAYER_ASSIGNMENT (  '', '', ( #84 ) ) ;
#322 = DIRECTION ( 'NONE',  ( -1.000000000000000000, 0.0000000000000000000, 0.0000000000000000000 ) ) ;
#323 = DIMENSIONAL_EXPONENTS ( 1.000000000000000000, 0.0000000000000000000, 0.0000000000000000000, 0.0000000000000000000, 0.0000000000000000000, 0.0000000000000000000, 0.0000000000000000000 ) ;
#324 = CIRCLE ( 'NONE', #241, 0.007499999999999999722 ) ;
#325 = CIRCLE ( 'NONE', #104, 0.3750000000000000555 ) ;
#326 = CARTESIAN_POINT ( 'NONE',  ( 0.0000000000000000000, 0.0000000000000000000, 1.707404996040164512E-17 ) ) ;
#327 = CARTESIAN_POINT ( 'NONE',  ( 0.3750000000000000555, 4.592425496802575451E-17, 1.499999999999999778 ) ) ;
#328 = ORIENTED_EDGE ( 'NONE', *, *, #103, .T. ) ;
#329 =( CONVERSION_BASED_UNIT ( 'INCH', #121 ) LENGTH_UNIT ( ) NAMED_UNIT ( #122 ) );
ENDSEC;
END-ISO-10303-21;
