ISO-10303-21;
HEADER;
FILE_DESCRIPTION (( 'STEP AP214' ),
    '1' );
FILE_NAME ('Micro_RMEM-010-2.STEP',
    '2021-09-01T23:51:04',
    ( '' ),
    ( '' ),
    'SwSTEP 2.0',
    'SolidWorks 2020',
    '' );
FILE_SCHEMA (( 'AUTOMOTIVE_DESIGN' ));
ENDSEC;

DATA;
#1 = PRESENTATION_STYLE_ASSIGNMENT (( #206 ) ) ;
#2 = AXIS2_PLACEMENT_3D ( 'NONE', #41, #221, #18 ) ;
#3 =( NAMED_UNIT ( * ) PLANE_ANGLE_UNIT ( ) SI_UNIT ( $, .RADIAN. ) );
#4 = DIRECTION ( 'NONE',  ( 0.0000000000000000000, 0.0000000000000000000, 1.000000000000000000 ) ) ;
#5 =( NAMED_UNIT ( * ) PLANE_ANGLE_UNIT ( ) SI_UNIT ( $, .RADIAN. ) );
#6 = CARTESIAN_POINT ( 'NONE',  ( 0.01966531500000000959, 0.0000000000000000000, 0.1181100000000000066 ) ) ;
#7 = AXIS2_PLACEMENT_3D ( 'NONE', #256, #175, #249 ) ;
#8 = ORIENTED_EDGE ( 'NONE', *, *, #235, .F. ) ;
#9 = EDGE_CURVE ( 'NONE', #192, #245, #233, .T. ) ;
#10 = CARTESIAN_POINT ( 'NONE',  ( -0.05905499999999996169, 0.0000000000000000000, 0.3415000044209672847 ) ) ;
#11 = EDGE_LOOP ( 'NONE', ( #166, #190, #99, #227 ) ) ;
#12 = ORIENTED_EDGE ( 'NONE', *, *, #78, .T. ) ;
#13 = ADVANCED_FACE ( 'NONE', ( #42 ), #135, .T. ) ;
#14 = VERTEX_POINT ( 'NONE', #219 ) ;
#15 = ORIENTED_EDGE ( 'NONE', *, *, #207, .T. ) ;
#16 = APPLICATION_CONTEXT ( 'automotive_design' ) ;
#17 = VERTEX_POINT ( 'NONE', #77 ) ;
#18 = DIRECTION ( 'NONE',  ( -1.000000000000000000, 0.0000000000000000000, 0.0000000000000000000 ) ) ;
#19 = LINE ( 'NONE', #44, #86 ) ;
#20 = CIRCLE ( 'NONE', #2, 0.01966531499999999918 ) ;
#21 = DIRECTION ( 'NONE',  ( 0.0000000000000000000, 0.0000000000000000000, 1.000000000000000000 ) ) ;
#22 = LINE ( 'NONE', #295, #202 ) ;
#23 = UNCERTAINTY_MEASURE_WITH_UNIT (LENGTH_MEASURE( 1.000000000000000082E-05 ), #119, 'distance_accuracy_value', 'NONE');
#24 = CARTESIAN_POINT ( 'NONE',  ( 0.0000000000000000000, 0.0000000000000000000, 1.496062999999999921 ) ) ;
#25 = VECTOR ( 'NONE', #49, 39.37007874015748143 ) ;
#26 = DIMENSIONAL_EXPONENTS ( 1.000000000000000000, 0.0000000000000000000, 0.0000000000000000000, 0.0000000000000000000, 0.0000000000000000000, 0.0000000000000000000, 0.0000000000000000000 ) ;
#27 = APPLICATION_PROTOCOL_DEFINITION ( 'draft international standard', 'automotive_design', 1998, #200 ) ;
#28 = PRODUCT_DEFINITION ( 'UNKNOWN', '', #93, #271 ) ;
#29 = SURFACE_SIDE_STYLE ('',( #181 ) ) ;
#30 = LINE ( 'NONE', #297, #224 ) ;
#31 = DIRECTION ( 'NONE',  ( -0.1736481776669311639, 2.126576849575783008E-17, 0.9848077530122080203 ) ) ;
#32 = ADVANCED_FACE ( 'NONE', ( #290 ), #50, .T. ) ;
#33 = PRESENTATION_STYLE_ASSIGNMENT (( #70 ) ) ;
#34 = AXIS2_PLACEMENT_3D ( 'NONE', #203, #236, #228 ) ;
#35 = AXIS2_PLACEMENT_3D ( 'NONE', #191, #169, #269 ) ;
#36 = EDGE_CURVE ( 'NONE', #267, #245, #19, .T. ) ;
#37 = AXIS2_PLACEMENT_3D ( 'NONE', #67, #298, #261 ) ;
#38 = AXIS2_PLACEMENT_3D ( 'NONE', #254, #59, #293 ) ;
#39 = DIRECTION ( 'NONE',  ( -0.0000000000000000000, -0.0000000000000000000, -1.000000000000000000 ) ) ;
#40 = DIRECTION ( 'NONE',  ( 1.000000000000000000, 0.0000000000000000000, 0.0000000000000000000 ) ) ;
#41 = CARTESIAN_POINT ( 'NONE',  ( 1.446430334472939084E-17, 0.0000000000000000000, 0.1181100000000000066 ) ) ;
#42 = FACE_OUTER_BOUND ( 'NONE', #218, .T. ) ;
#43 = CONICAL_SURFACE ( 'NONE', #124, 0.04405499999999973326, 0.7853981633974491672 ) ;
#44 = CARTESIAN_POINT ( 'NONE',  ( -0.05905500000000000332, 0.0000000000000000000, 1.496062999999999921 ) ) ;
#45 = CIRCLE ( 'NONE', #34, 0.05905500000000000332 ) ;
#46 = DIRECTION ( 'NONE',  ( 1.000000000000000000, 0.0000000000000000000, 0.0000000000000000000 ) ) ;
#47 = PRODUCT ( 'Micro_RMEM-010-2', 'Micro_RMEM-010-2', '', ( #51 ) ) ;
#48 =( GEOMETRIC_REPRESENTATION_CONTEXT ( 3 ) GLOBAL_UNCERTAINTY_ASSIGNED_CONTEXT ( ( #157 ) ) GLOBAL_UNIT_ASSIGNED_CONTEXT ( ( #89, #258, #299 ) ) REPRESENTATION_CONTEXT ( 'NONE', 'WORKASPACE' ) );
#49 = DIRECTION ( 'NONE',  ( 0.7071067811865482389, 8.659560562354941486E-17, -0.7071067811865469066 ) ) ;
#50 = CONICAL_SURFACE ( 'NONE', #35, 0.01966531499999999918, 0.1745329251994338637 ) ;
#51 = PRODUCT_CONTEXT ( 'NONE', #200, 'mechanical' ) ;
#52 = CARTESIAN_POINT ( 'NONE',  ( 0.05905500000000004496, 7.232151672364700045E-18, 0.3415000044209672847 ) ) ;
#53 = FACE_OUTER_BOUND ( 'NONE', #215, .T. ) ;
#54 = CIRCLE ( 'NONE', #265, 0.05905500000000000332 ) ;
#55 = ORIENTED_EDGE ( 'NONE', *, *, #107, .F. ) ;
#56 = PRODUCT_RELATED_PRODUCT_CATEGORY ( 'part', '', ( #47 ) ) ;
#57 = LINE ( 'NONE', #272, #125 ) ;
#58 = EDGE_CURVE ( 'NONE', #14, #161, #132, .T. ) ;
#59 = DIRECTION ( 'NONE',  ( -1.224646799147353207E-16, -0.0000000000000000000, -1.000000000000000000 ) ) ;
#60 = CYLINDRICAL_SURFACE ( 'NONE', #38, 0.01966531499999999225 ) ;
#61 = DIRECTION ( 'NONE',  ( 1.000000000000000000, 0.0000000000000000000, 0.0000000000000000000 ) ) ;
#62 = CLOSED_SHELL ( 'NONE', ( #268, #32, #294, #244, #111, #289, #178, #13, #83, #121 ) ) ;
#63 = ORIENTED_EDGE ( 'NONE', *, *, #207, .F. ) ;
#64 = SURFACE_STYLE_FILL_AREA ( #69 ) ;
#65 = DIRECTION ( 'NONE',  ( 1.000000000000000000, 0.0000000000000000000, 0.0000000000000000000 ) ) ;
#66 = AXIS2_PLACEMENT_3D ( 'NONE', #220, #21, #102 ) ;
#67 = CARTESIAN_POINT ( 'NONE',  ( 1.446430334472939084E-17, 0.0000000000000000000, 0.1181100000000000066 ) ) ;
#68 = VECTOR ( 'NONE', #255, 39.37007874015748143 ) ;
#69 = FILL_AREA_STYLE ('',( #186 ) ) ;
#70 = SURFACE_STYLE_USAGE ( .BOTH. , #281 ) ;
#71 = ORIENTED_EDGE ( 'NONE', *, *, #184, .F. ) ;
#72 = FACE_OUTER_BOUND ( 'NONE', #120, .T. ) ;
#73 = PRESENTATION_LAYER_ASSIGNMENT (  '', '', ( #229 ) ) ;
#74 = AXIS2_PLACEMENT_3D ( 'NONE', #152, #174, #126 ) ;
#75 = ORIENTED_EDGE ( 'NONE', *, *, #226, .T. ) ;
#76 = VERTEX_POINT ( 'NONE', #296 ) ;
#77 = CARTESIAN_POINT ( 'NONE',  ( -0.01966531499999998531, 4.820229089631068299E-18, 0.1181100000000000066 ) ) ;
#78 = EDGE_CURVE ( 'NONE', #266, #192, #57, .T. ) ;
#79 = VECTOR ( 'NONE', #182, 39.37007874015748143 ) ;
#80 = ORIENTED_EDGE ( 'NONE', *, *, #184, .T. ) ;
#81 = FACE_OUTER_BOUND ( 'NONE', #217, .T. ) ;
#82 = UNCERTAINTY_MEASURE_WITH_UNIT (LENGTH_MEASURE( 1.000000000000000082E-05 ), #108, 'distance_accuracy_value', 'NONE');
#83 = ADVANCED_FACE ( 'NONE', ( #101 ), #60, .T. ) ;
#84 = ORIENTED_EDGE ( 'NONE', *, *, #36, .F. ) ;
#85 = CARTESIAN_POINT ( 'NONE',  ( 0.0000000000000000000, 0.0000000000000000000, 1.496062999999999921 ) ) ;
#86 = VECTOR ( 'NONE', #199, 39.37007874015748143 ) ;
#87 = PRODUCT_DEFINITION_SHAPE ( 'NONE', 'NONE',  #28 ) ;
#88 = AXIS2_PLACEMENT_3D ( 'NONE', #142, #238, #104 ) ;
#89 =( CONVERSION_BASED_UNIT ( 'INCH', #92 ) LENGTH_UNIT ( ) NAMED_UNIT ( #26 ) );
#90 = DIRECTION ( 'NONE',  ( 0.0000000000000000000, 0.0000000000000000000, -1.000000000000000000 ) ) ;
#91 = LINE ( 'NONE', #6, #79 ) ;
#92 = LENGTH_MEASURE_WITH_UNIT ( LENGTH_MEASURE( 0.02539999999999999897 ), #212 );
#93 = PRODUCT_DEFINITION_FORMATION_WITH_SPECIFIED_SOURCE ( 'ANY', '', #47, .NOT_KNOWN. ) ;
#94 = ORIENTED_EDGE ( 'NONE', *, *, #226, .F. ) ;
#95 = CARTESIAN_POINT ( 'NONE',  ( 2.949324855037695588E-34, 0.0000000000000000000, 2.408306506897442331E-18 ) ) ;
#96 = ORIENTED_EDGE ( 'NONE', *, *, #167, .T. ) ;
#97 = ORIENTED_EDGE ( 'NONE', *, *, #211, .T. ) ;
#98 = EDGE_LOOP ( 'NONE', ( #96, #189, #103, #8 ) ) ;
#99 = ORIENTED_EDGE ( 'NONE', *, *, #235, .T. ) ;
#100 = MECHANICAL_DESIGN_GEOMETRIC_PRESENTATION_REPRESENTATION (  '', ( #134 ), #201 ) ;
#101 = FACE_OUTER_BOUND ( 'NONE', #11, .T. ) ;
#102 = DIRECTION ( 'NONE',  ( 1.000000000000000000, 0.0000000000000000000, -0.0000000000000000000 ) ) ;
#103 = ORIENTED_EDGE ( 'NONE', *, *, #197, .F. ) ;
#104 = DIRECTION ( 'NONE',  ( -1.000000000000000000, 0.0000000000000000000, 1.224646799147353207E-16 ) ) ;
#105 = CYLINDRICAL_SURFACE ( 'NONE', #7, 0.01966531499999999225 ) ;
#106 = DIRECTION ( 'NONE',  ( -1.000000000000000000, 0.0000000000000000000, 1.224646799147353207E-16 ) ) ;
#107 = EDGE_CURVE ( 'NONE', #173, #267, #22, .T. ) ;
#108 =( CONVERSION_BASED_UNIT ( 'INCH', #257 ) LENGTH_UNIT ( ) NAMED_UNIT ( #140 ) );
#109 = FILL_AREA_STYLE_COLOUR ( '', #208 ) ;
#110 = AXIS2_PLACEMENT_3D ( 'NONE', #176, #195, #65 ) ;
#111 = ADVANCED_FACE ( 'NONE', ( #81 ), #172, .T. ) ;
#112 =( NAMED_UNIT ( * ) SI_UNIT ( $, .STERADIAN. ) SOLID_ANGLE_UNIT ( ) );
#113 =( NAMED_UNIT ( * ) SI_UNIT ( $, .STERADIAN. ) SOLID_ANGLE_UNIT ( ) );
#114 = DIMENSIONAL_EXPONENTS ( 1.000000000000000000, 0.0000000000000000000, 0.0000000000000000000, 0.0000000000000000000, 0.0000000000000000000, 0.0000000000000000000, 0.0000000000000000000 ) ;
#115 = FACE_OUTER_BOUND ( 'NONE', #187, .T. ) ;
#116 = DIRECTION ( 'NONE',  ( -1.224646799147353207E-16, -0.0000000000000000000, -1.000000000000000000 ) ) ;
#117 = ORIENTED_EDGE ( 'NONE', *, *, #107, .T. ) ;
#118 = CIRCLE ( 'NONE', #241, 0.05905500000000000332 ) ;
#119 =( CONVERSION_BASED_UNIT ( 'INCH', #180 ) LENGTH_UNIT ( ) NAMED_UNIT ( #114 ) );
#120 = EDGE_LOOP ( 'NONE', ( #94, #148, #117, #164 ) ) ;
#121 = ADVANCED_FACE ( 'NONE', ( #127 ), #131, .F. ) ;
#122 = CARTESIAN_POINT ( 'NONE',  ( 0.05905500000000000332, 7.232151672364695422E-18, 1.481062999999999574 ) ) ;
#123 = ORIENTED_EDGE ( 'NONE', *, *, #197, .T. ) ;
#124 = AXIS2_PLACEMENT_3D ( 'NONE', #209, #279, #232 ) ;
#125 = VECTOR ( 'NONE', #222, 39.37007874015748143 ) ;
#126 = DIRECTION ( 'NONE',  ( 1.000000000000000000, 0.0000000000000000000, 0.0000000000000000000 ) ) ;
#127 = FACE_OUTER_BOUND ( 'NONE', #287, .T. ) ;
#128 = ORIENTED_EDGE ( 'NONE', *, *, #78, .F. ) ;
#129 = FACE_OUTER_BOUND ( 'NONE', #151, .T. ) ;
#130 = CIRCLE ( 'NONE', #88, 0.01966531499999999225 ) ;
#131 = PLANE ( 'NONE',  #66 ) ;
#132 = LINE ( 'NONE', #170, #260 ) ;
#133 = CYLINDRICAL_SURFACE ( 'NONE', #136, 0.05905500000000000332 ) ;
#134 = STYLED_ITEM ( 'NONE', ( #33 ), #198 ) ;
#135 = CONICAL_SURFACE ( 'NONE', #158, 0.01966531499999999918, 0.1745329251994338637 ) ;
#136 = AXIS2_PLACEMENT_3D ( 'NONE', #282, #139, #143 ) ;
#137 = APPLICATION_PROTOCOL_DEFINITION ( 'draft international standard', 'automotive_design', 1998, #16 ) ;
#138 = EDGE_CURVE ( 'NONE', #267, #266, #54, .T. ) ;
#139 = DIRECTION ( 'NONE',  ( -0.0000000000000000000, -0.0000000000000000000, -1.000000000000000000 ) ) ;
#140 = DIMENSIONAL_EXPONENTS ( 1.000000000000000000, 0.0000000000000000000, 0.0000000000000000000, 0.0000000000000000000, 0.0000000000000000000, 0.0000000000000000000, 0.0000000000000000000 ) ;
#141 = CARTESIAN_POINT ( 'NONE',  ( 0.0000000000000000000, 0.0000000000000000000, 1.496062999999999921 ) ) ;
#142 = CARTESIAN_POINT ( 'NONE',  ( 2.949324855037695588E-34, 0.0000000000000000000, 2.408306506897442331E-18 ) ) ;
#143 = DIRECTION ( 'NONE',  ( -1.000000000000000000, 0.0000000000000000000, 0.0000000000000000000 ) ) ;
#144 = ORIENTED_EDGE ( 'NONE', *, *, #138, .T. ) ;
#145 = CIRCLE ( 'NONE', #110, 0.04405499999999973326 ) ;
#146 = AXIS2_PLACEMENT_3D ( 'NONE', #85, #39, #250 ) ;
#147 = ORIENTED_EDGE ( 'NONE', *, *, #138, .F. ) ;
#148 = ORIENTED_EDGE ( 'NONE', *, *, #275, .F. ) ;
#149 =( GEOMETRIC_REPRESENTATION_CONTEXT ( 3 ) GLOBAL_UNCERTAINTY_ASSIGNED_CONTEXT ( ( #82 ) ) GLOBAL_UNIT_ASSIGNED_CONTEXT ( ( #108, #3, #112 ) ) REPRESENTATION_CONTEXT ( 'NONE', 'WORKASPACE' ) );
#150 = DIRECTION ( 'NONE',  ( -1.224646799147353207E-16, -0.0000000000000000000, -1.000000000000000000 ) ) ;
#151 = EDGE_LOOP ( 'NONE', ( #247, #239 ) ) ;
#152 = CARTESIAN_POINT ( 'NONE',  ( 4.182168873229444721E-17, 0.0000000000000000000, 0.3415000044209672847 ) ) ;
#153 = CARTESIAN_POINT ( 'NONE',  ( 0.01966531499999999225, 2.408306506897442331E-18, 0.0000000000000000000 ) ) ;
#154 = CARTESIAN_POINT ( 'NONE',  ( 1.446430334472939084E-17, 0.0000000000000000000, 0.1181100000000000066 ) ) ;
#155 = DIRECTION ( 'NONE',  ( 0.0000000000000000000, 0.0000000000000000000, 1.000000000000000000 ) ) ;
#156 = AXIS2_PLACEMENT_3D ( 'NONE', #188, #155, #160 ) ;
#157 = UNCERTAINTY_MEASURE_WITH_UNIT (LENGTH_MEASURE( 1.000000000000000082E-05 ), #89, 'distance_accuracy_value', 'NONE');
#158 = AXIS2_PLACEMENT_3D ( 'NONE', #154, #273, #40 ) ;
#159 = CARTESIAN_POINT ( 'NONE',  ( 0.04405499999999973326, 5.395181473643630390E-18, 1.496062999999999921 ) ) ;
#160 = DIRECTION ( 'NONE',  ( 1.000000000000000000, 0.0000000000000000000, 0.0000000000000000000 ) ) ;
#161 = VERTEX_POINT ( 'NONE', #153 ) ;
#162 = EDGE_CURVE ( 'NONE', #263, #173, #193, .T. ) ;
#163 = LINE ( 'NONE', #159, #25 ) ;
#164 = ORIENTED_EDGE ( 'NONE', *, *, #171, .F. ) ;
#165 =( LENGTH_UNIT ( ) NAMED_UNIT ( * ) SI_UNIT ( $, .METRE. ) );
#166 = ORIENTED_EDGE ( 'NONE', *, *, #58, .F. ) ;
#167 = EDGE_CURVE ( 'NONE', #17, #14, #292, .T. ) ;
#168 = ORIENTED_EDGE ( 'NONE', *, *, #167, .F. ) ;
#169 = DIRECTION ( 'NONE',  ( 1.224646799147353207E-16, 0.0000000000000000000, 1.000000000000000000 ) ) ;
#170 = CARTESIAN_POINT ( 'NONE',  ( 0.01966531499999999225, 2.408306506897442331E-18, -2.408306506897442331E-18 ) ) ;
#171 = EDGE_CURVE ( 'NONE', #266, #267, #45, .T. ) ;
#172 = CYLINDRICAL_SURFACE ( 'NONE', #146, 0.05905500000000000332 ) ;
#173 = VERTEX_POINT ( 'NONE', #240 ) ;
#174 = DIRECTION ( 'NONE',  ( -1.224646799147353207E-16, -0.0000000000000000000, -1.000000000000000000 ) ) ;
#175 = DIRECTION ( 'NONE',  ( -1.224646799147353207E-16, -0.0000000000000000000, -1.000000000000000000 ) ) ;
#176 = CARTESIAN_POINT ( 'NONE',  ( 0.0000000000000000000, 0.0000000000000000000, 1.496062999999999921 ) ) ;
#177 = AXIS2_PLACEMENT_3D ( 'NONE', #141, #204, #278 ) ;
#178 = ADVANCED_FACE ( 'NONE', ( #72 ), #251, .T. ) ;
#179 = FILL_AREA_STYLE ('',( #109 ) ) ;
#180 = LENGTH_MEASURE_WITH_UNIT ( LENGTH_MEASURE( 0.02539999999999999897 ), #165 );
#181 = SURFACE_STYLE_FILL_AREA ( #179 ) ;
#182 = DIRECTION ( 'NONE',  ( 0.1736481776669313581, 0.0000000000000000000, 0.9848077530122077983 ) ) ;
#183 = AXIS2_PLACEMENT_3D ( 'NONE', #95, #230, #106 ) ;
#184 = EDGE_CURVE ( 'NONE', #17, #245, #30, .T. ) ;
#185 = PRESENTATION_LAYER_ASSIGNMENT (  '', '', ( #134 ) ) ;
#186 = FILL_AREA_STYLE_COLOUR ( '', #214 ) ;
#187 = EDGE_LOOP ( 'NONE', ( #243, #75, #147, #55 ) ) ;
#188 = CARTESIAN_POINT ( 'NONE',  ( 0.0000000000000000000, 0.0000000000000000000, 1.496062999999999921 ) ) ;
#189 = ORIENTED_EDGE ( 'NONE', *, *, #58, .T. ) ;
#190 = ORIENTED_EDGE ( 'NONE', *, *, #280, .T. ) ;
#191 = CARTESIAN_POINT ( 'NONE',  ( 1.446430334472939084E-17, 0.0000000000000000000, 0.1181100000000000066 ) ) ;
#192 = VERTEX_POINT ( 'NONE', #52 ) ;
#193 = CIRCLE ( 'NONE', #156, 0.04405499999999973326 ) ;
#194 = ORIENTED_EDGE ( 'NONE', *, *, #280, .F. ) ;
#195 = DIRECTION ( 'NONE',  ( 0.0000000000000000000, 0.0000000000000000000, 1.000000000000000000 ) ) ;
#196 = ORIENTED_EDGE ( 'NONE', *, *, #211, .F. ) ;
#197 = EDGE_CURVE ( 'NONE', #76, #161, #130, .T. ) ;
#198 = MANIFOLD_SOLID_BREP ( 'Cut-Revolve1', #62 ) ;
#199 = DIRECTION ( 'NONE',  ( -0.0000000000000000000, -0.0000000000000000000, -1.000000000000000000 ) ) ;
#200 = APPLICATION_CONTEXT ( 'automotive_design' ) ;
#201 =( GEOMETRIC_REPRESENTATION_CONTEXT ( 3 ) GLOBAL_UNCERTAINTY_ASSIGNED_CONTEXT ( ( #23 ) ) GLOBAL_UNIT_ASSIGNED_CONTEXT ( ( #119, #5, #113 ) ) REPRESENTATION_CONTEXT ( 'NONE', 'WORKASPACE' ) );
#202 = VECTOR ( 'NONE', #225, 39.37007874015748143 ) ;
#203 = CARTESIAN_POINT ( 'NONE',  ( 0.0000000000000000000, 0.0000000000000000000, 1.481062999999999574 ) ) ;
#204 = DIRECTION ( 'NONE',  ( 0.0000000000000000000, 0.0000000000000000000, 1.000000000000000000 ) ) ;
#205 = ADVANCED_BREP_SHAPE_REPRESENTATION ( 'Micro_RMEM-010-2', ( #198, #270 ), #48 ) ;
#206 = SURFACE_STYLE_USAGE ( .BOTH. , #29 ) ;
#207 = EDGE_CURVE ( 'NONE', #245, #192, #118, .T. ) ;
#208 = COLOUR_RGB ( '',0.7921568627450980005, 0.8196078431372548767, 0.9333333333333333481 ) ;
#209 = CARTESIAN_POINT ( 'NONE',  ( 0.0000000000000000000, 0.0000000000000000000, 1.496062999999999921 ) ) ;
#210 = CARTESIAN_POINT ( 'NONE',  ( 0.0000000000000000000, 0.0000000000000000000, 0.0000000000000000000 ) ) ;
#211 = EDGE_CURVE ( 'NONE', #14, #192, #91, .T. ) ;
#212 =( LENGTH_UNIT ( ) NAMED_UNIT ( * ) SI_UNIT ( $, .METRE. ) );
#213 = DIRECTION ( 'NONE',  ( 1.000000000000000000, 0.0000000000000000000, 0.0000000000000000000 ) ) ;
#214 = COLOUR_RGB ( '',0.7921568627450980005, 0.8196078431372548767, 0.9333333333333333481 ) ;
#215 = EDGE_LOOP ( 'NONE', ( #144, #12, #63, #84 ) ) ;
#216 = CARTESIAN_POINT ( 'NONE',  ( 4.182168873229444721E-17, 0.0000000000000000000, 0.3415000044209672847 ) ) ;
#217 = EDGE_LOOP ( 'NONE', ( #128, #291, #285, #252 ) ) ;
#218 = EDGE_LOOP ( 'NONE', ( #71, #194, #97, #288 ) ) ;
#219 = CARTESIAN_POINT ( 'NONE',  ( 0.01966531500000000959, 0.0000000000000000000, 0.1181100000000000066 ) ) ;
#220 = CARTESIAN_POINT ( 'NONE',  ( 0.0000000000000000000, 0.0000000000000000000, 0.0000000000000000000 ) ) ;
#221 = DIRECTION ( 'NONE',  ( -1.224646799147353207E-16, -0.0000000000000000000, -1.000000000000000000 ) ) ;
#222 = DIRECTION ( 'NONE',  ( -0.0000000000000000000, -0.0000000000000000000, -1.000000000000000000 ) ) ;
#223 = PLANE ( 'NONE',  #177 ) ;
#224 = VECTOR ( 'NONE', #31, 39.37007874015747433 ) ;
#225 = DIRECTION ( 'NONE',  ( -0.7071067811865482389, 0.0000000000000000000, -0.7071067811865469066 ) ) ;
#226 = EDGE_CURVE ( 'NONE', #263, #266, #163, .T. ) ;
#227 = ORIENTED_EDGE ( 'NONE', *, *, #259, .F. ) ;
#228 = DIRECTION ( 'NONE',  ( 1.000000000000000000, 0.0000000000000000000, 0.0000000000000000000 ) ) ;
#229 = STYLED_ITEM ( 'NONE', ( #1 ), #205 ) ;
#230 = DIRECTION ( 'NONE',  ( -1.224646799147353207E-16, -0.0000000000000000000, -1.000000000000000000 ) ) ;
#231 =( LENGTH_UNIT ( ) NAMED_UNIT ( * ) SI_UNIT ( $, .METRE. ) );
#232 = DIRECTION ( 'NONE',  ( -1.000000000000000000, 0.0000000000000000000, 0.0000000000000000000 ) ) ;
#233 = CIRCLE ( 'NONE', #74, 0.05905500000000000332 ) ;
#234 = CARTESIAN_POINT ( 'NONE',  ( -0.05905500000000000332, 0.0000000000000000000, 1.481062999999999574 ) ) ;
#235 = EDGE_CURVE ( 'NONE', #17, #76, #262, .T. ) ;
#236 = DIRECTION ( 'NONE',  ( 0.0000000000000000000, 0.0000000000000000000, -1.000000000000000000 ) ) ;
#237 = SHAPE_DEFINITION_REPRESENTATION ( #87, #205 ) ;
#238 = DIRECTION ( 'NONE',  ( -1.224646799147353207E-16, -0.0000000000000000000, -1.000000000000000000 ) ) ;
#239 = ORIENTED_EDGE ( 'NONE', *, *, #162, .T. ) ;
#240 = CARTESIAN_POINT ( 'NONE',  ( -0.04405499999999973326, 0.0000000000000000000, 1.496062999999999921 ) ) ;
#241 = AXIS2_PLACEMENT_3D ( 'NONE', #216, #116, #213 ) ;
#242 = ORIENTED_EDGE ( 'NONE', *, *, #259, .T. ) ;
#243 = ORIENTED_EDGE ( 'NONE', *, *, #162, .F. ) ;
#244 = ADVANCED_FACE ( 'NONE', ( #53 ), #133, .T. ) ;
#245 = VERTEX_POINT ( 'NONE', #10 ) ;
#246 = AXIS2_PLACEMENT_3D ( 'NONE', #24, #90, #284 ) ;
#247 = ORIENTED_EDGE ( 'NONE', *, *, #275, .T. ) ;
#248 = EDGE_LOOP ( 'NONE', ( #168, #80, #15, #196 ) ) ;
#249 = DIRECTION ( 'NONE',  ( -1.000000000000000000, 0.0000000000000000000, 1.224646799147353207E-16 ) ) ;
#250 = DIRECTION ( 'NONE',  ( -1.000000000000000000, 0.0000000000000000000, 0.0000000000000000000 ) ) ;
#251 = CONICAL_SURFACE ( 'NONE', #246, 0.04405499999999973326, 0.7853981633974491672 ) ;
#252 = ORIENTED_EDGE ( 'NONE', *, *, #9, .F. ) ;
#253 = FACE_OUTER_BOUND ( 'NONE', #98, .T. ) ;
#254 = CARTESIAN_POINT ( 'NONE',  ( 0.0000000000000000000, 0.0000000000000000000, 0.0000000000000000000 ) ) ;
#255 = DIRECTION ( 'NONE',  ( -1.224646799147353207E-16, -0.0000000000000000000, -1.000000000000000000 ) ) ;
#256 = CARTESIAN_POINT ( 'NONE',  ( 0.0000000000000000000, 0.0000000000000000000, 0.0000000000000000000 ) ) ;
#257 = LENGTH_MEASURE_WITH_UNIT ( LENGTH_MEASURE( 0.02539999999999999897 ), #231 );
#258 =( NAMED_UNIT ( * ) PLANE_ANGLE_UNIT ( ) SI_UNIT ( $, .RADIAN. ) );
#259 = EDGE_CURVE ( 'NONE', #161, #76, #283, .T. ) ;
#260 = VECTOR ( 'NONE', #150, 39.37007874015748143 ) ;
#261 = DIRECTION ( 'NONE',  ( -1.000000000000000000, 0.0000000000000000000, 0.0000000000000000000 ) ) ;
#262 = LINE ( 'NONE', #277, #68 ) ;
#263 = VERTEX_POINT ( 'NONE', #264 ) ;
#264 = CARTESIAN_POINT ( 'NONE',  ( 0.04405499999999973326, 6.313666573004162521E-18, 1.496062999999999921 ) ) ;
#265 = AXIS2_PLACEMENT_3D ( 'NONE', #274, #276, #61 ) ;
#266 = VERTEX_POINT ( 'NONE', #122 ) ;
#267 = VERTEX_POINT ( 'NONE', #234 ) ;
#268 = ADVANCED_FACE ( 'NONE', ( #253 ), #105, .T. ) ;
#269 = DIRECTION ( 'NONE',  ( 1.000000000000000000, 0.0000000000000000000, 0.0000000000000000000 ) ) ;
#270 = AXIS2_PLACEMENT_3D ( 'NONE', #210, #4, #46 ) ;
#271 = PRODUCT_DEFINITION_CONTEXT ( 'detailed design', #16, 'design' ) ;
#272 = CARTESIAN_POINT ( 'NONE',  ( 0.05905500000000000332, 7.232151672364695422E-18, 1.496062999999999921 ) ) ;
#273 = DIRECTION ( 'NONE',  ( 1.224646799147353207E-16, 0.0000000000000000000, 1.000000000000000000 ) ) ;
#274 = CARTESIAN_POINT ( 'NONE',  ( 0.0000000000000000000, 0.0000000000000000000, 1.481062999999999574 ) ) ;
#275 = EDGE_CURVE ( 'NONE', #173, #263, #145, .T. ) ;
#276 = DIRECTION ( 'NONE',  ( 0.0000000000000000000, 0.0000000000000000000, -1.000000000000000000 ) ) ;
#277 = CARTESIAN_POINT ( 'NONE',  ( -0.01966531499999999225, 0.0000000000000000000, 2.408306506897442331E-18 ) ) ;
#278 = DIRECTION ( 'NONE',  ( 1.000000000000000000, 0.0000000000000000000, -0.0000000000000000000 ) ) ;
#279 = DIRECTION ( 'NONE',  ( 0.0000000000000000000, 0.0000000000000000000, -1.000000000000000000 ) ) ;
#280 = EDGE_CURVE ( 'NONE', #14, #17, #20, .T. ) ;
#281 = SURFACE_SIDE_STYLE ('',( #64 ) ) ;
#282 = CARTESIAN_POINT ( 'NONE',  ( 0.0000000000000000000, 0.0000000000000000000, 1.496062999999999921 ) ) ;
#283 = CIRCLE ( 'NONE', #183, 0.01966531499999999225 ) ;
#284 = DIRECTION ( 'NONE',  ( -1.000000000000000000, 0.0000000000000000000, 0.0000000000000000000 ) ) ;
#285 = ORIENTED_EDGE ( 'NONE', *, *, #36, .T. ) ;
#286 = MECHANICAL_DESIGN_GEOMETRIC_PRESENTATION_REPRESENTATION (  '', ( #229 ), #149 ) ;
#287 = EDGE_LOOP ( 'NONE', ( #123, #242 ) ) ;
#288 = ORIENTED_EDGE ( 'NONE', *, *, #9, .T. ) ;
#289 = ADVANCED_FACE ( 'NONE', ( #129 ), #223, .T. ) ;
#290 = FACE_OUTER_BOUND ( 'NONE', #248, .T. ) ;
#291 = ORIENTED_EDGE ( 'NONE', *, *, #171, .T. ) ;
#292 = CIRCLE ( 'NONE', #37, 0.01966531499999999918 ) ;
#293 = DIRECTION ( 'NONE',  ( -1.000000000000000000, 0.0000000000000000000, 1.224646799147353207E-16 ) ) ;
#294 = ADVANCED_FACE ( 'NONE', ( #115 ), #43, .T. ) ;
#295 = CARTESIAN_POINT ( 'NONE',  ( -0.04405499999999973326, 0.0000000000000000000, 1.496062999999999921 ) ) ;
#296 = CARTESIAN_POINT ( 'NONE',  ( -0.01966531499999999225, 0.0000000000000000000, 4.816613013794884661E-18 ) ) ;
#297 = CARTESIAN_POINT ( 'NONE',  ( -0.01966531499999998531, 2.408306506897442716E-18, 0.1181100000000000066 ) ) ;
#298 = DIRECTION ( 'NONE',  ( -1.224646799147353207E-16, -0.0000000000000000000, -1.000000000000000000 ) ) ;
#299 =( NAMED_UNIT ( * ) SI_UNIT ( $, .STERADIAN. ) SOLID_ANGLE_UNIT ( ) );
ENDSEC;
END-ISO-10303-21;
