ISO-10303-21;
HEADER;
FILE_DESCRIPTION (( 'STEP AP214' ),
    '1' );
FILE_NAME ('83521.STEP',
    '2023-06-23T10:26:43',
    ( '' ),
    ( '' ),
    'SwSTEP 2.0',
    'SolidWorks 2023',
    '' );
FILE_SCHEMA (( 'AUTOMOTIVE_DESIGN' ));
ENDSEC;

DATA;
#1 = LENGTH_MEASURE_WITH_UNIT ( LENGTH_MEASURE( 0.02539999999999999897 ), #29 );
#2 = ORIENTED_EDGE ( 'NONE', *, *, #26, .T. ) ;
#3 = PLANE ( 'NONE',  #43 ) ;
#4 = EDGE_LOOP ( 'NONE', ( #105, #146 ) ) ;
#5 = AXIS2_PLACEMENT_3D ( 'NONE', #221, #8, #297 ) ;
#6 = VERTEX_POINT ( 'NONE', #108 ) ;
#7 =( LENGTH_UNIT ( ) NAMED_UNIT ( * ) SI_UNIT ( $, .METRE. ) );
#8 = DIRECTION ( 'NONE',  ( 7.536287994752941486E-17, 1.000000000000000000, -0.000000000000000000 ) ) ;
#9 =( CONVERSION_BASED_UNIT ( 'INCH', #155 ) LENGTH_UNIT ( ) NAMED_UNIT ( #68 ) );
#10 =( NAMED_UNIT ( * ) SI_UNIT ( $, .STERADIAN. ) SOLID_ANGLE_UNIT ( ) );
#11 = AXIS2_PLACEMENT_3D ( 'NONE', #57, #111, #135 ) ;
#12 = PRODUCT_CONTEXT ( 'NONE', #267, 'mechanical' ) ;
#13 =( NAMED_UNIT ( * ) PLANE_ANGLE_UNIT ( ) SI_UNIT ( $, .RADIAN. ) );
#14 = CARTESIAN_POINT ( 'NONE',  ( 0.06250000000000005551, 2.500000000000000000, 7.654042494670949841E-18 ) ) ;
#15 = CARTESIAN_POINT ( 'NONE',  ( 1.224646799147353207E-16, 2.500000000000000000, 0.000000000000000000 ) ) ;
#16 = VERTEX_POINT ( 'NONE', #133 ) ;
#17 = DIMENSIONAL_EXPONENTS ( 1.000000000000000000, 0.000000000000000000, 0.000000000000000000, 0.000000000000000000, 0.000000000000000000, 0.000000000000000000, 0.000000000000000000 ) ;
#18 = MECHANICAL_DESIGN_GEOMETRIC_PRESENTATION_REPRESENTATION (  '', ( #291 ), #173 ) ;
#19 = AXIS2_PLACEMENT_3D ( 'NONE', #15, #307, #281 ) ;
#20 = DIRECTION ( 'NONE',  ( 0.000000000000000000, 0.000000000000000000, -1.000000000000000000 ) ) ;
#21 = STYLED_ITEM ( 'NONE', ( #44 ), #222 ) ;
#22 = SURFACE_STYLE_FILL_AREA ( #167 ) ;
#23 = PLANE ( 'NONE',  #309 ) ;
#24 = FILL_AREA_STYLE_COLOUR ( '', #154 ) ;
#25 = PRESENTATION_STYLE_ASSIGNMENT (( #55 ) ) ;
#26 = EDGE_CURVE ( 'NONE', #239, #177, #129, .T. ) ;
#27 = CARTESIAN_POINT ( 'NONE',  ( 0.000000000000000000, 0.000000000000000000, 0.000000000000000000 ) ) ;
#28 = VERTEX_POINT ( 'NONE', #289 ) ;
#29 =( LENGTH_UNIT ( ) NAMED_UNIT ( * ) SI_UNIT ( $, .METRE. ) );
#30 = ORIENTED_EDGE ( 'NONE', *, *, #208, .T. ) ;
#31 = CARTESIAN_POINT ( 'NONE',  ( 0.06249999999999997918, 2.500000000000000000, 7.654042494670951382E-18 ) ) ;
#32 =( GEOMETRIC_REPRESENTATION_CONTEXT ( 3 ) GLOBAL_UNCERTAINTY_ASSIGNED_CONTEXT ( ( #143 ) ) GLOBAL_UNIT_ASSIGNED_CONTEXT ( ( #9, #13, #209 ) ) REPRESENTATION_CONTEXT ( 'NONE', 'WORKASPACE' ) );
#33 =( GEOMETRIC_REPRESENTATION_CONTEXT ( 3 ) GLOBAL_UNCERTAINTY_ASSIGNED_CONTEXT ( ( #252 ) ) GLOBAL_UNIT_ASSIGNED_CONTEXT ( ( #190, #74, #164 ) ) REPRESENTATION_CONTEXT ( 'NONE', 'WORKASPACE' ) );
#34 =( CONVERSION_BASED_UNIT ( 'INCH', #118 ) LENGTH_UNIT ( ) NAMED_UNIT ( #166 ) );
#35 = ORIENTED_EDGE ( 'NONE', *, *, #197, .T. ) ;
#36 = DIRECTION ( 'NONE',  ( 0.000000000000000000, 1.000000000000000000, 0.000000000000000000 ) ) ;
#37 = ORIENTED_EDGE ( 'NONE', *, *, #274, .F. ) ;
#38 = PRODUCT_DEFINITION ( 'UNKNOWN', '', #174, #96 ) ;
#39 = DIRECTION ( 'NONE',  ( 7.536287994752941486E-17, 1.000000000000000000, -0.000000000000000000 ) ) ;
#40 = DIMENSIONAL_EXPONENTS ( 1.000000000000000000, 0.000000000000000000, 0.000000000000000000, 0.000000000000000000, 0.000000000000000000, 0.000000000000000000, 0.000000000000000000 ) ;
#41 = SURFACE_SIDE_STYLE ('',( #22 ) ) ;
#42 = EDGE_LOOP ( 'NONE', ( #103, #235 ) ) ;
#43 = AXIS2_PLACEMENT_3D ( 'NONE', #242, #152, #220 ) ;
#44 = PRESENTATION_STYLE_ASSIGNMENT (( #73 ) ) ;
#45 = ORIENTED_EDGE ( 'NONE', *, *, #261, .T. ) ;
#46 = LENGTH_MEASURE_WITH_UNIT ( LENGTH_MEASURE( 0.02539999999999999897 ), #160 );
#47 = PRESENTATION_STYLE_ASSIGNMENT (( #216 ) ) ;
#48 = PRESENTATION_STYLE_ASSIGNMENT (( #265 ) ) ;
#49 = ORIENTED_EDGE ( 'NONE', *, *, #119, .T. ) ;
#50 = STYLED_ITEM ( 'NONE', ( #47 ), #159 ) ;
#51 = CARTESIAN_POINT ( 'NONE',  ( -0.06249999999999974326, 2.500000000000000000, 0.000000000000000000 ) ) ;
#52 = ORIENTED_EDGE ( 'NONE', *, *, #184, .T. ) ;
#53 = CARTESIAN_POINT ( 'NONE',  ( 1.224646799147353207E-16, 2.500000000000000000, 0.000000000000000000 ) ) ;
#54 = ORIENTED_EDGE ( 'NONE', *, *, #101, .F. ) ;
#55 = SURFACE_STYLE_USAGE ( .BOTH. , #83 ) ;
#56 = AXIS2_PLACEMENT_3D ( 'NONE', #296, #276, #58 ) ;
#57 = CARTESIAN_POINT ( 'NONE',  ( 1.224646799147353207E-16, 2.500000000000000000, 0.000000000000000000 ) ) ;
#58 = DIRECTION ( 'NONE',  ( 0.000000000000000000, 0.000000000000000000, -1.000000000000000000 ) ) ;
#59 = CARTESIAN_POINT ( 'NONE',  ( 7.654042494670959086E-18, 0.000000000000000000, 0.06250000000000001388 ) ) ;
#60 = MECHANICAL_DESIGN_GEOMETRIC_PRESENTATION_REPRESENTATION (  '', ( #172 ), #32 ) ;
#61 = CIRCLE ( 'NONE', #305, 0.06250000000000001388 ) ;
#62 = VECTOR ( 'NONE', #100, 39.37007874015748143 ) ;
#63 = FACE_OUTER_BOUND ( 'NONE', #140, .T. ) ;
#64 = DIRECTION ( 'NONE',  ( -0.000000000000000000, -1.000000000000000000, -0.000000000000000000 ) ) ;
#65 = PLANE ( 'NONE',  #126 ) ;
#66 = MANIFOLD_SOLID_BREP ( 'Revolve - Tool Body (Straight Shanked)', #304 ) ;
#67 = FILL_AREA_STYLE_COLOUR ( '', #278 ) ;
#68 = DIMENSIONAL_EXPONENTS ( 1.000000000000000000, 0.000000000000000000, 0.000000000000000000, 0.000000000000000000, 0.000000000000000000, 0.000000000000000000, 0.000000000000000000 ) ;
#69 = COLOUR_RGB ( '',1.000000000000000000, 0.000000000000000000, 0.000000000000000000 ) ;
#70 = CYLINDRICAL_SURFACE ( 'NONE', #56, 0.06250000000000001388 ) ;
#71 = PRESENTATION_STYLE_ASSIGNMENT (( #263 ) ) ;
#72 = FILL_AREA_STYLE ('',( #230 ) ) ;
#73 = SURFACE_STYLE_USAGE ( .BOTH. , #282 ) ;
#74 =( NAMED_UNIT ( * ) PLANE_ANGLE_UNIT ( ) SI_UNIT ( $, .RADIAN. ) );
#75 = ORIENTED_EDGE ( 'NONE', *, *, #208, .F. ) ;
#76 = PLANE ( 'NONE',  #93 ) ;
#77 = EDGE_LOOP ( 'NONE', ( #285, #198 ) ) ;
#78 = ADVANCED_FACE ( 'NONE', ( #210 ), #79, .T. ) ;
#79 = CYLINDRICAL_SURFACE ( 'NONE', #19, 0.06249999999999993755 ) ;
#80 =( LENGTH_UNIT ( ) NAMED_UNIT ( * ) SI_UNIT ( $, .METRE. ) );
#81 =( GEOMETRIC_REPRESENTATION_CONTEXT ( 3 ) GLOBAL_UNCERTAINTY_ASSIGNED_CONTEXT ( ( #136 ) ) GLOBAL_UNIT_ASSIGNED_CONTEXT ( ( #237, #117, #253 ) ) REPRESENTATION_CONTEXT ( 'NONE', 'WORKASPACE' ) );
#82 = CARTESIAN_POINT ( 'NONE',  ( 0.000000000000000000, 0.000000000000000000, -0.06250000000000001388 ) ) ;
#83 = SURFACE_SIDE_STYLE ('',( #247 ) ) ;
#84 = CARTESIAN_POINT ( 'NONE',  ( 0.000000000000000000, 0.8750000000000000000, 0.000000000000000000 ) ) ;
#85 = STYLED_ITEM ( 'NONE', ( #48 ), #161 ) ;
#86 = CARTESIAN_POINT ( 'NONE',  ( -0.06250000000000001388, 0.8749999999999997780, 0.000000000000000000 ) ) ;
#87 = ADVANCED_FACE ( 'NONE', ( #115 ), #65, .T. ) ;
#88 = CIRCLE ( 'NONE', #272, 0.06250000000000001388 ) ;
#89 = SHAPE_DEFINITION_REPRESENTATION ( #268, #193 ) ;
#90 = DIRECTION ( 'NONE',  ( -1.000000000000000000, 0.000000000000000000, 0.000000000000000000 ) ) ;
#91 = FACE_OUTER_BOUND ( 'NONE', #131, .T. ) ;
#92 = SURFACE_SIDE_STYLE ('',( #302 ) ) ;
#93 = AXIS2_PLACEMENT_3D ( 'NONE', #270, #287, #127 ) ;
#94 = SURFACE_STYLE_FILL_AREA ( #72 ) ;
#95 = CARTESIAN_POINT ( 'NONE',  ( 0.000000000000000000, 0.8749999999999997780, 0.000000000000000000 ) ) ;
#96 = PRODUCT_DEFINITION_CONTEXT ( 'detailed design', #142, 'design' ) ;
#97 = ORIENTED_EDGE ( 'NONE', *, *, #277, .T. ) ;
#98 = VECTOR ( 'NONE', #195, 39.37007874015748143 ) ;
#99 = AXIS2_PLACEMENT_3D ( 'NONE', #84, #273, #250 ) ;
#100 = DIRECTION ( 'NONE',  ( -0.000000000000000000, -1.000000000000000000, -0.000000000000000000 ) ) ;
#101 = EDGE_CURVE ( 'NONE', #259, #16, #61, .T. ) ;
#102 = FILL_AREA_STYLE ('',( #24 ) ) ;
#103 = ORIENTED_EDGE ( 'NONE', *, *, #277, .F. ) ;
#104 = FILL_AREA_STYLE ('',( #130 ) ) ;
#105 = ORIENTED_EDGE ( 'NONE', *, *, #286, .T. ) ;
#106 = STYLED_ITEM ( 'NONE', ( #256 ), #217 ) ;
#107 =( GEOMETRIC_REPRESENTATION_CONTEXT ( 3 ) GLOBAL_UNCERTAINTY_ASSIGNED_CONTEXT ( ( #169 ) ) GLOBAL_UNIT_ASSIGNED_CONTEXT ( ( #225, #110, #10 ) ) REPRESENTATION_CONTEXT ( 'NONE', 'WORKASPACE' ) );
#108 = CARTESIAN_POINT ( 'NONE',  ( 7.654042494670959086E-18, 0.8750000000000000000, 0.06250000000000001388 ) ) ;
#109 = LINE ( 'NONE', #59, #228 ) ;
#110 =( NAMED_UNIT ( * ) PLANE_ANGLE_UNIT ( ) SI_UNIT ( $, .RADIAN. ) );
#111 = DIRECTION ( 'NONE',  ( 7.536287994752941486E-17, 1.000000000000000000, -0.000000000000000000 ) ) ;
#112 =( NAMED_UNIT ( * ) PLANE_ANGLE_UNIT ( ) SI_UNIT ( $, .RADIAN. ) );
#113 = DIRECTION ( 'NONE',  ( 0.000000000000000000, -1.000000000000000000, -0.000000000000000000 ) ) ;
#114 = DIRECTION ( 'NONE',  ( 7.536287994752941486E-17, 1.000000000000000000, -0.000000000000000000 ) ) ;
#115 = FACE_OUTER_BOUND ( 'NONE', #77, .T. ) ;
#116 = VECTOR ( 'NONE', #260, 39.37007874015748143 ) ;
#117 =( NAMED_UNIT ( * ) PLANE_ANGLE_UNIT ( ) SI_UNIT ( $, .RADIAN. ) );
#118 = LENGTH_MEASURE_WITH_UNIT ( LENGTH_MEASURE( 0.02539999999999999897 ), #165 );
#119 = EDGE_CURVE ( 'NONE', #241, #259, #124, .T. ) ;
#120 = DIRECTION ( 'NONE',  ( 1.000000000000000000, 0.000000000000000000, 0.000000000000000000 ) ) ;
#121 =( CONVERSION_BASED_UNIT ( 'INCH', #1 ) LENGTH_UNIT ( ) NAMED_UNIT ( #17 ) );
#122 = EDGE_LOOP ( 'NONE', ( #202, #75 ) ) ;
#123 = CARTESIAN_POINT ( 'NONE',  ( 0.000000000000000000, 0.8750000000000000000, 0.000000000000000000 ) ) ;
#124 = LINE ( 'NONE', #82, #62 ) ;
#125 = EDGE_LOOP ( 'NONE', ( #35, #52, #246, #292 ) ) ;
#126 = AXIS2_PLACEMENT_3D ( 'NONE', #229, #113, #207 ) ;
#127 = DIRECTION ( 'NONE',  ( 1.000000000000000000, -7.536287994752941486E-17, 0.000000000000000000 ) ) ;
#128 = CARTESIAN_POINT ( 'NONE',  ( 0.000000000000000000, 0.000000000000000000, 0.000000000000000000 ) ) ;
#129 = LINE ( 'NONE', #201, #98 ) ;
#130 = FILL_AREA_STYLE_COLOUR ( '', #299 ) ;
#131 = EDGE_LOOP ( 'NONE', ( #37, #45, #49, #163 ) ) ;
#132 = MECHANICAL_DESIGN_GEOMETRIC_PRESENTATION_REPRESENTATION (  '', ( #50 ), #206 ) ;
#133 = CARTESIAN_POINT ( 'NONE',  ( 7.654042494670959086E-18, 0.000000000000000000, 0.06250000000000001388 ) ) ;
#134 = EDGE_CURVE ( 'NONE', #153, #177, #215, .T. ) ;
#135 = DIRECTION ( 'NONE',  ( -1.000000000000000000, 0.000000000000000000, 0.000000000000000000 ) ) ;
#136 = UNCERTAINTY_MEASURE_WITH_UNIT (LENGTH_MEASURE( 1.000000000000000082E-05 ), #237, 'distance_accuracy_value', 'NONE');
#137 = PRESENTATION_LAYER_ASSIGNMENT (  '', '', ( #172 ) ) ;
#138 = AXIS2_PLACEMENT_3D ( 'NONE', #128, #290, #171 ) ;
#139 = AXIS2_PLACEMENT_3D ( 'NONE', #303, #255, #120 ) ;
#140 = EDGE_LOOP ( 'NONE', ( #243, #30, #2, #176 ) ) ;
#141 = CARTESIAN_POINT ( 'NONE',  ( 0.000000000000000000, 0.000000000000000000, 0.000000000000000000 ) ) ;
#142 = APPLICATION_CONTEXT ( 'automotive_design' ) ;
#143 = UNCERTAINTY_MEASURE_WITH_UNIT (LENGTH_MEASURE( 1.000000000000000082E-05 ), #9, 'distance_accuracy_value', 'NONE');
#144 = ADVANCED_FACE ( 'NONE', ( #266 ), #76, .F. ) ;
#145 = FILL_AREA_STYLE_COLOUR ( '', #249 ) ;
#146 = ORIENTED_EDGE ( 'NONE', *, *, #134, .T. ) ;
#147 = AXIS2_PLACEMENT_3D ( 'NONE', #275, #64, #205 ) ;
#148 = LENGTH_MEASURE_WITH_UNIT ( LENGTH_MEASURE( 0.02539999999999999897 ), #257 );
#149 = ORIENTED_EDGE ( 'NONE', *, *, #119, .F. ) ;
#150 = EDGE_LOOP ( 'NONE', ( #97, #170, #54, #149 ) ) ;
#151 = MECHANICAL_DESIGN_GEOMETRIC_PRESENTATION_REPRESENTATION (  '', ( #21 ), #203 ) ;
#152 = DIRECTION ( 'NONE',  ( 7.536287994752941486E-17, 1.000000000000000000, -0.000000000000000000 ) ) ;
#153 = VERTEX_POINT ( 'NONE', #31 ) ;
#154 = COLOUR_RGB ( '',0.7921568627450980005, 0.8196078431372548767, 0.9333333333333333481 ) ;
#155 = LENGTH_MEASURE_WITH_UNIT ( LENGTH_MEASURE( 0.02539999999999999897 ), #7 );
#156 = ADVANCED_FACE ( 'NONE', ( #245 ), #3, .F. ) ;
#157 = CYLINDRICAL_SURFACE ( 'NONE', #5, 0.06249999999999993755 ) ;
#158 = DIRECTION ( 'NONE',  ( -0.000000000000000000, -1.000000000000000000, -0.000000000000000000 ) ) ;
#159 = ADVANCED_FACE ( 'NONE', ( #288 ), #240, .T. ) ;
#160 =( LENGTH_UNIT ( ) NAMED_UNIT ( * ) SI_UNIT ( $, .METRE. ) );
#161 = MANIFOLD_SOLID_BREP ( 'Revolve - Cutting Edge', #227 ) ;
#162 = COLOUR_RGB ( '',0.7921568627450980005, 0.8196078431372548767, 0.9333333333333333481 ) ;
#163 = ORIENTED_EDGE ( 'NONE', *, *, #180, .F. ) ;
#164 =( NAMED_UNIT ( * ) SI_UNIT ( $, .STERADIAN. ) SOLID_ANGLE_UNIT ( ) );
#165 =( LENGTH_UNIT ( ) NAMED_UNIT ( * ) SI_UNIT ( $, .METRE. ) );
#166 = DIMENSIONAL_EXPONENTS ( 1.000000000000000000, 0.000000000000000000, 0.000000000000000000, 0.000000000000000000, 0.000000000000000000, 0.000000000000000000, 0.000000000000000000 ) ;
#167 = FILL_AREA_STYLE ('',( #67 ) ) ;
#168 = LINE ( 'NONE', #14, #116 ) ;
#169 = UNCERTAINTY_MEASURE_WITH_UNIT (LENGTH_MEASURE( 1.000000000000000082E-05 ), #225, 'distance_accuracy_value', 'NONE');
#170 = ORIENTED_EDGE ( 'NONE', *, *, #274, .T. ) ;
#171 = DIRECTION ( 'NONE',  ( 0.000000000000000000, 0.000000000000000000, -1.000000000000000000 ) ) ;
#172 = STYLED_ITEM ( 'NONE', ( #25 ), #66 ) ;
#173 =( GEOMETRIC_REPRESENTATION_CONTEXT ( 3 ) GLOBAL_UNCERTAINTY_ASSIGNED_CONTEXT ( ( #280 ) ) GLOBAL_UNIT_ASSIGNED_CONTEXT ( ( #34, #189, #238 ) ) REPRESENTATION_CONTEXT ( 'NONE', 'WORKASPACE' ) );
#174 = PRODUCT_DEFINITION_FORMATION_WITH_SPECIFIED_SOURCE ( 'ANY', '', #185, .NOT_KNOWN. ) ;
#175 = DIRECTION ( 'NONE',  ( 7.536287994752941486E-17, 1.000000000000000000, -0.000000000000000000 ) ) ;
#176 = ORIENTED_EDGE ( 'NONE', *, *, #134, .F. ) ;
#177 = VERTEX_POINT ( 'NONE', #51 ) ;
#178 = CARTESIAN_POINT ( 'NONE',  ( 0.000000000000000000, 0.000000000000000000, -0.06250000000000001388 ) ) ;
#179 = CIRCLE ( 'NONE', #11, 0.06249999999999986122 ) ;
#180 = EDGE_CURVE ( 'NONE', #16, #259, #88, .T. ) ;
#181 = CARTESIAN_POINT ( 'NONE',  ( 0.000000000000000000, 0.8750000000000000000, -0.06250000000000001388 ) ) ;
#182 = PRESENTATION_LAYER_ASSIGNMENT (  '', '', ( #21 ) ) ;
#183 = DIMENSIONAL_EXPONENTS ( 1.000000000000000000, 0.000000000000000000, 0.000000000000000000, 0.000000000000000000, 0.000000000000000000, 0.000000000000000000, 0.000000000000000000 ) ;
#184 = EDGE_CURVE ( 'NONE', #28, #153, #168, .T. ) ;
#185 = PRODUCT ( '83521', '83521', '', ( #12 ) ) ;
#186 = DIMENSIONAL_EXPONENTS ( 1.000000000000000000, 0.000000000000000000, 0.000000000000000000, 0.000000000000000000, 0.000000000000000000, 0.000000000000000000, 0.000000000000000000 ) ;
#187 = PRODUCT_RELATED_PRODUCT_CATEGORY ( 'part', '', ( #185 ) ) ;
#188 = FACE_OUTER_BOUND ( 'NONE', #42, .T. ) ;
#189 =( NAMED_UNIT ( * ) PLANE_ANGLE_UNIT ( ) SI_UNIT ( $, .RADIAN. ) );
#190 =( CONVERSION_BASED_UNIT ( 'INCH', #148 ) LENGTH_UNIT ( ) NAMED_UNIT ( #40 ) );
#191 =( NAMED_UNIT ( * ) SI_UNIT ( $, .STERADIAN. ) SOLID_ANGLE_UNIT ( ) );
#192 = CIRCLE ( 'NONE', #147, 0.06250000000000001388 ) ;
#193 = ADVANCED_BREP_SHAPE_REPRESENTATION ( '83521', ( #161, #66, #139 ), #107 ) ;
#194 = SURFACE_SIDE_STYLE ('',( #214 ) ) ;
#195 = DIRECTION ( 'NONE',  ( 7.536287994752941486E-17, 1.000000000000000000, -0.000000000000000000 ) ) ;
#196 =( NAMED_UNIT ( * ) PLANE_ANGLE_UNIT ( ) SI_UNIT ( $, .RADIAN. ) );
#197 = EDGE_CURVE ( 'NONE', #239, #28, #248, .T. ) ;
#198 = ORIENTED_EDGE ( 'NONE', *, *, #180, .T. ) ;
#199 = PRESENTATION_LAYER_ASSIGNMENT (  '', '', ( #291 ) ) ;
#200 = PRESENTATION_LAYER_ASSIGNMENT (  '', '', ( #106 ) ) ;
#201 = CARTESIAN_POINT ( 'NONE',  ( -0.06249999999999981959, 2.500000000000000000, 0.000000000000000000 ) ) ;
#202 = ORIENTED_EDGE ( 'NONE', *, *, #197, .F. ) ;
#203 =( GEOMETRIC_REPRESENTATION_CONTEXT ( 3 ) GLOBAL_UNCERTAINTY_ASSIGNED_CONTEXT ( ( #306 ) ) GLOBAL_UNIT_ASSIGNED_CONTEXT ( ( #298, #112, #295 ) ) REPRESENTATION_CONTEXT ( 'NONE', 'WORKASPACE' ) );
#204 = LENGTH_MEASURE_WITH_UNIT ( LENGTH_MEASURE( 0.02539999999999999897 ), #80 );
#205 = DIRECTION ( 'NONE',  ( 0.000000000000000000, 0.000000000000000000, -1.000000000000000000 ) ) ;
#206 =( GEOMETRIC_REPRESENTATION_CONTEXT ( 3 ) GLOBAL_UNCERTAINTY_ASSIGNED_CONTEXT ( ( #232 ) ) GLOBAL_UNIT_ASSIGNED_CONTEXT ( ( #121, #196, #191 ) ) REPRESENTATION_CONTEXT ( 'NONE', 'WORKASPACE' ) );
#207 = DIRECTION ( 'NONE',  ( 0.000000000000000000, 0.000000000000000000, -1.000000000000000000 ) ) ;
#208 = EDGE_CURVE ( 'NONE', #28, #239, #254, .T. ) ;
#209 =( NAMED_UNIT ( * ) SI_UNIT ( $, .STERADIAN. ) SOLID_ANGLE_UNIT ( ) );
#210 = FACE_OUTER_BOUND ( 'NONE', #125, .T. ) ;
#211 = AXIS2_PLACEMENT_3D ( 'NONE', #95, #39, #283 ) ;
#212 = SURFACE_STYLE_USAGE ( .BOTH. , #41 ) ;
#213 = SURFACE_SIDE_STYLE ('',( #308 ) ) ;
#214 = SURFACE_STYLE_FILL_AREA ( #102 ) ;
#215 = CIRCLE ( 'NONE', #223, 0.06249999999999986122 ) ;
#216 = SURFACE_STYLE_USAGE ( .BOTH. , #213 ) ;
#217 = ADVANCED_FACE ( 'NONE', ( #188 ), #23, .T. ) ;
#218 = DIRECTION ( 'NONE',  ( -1.000000000000000000, 0.000000000000000000, 0.000000000000000000 ) ) ;
#219 = FILL_AREA_STYLE ('',( #294 ) ) ;
#220 = DIRECTION ( 'NONE',  ( -1.000000000000000000, 7.536287994752941486E-17, 0.000000000000000000 ) ) ;
#221 = CARTESIAN_POINT ( 'NONE',  ( 1.224646799147353207E-16, 2.500000000000000000, 0.000000000000000000 ) ) ;
#222 = ADVANCED_FACE ( 'NONE', ( #91 ), #70, .T. ) ;
#223 = AXIS2_PLACEMENT_3D ( 'NONE', #53, #175, #218 ) ;
#224 = DIMENSIONAL_EXPONENTS ( 1.000000000000000000, 0.000000000000000000, 0.000000000000000000, 0.000000000000000000, 0.000000000000000000, 0.000000000000000000, 0.000000000000000000 ) ;
#225 =( CONVERSION_BASED_UNIT ( 'INCH', #300 ) LENGTH_UNIT ( ) NAMED_UNIT ( #183 ) );
#226 = APPLICATION_PROTOCOL_DEFINITION ( 'draft international standard', 'automotive_design', 1998, #267 ) ;
#227 = CLOSED_SHELL ( 'NONE', ( #159, #217, #222, #87 ) ) ;
#228 = VECTOR ( 'NONE', #158, 39.37007874015748143 ) ;
#229 = CARTESIAN_POINT ( 'NONE',  ( 0.000000000000000000, 0.000000000000000000, 0.000000000000000000 ) ) ;
#230 = FILL_AREA_STYLE_COLOUR ( '', #69 ) ;
#231 = CARTESIAN_POINT ( 'NONE',  ( 0.000000000000000000, 0.8749999999999997780, 0.000000000000000000 ) ) ;
#232 = UNCERTAINTY_MEASURE_WITH_UNIT (LENGTH_MEASURE( 1.000000000000000082E-05 ), #121, 'distance_accuracy_value', 'NONE');
#233 = MECHANICAL_DESIGN_GEOMETRIC_PRESENTATION_REPRESENTATION (  '', ( #106 ), #81 ) ;
#234 = MECHANICAL_DESIGN_GEOMETRIC_PRESENTATION_REPRESENTATION (  '', ( #85 ), #33 ) ;
#235 = ORIENTED_EDGE ( 'NONE', *, *, #261, .F. ) ;
#236 = APPLICATION_PROTOCOL_DEFINITION ( 'draft international standard', 'automotive_design', 1998, #142 ) ;
#237 =( CONVERSION_BASED_UNIT ( 'INCH', #46 ) LENGTH_UNIT ( ) NAMED_UNIT ( #186 ) );
#238 =( NAMED_UNIT ( * ) SI_UNIT ( $, .STERADIAN. ) SOLID_ANGLE_UNIT ( ) );
#239 = VERTEX_POINT ( 'NONE', #86 ) ;
#240 = CYLINDRICAL_SURFACE ( 'NONE', #138, 0.06250000000000001388 ) ;
#241 = VERTEX_POINT ( 'NONE', #181 ) ;
#242 = CARTESIAN_POINT ( 'NONE',  ( 1.774863648120541287E-34, 0.8750000000000000000, 0.000000000000000000 ) ) ;
#243 = ORIENTED_EDGE ( 'NONE', *, *, #184, .F. ) ;
#244 = CIRCLE ( 'NONE', #99, 0.06250000000000001388 ) ;
#245 = FACE_OUTER_BOUND ( 'NONE', #122, .T. ) ;
#246 = ORIENTED_EDGE ( 'NONE', *, *, #286, .F. ) ;
#247 = SURFACE_STYLE_FILL_AREA ( #219 ) ;
#248 = CIRCLE ( 'NONE', #211, 0.06250000000000001388 ) ;
#249 = COLOUR_RGB ( '',1.000000000000000000, 0.000000000000000000, 0.000000000000000000 ) ;
#250 = DIRECTION ( 'NONE',  ( 0.000000000000000000, 0.000000000000000000, -1.000000000000000000 ) ) ;
#251 =( LENGTH_UNIT ( ) NAMED_UNIT ( * ) SI_UNIT ( $, .METRE. ) );
#252 = UNCERTAINTY_MEASURE_WITH_UNIT (LENGTH_MEASURE( 1.000000000000000082E-05 ), #190, 'distance_accuracy_value', 'NONE');
#253 =( NAMED_UNIT ( * ) SI_UNIT ( $, .STERADIAN. ) SOLID_ANGLE_UNIT ( ) );
#254 = CIRCLE ( 'NONE', #262, 0.06250000000000001388 ) ;
#255 = DIRECTION ( 'NONE',  ( 0.000000000000000000, 0.000000000000000000, 1.000000000000000000 ) ) ;
#256 = PRESENTATION_STYLE_ASSIGNMENT (( #212 ) ) ;
#257 =( LENGTH_UNIT ( ) NAMED_UNIT ( * ) SI_UNIT ( $, .METRE. ) );
#258 = FILL_AREA_STYLE ('',( #145 ) ) ;
#259 = VERTEX_POINT ( 'NONE', #178 ) ;
#260 = DIRECTION ( 'NONE',  ( 7.536287994752941486E-17, 1.000000000000000000, -0.000000000000000000 ) ) ;
#261 = EDGE_CURVE ( 'NONE', #6, #241, #192, .T. ) ;
#262 = AXIS2_PLACEMENT_3D ( 'NONE', #231, #114, #90 ) ;
#263 = SURFACE_STYLE_USAGE ( .BOTH. , #92 ) ;
#264 = DIRECTION ( 'NONE',  ( 0.000000000000000000, 0.000000000000000000, -1.000000000000000000 ) ) ;
#265 = SURFACE_STYLE_USAGE ( .BOTH. , #194 ) ;
#266 = FACE_OUTER_BOUND ( 'NONE', #4, .T. ) ;
#267 = APPLICATION_CONTEXT ( 'automotive_design' ) ;
#268 = PRODUCT_DEFINITION_SHAPE ( 'NONE', 'NONE',  #38 ) ;
#269 = PRESENTATION_LAYER_ASSIGNMENT (  '', '', ( #85 ) ) ;
#270 = CARTESIAN_POINT ( 'NONE',  ( 0.06249999999999997918, 2.500000000000000000, 0.000000000000000000 ) ) ;
#271 = ADVANCED_FACE ( 'NONE', ( #63 ), #157, .T. ) ;
#272 = AXIS2_PLACEMENT_3D ( 'NONE', #141, #279, #20 ) ;
#273 = DIRECTION ( 'NONE',  ( -0.000000000000000000, -1.000000000000000000, -0.000000000000000000 ) ) ;
#274 = EDGE_CURVE ( 'NONE', #6, #16, #109, .T. ) ;
#275 = CARTESIAN_POINT ( 'NONE',  ( 0.000000000000000000, 0.8750000000000000000, 0.000000000000000000 ) ) ;
#276 = DIRECTION ( 'NONE',  ( -0.000000000000000000, -1.000000000000000000, -0.000000000000000000 ) ) ;
#277 = EDGE_CURVE ( 'NONE', #241, #6, #244, .T. ) ;
#278 = COLOUR_RGB ( '',1.000000000000000000, 0.000000000000000000, 0.000000000000000000 ) ;
#279 = DIRECTION ( 'NONE',  ( -0.000000000000000000, -1.000000000000000000, -0.000000000000000000 ) ) ;
#280 = UNCERTAINTY_MEASURE_WITH_UNIT (LENGTH_MEASURE( 1.000000000000000082E-05 ), #34, 'distance_accuracy_value', 'NONE');
#281 = DIRECTION ( 'NONE',  ( -1.000000000000000000, 0.000000000000000000, 0.000000000000000000 ) ) ;
#282 = SURFACE_SIDE_STYLE ('',( #94 ) ) ;
#283 = DIRECTION ( 'NONE',  ( -1.000000000000000000, 0.000000000000000000, 0.000000000000000000 ) ) ;
#284 = DIRECTION ( 'NONE',  ( -0.000000000000000000, -1.000000000000000000, -0.000000000000000000 ) ) ;
#285 = ORIENTED_EDGE ( 'NONE', *, *, #101, .T. ) ;
#286 = EDGE_CURVE ( 'NONE', #177, #153, #179, .T. ) ;
#287 = DIRECTION ( 'NONE',  ( -7.536287994752941486E-17, -1.000000000000000000, 0.000000000000000000 ) ) ;
#288 = FACE_OUTER_BOUND ( 'NONE', #150, .T. ) ;
#289 = CARTESIAN_POINT ( 'NONE',  ( 0.06250000000000001388, 0.8749999999999997780, 7.654042494670954463E-18 ) ) ;
#290 = DIRECTION ( 'NONE',  ( -0.000000000000000000, -1.000000000000000000, -0.000000000000000000 ) ) ;
#291 = STYLED_ITEM ( 'NONE', ( #71 ), #87 ) ;
#292 = ORIENTED_EDGE ( 'NONE', *, *, #26, .F. ) ;
#293 = PRESENTATION_LAYER_ASSIGNMENT (  '', '', ( #50 ) ) ;
#294 = FILL_AREA_STYLE_COLOUR ( '', #162 ) ;
#295 =( NAMED_UNIT ( * ) SI_UNIT ( $, .STERADIAN. ) SOLID_ANGLE_UNIT ( ) );
#296 = CARTESIAN_POINT ( 'NONE',  ( 0.000000000000000000, 0.000000000000000000, 0.000000000000000000 ) ) ;
#297 = DIRECTION ( 'NONE',  ( -1.000000000000000000, 0.000000000000000000, 0.000000000000000000 ) ) ;
#298 =( CONVERSION_BASED_UNIT ( 'INCH', #204 ) LENGTH_UNIT ( ) NAMED_UNIT ( #224 ) );
#299 = COLOUR_RGB ( '',1.000000000000000000, 0.000000000000000000, 0.000000000000000000 ) ;
#300 = LENGTH_MEASURE_WITH_UNIT ( LENGTH_MEASURE( 0.02539999999999999897 ), #251 );
#301 = DIRECTION ( 'NONE',  ( 0.000000000000000000, -0.000000000000000000, 1.000000000000000000 ) ) ;
#302 = SURFACE_STYLE_FILL_AREA ( #258 ) ;
#303 = CARTESIAN_POINT ( 'NONE',  ( 0.000000000000000000, 0.000000000000000000, 0.000000000000000000 ) ) ;
#304 = CLOSED_SHELL ( 'NONE', ( #78, #156, #271, #144 ) ) ;
#305 = AXIS2_PLACEMENT_3D ( 'NONE', #27, #284, #264 ) ;
#306 = UNCERTAINTY_MEASURE_WITH_UNIT (LENGTH_MEASURE( 1.000000000000000082E-05 ), #298, 'distance_accuracy_value', 'NONE');
#307 = DIRECTION ( 'NONE',  ( 7.536287994752941486E-17, 1.000000000000000000, -0.000000000000000000 ) ) ;
#308 = SURFACE_STYLE_FILL_AREA ( #104 ) ;
#309 = AXIS2_PLACEMENT_3D ( 'NONE', #123, #36, #301 ) ;
ENDSEC;
END-ISO-10303-21;
