ISO-10303-21;
HEADER;
FILE_DESCRIPTION (( 'STEP AP214' ),
    '1' );
FILE_NAME ('86079.STEP',
    '2023-07-01T00:03:14',
    ( '' ),
    ( '' ),
    'SwSTEP 2.0',
    'SolidWorks 2023',
    '' );
FILE_SCHEMA (( 'AUTOMOTIVE_DESIGN' ));
ENDSEC;

DATA;
#1 = CARTESIAN_POINT ( 'NONE',  ( 2.793702596253717253E-16, 1.750000000000000000, 0.000000000000000000 ) ) ;
#2 = VERTEX_POINT ( 'NONE', #311 ) ;
#3 = EDGE_LOOP ( 'NONE', ( #259, #106, #202, #29 ) ) ;
#4 = STYLED_ITEM ( 'NONE', ( #152 ), #161 ) ;
#5 = PRESENTATION_LAYER_ASSIGNMENT (  '', '', ( #304 ) ) ;
#6 = UNCERTAINTY_MEASURE_WITH_UNIT (LENGTH_MEASURE( 1.000000000000000082E-05 ), #294, 'distance_accuracy_value', 'NONE');
#7 =( NAMED_UNIT ( * ) SI_UNIT ( $, .STERADIAN. ) SOLID_ANGLE_UNIT ( ) );
#8 = ORIENTED_EDGE ( 'NONE', *, *, #277, .T. ) ;
#9 = CARTESIAN_POINT ( 'NONE',  ( 0.000000000000000000, 0.1250000000000000278, -0.1249999999999999584 ) ) ;
#10 = EDGE_CURVE ( 'NONE', #316, #160, #260, .T. ) ;
#11 = CARTESIAN_POINT ( 'NONE',  ( 0.1249999999999998057, 4.000000000000000000, 1.530808498934189968E-17 ) ) ;
#12 = CARTESIAN_POINT ( 'NONE',  ( -7.654042494670957545E-18, 0.000000000000000000, 0.000000000000000000 ) ) ;
#13 = MECHANICAL_DESIGN_GEOMETRIC_PRESENTATION_REPRESENTATION (  '', ( #4 ), #57 ) ;
#14 = CIRCLE ( 'NONE', #306, 0.1250000000000000000 ) ;
#15 = UNCERTAINTY_MEASURE_WITH_UNIT (LENGTH_MEASURE( 1.000000000000000082E-05 ), #107, 'distance_accuracy_value', 'NONE');
#16 = CARTESIAN_POINT ( 'NONE',  ( 0.000000000000000000, 0.1250000000000000278, 0.000000000000000000 ) ) ;
#17 =( NAMED_UNIT ( * ) SI_UNIT ( $, .STERADIAN. ) SOLID_ANGLE_UNIT ( ) );
#18 = AXIS2_PLACEMENT_3D ( 'NONE', #138, #258, #169 ) ;
#19 = DIRECTION ( 'NONE',  ( 0.000000000000000000, 0.000000000000000000, -1.000000000000000000 ) ) ;
#20 = ORIENTED_EDGE ( 'NONE', *, *, #64, .F. ) ;
#21 = FACE_OUTER_BOUND ( 'NONE', #234, .T. ) ;
#22 = SURFACE_STYLE_FILL_AREA ( #283 ) ;
#23 = ORIENTED_EDGE ( 'NONE', *, *, #74, .T. ) ;
#24 = AXIS2_PLACEMENT_3D ( 'NONE', #262, #321, #163 ) ;
#25 = DIRECTION ( 'NONE',  ( -2.058076797766554415E-16, 1.000000000000000000, -0.000000000000000000 ) ) ;
#26 = VERTEX_POINT ( 'NONE', #136 ) ;
#27 = DIMENSIONAL_EXPONENTS ( 1.000000000000000000, 0.000000000000000000, 0.000000000000000000, 0.000000000000000000, 0.000000000000000000, 0.000000000000000000, 0.000000000000000000 ) ;
#28 = MECHANICAL_DESIGN_GEOMETRIC_PRESENTATION_REPRESENTATION (  '', ( #286 ), #241 ) ;
#29 = ORIENTED_EDGE ( 'NONE', *, *, #358, .F. ) ;
#30 = FILL_AREA_STYLE ('',( #292 ) ) ;
#31 = FACE_OUTER_BOUND ( 'NONE', #238, .T. ) ;
#32 = PRESENTATION_STYLE_ASSIGNMENT (( #124 ) ) ;
#33 =( NAMED_UNIT ( * ) PLANE_ANGLE_UNIT ( ) SI_UNIT ( $, .RADIAN. ) );
#34 = STYLED_ITEM ( 'NONE', ( #285 ), #40 ) ;
#35 = CYLINDRICAL_SURFACE ( 'NONE', #274, 0.1249999999999997641 ) ;
#36 = CARTESIAN_POINT ( 'NONE',  ( 0.000000000000000000, 0.000000000000000000, -0.1249999999999998751 ) ) ;
#37 = SURFACE_STYLE_USAGE ( .BOTH. , #300 ) ;
#38 = CARTESIAN_POINT ( 'NONE',  ( -1.530808498934191509E-17, 0.1250000000000000000, 0.000000000000000000 ) ) ;
#39 = LENGTH_MEASURE_WITH_UNIT ( LENGTH_MEASURE( 0.02539999999999999897 ), #280 );
#40 = ADVANCED_FACE ( 'NONE', ( #230 ), #342, .T. ) ;
#41 = COLOUR_RGB ( '',1.000000000000000000, 0.000000000000000000, 0.000000000000000000 ) ;
#42 =( LENGTH_UNIT ( ) NAMED_UNIT ( * ) SI_UNIT ( $, .METRE. ) );
#43 = PRODUCT ( '86079', '86079', '', ( #165 ) ) ;
#44 = SURFACE_SIDE_STYLE ('',( #48 ) ) ;
#45 = CARTESIAN_POINT ( 'NONE',  ( -0.1249999999999999445, 4.000000000000000000, 0.000000000000000000 ) ) ;
#46 = ORIENTED_EDGE ( 'NONE', *, *, #351, .F. ) ;
#47 = PRODUCT_DEFINITION ( 'UNKNOWN', '', #83, #229 ) ;
#48 = SURFACE_STYLE_FILL_AREA ( #256 ) ;
#49 = ORIENTED_EDGE ( 'NONE', *, *, #56, .F. ) ;
#50 = SHAPE_DEFINITION_REPRESENTATION ( #73, #348 ) ;
#51 = ORIENTED_EDGE ( 'NONE', *, *, #74, .F. ) ;
#52 = CARTESIAN_POINT ( 'NONE',  ( 0.000000000000000000, 0.000000000000000000, 0.000000000000000000 ) ) ;
#53 = VECTOR ( 'NONE', #272, 39.37007874015748143 ) ;
#54 = DIRECTION ( 'NONE',  ( -1.000000000000000000, 0.000000000000000000, 0.000000000000000000 ) ) ;
#55 = ORIENTED_EDGE ( 'NONE', *, *, #117, .F. ) ;
#56 = EDGE_CURVE ( 'NONE', #2, #26, #80, .T. ) ;
#57 =( GEOMETRIC_REPRESENTATION_CONTEXT ( 3 ) GLOBAL_UNCERTAINTY_ASSIGNED_CONTEXT ( ( #334 ) ) GLOBAL_UNIT_ASSIGNED_CONTEXT ( ( #368, #71, #78 ) ) REPRESENTATION_CONTEXT ( 'NONE', 'WORKASPACE' ) );
#58 = MECHANICAL_DESIGN_GEOMETRIC_PRESENTATION_REPRESENTATION (  '', ( #304 ), #209 ) ;
#59 = ORIENTED_EDGE ( 'NONE', *, *, #261, .T. ) ;
#60 = DIRECTION ( 'NONE',  ( -0.000000000000000000, -1.000000000000000000, -0.000000000000000000 ) ) ;
#61 = CARTESIAN_POINT ( 'NONE',  ( 0.000000000000000000, 1.750000000000000000, 0.000000000000000000 ) ) ;
#62 = CIRCLE ( 'NONE', #291, 0.1249999999999999861 ) ;
#63 = CARTESIAN_POINT ( 'NONE',  ( -0.1249999999999992506, 1.750000000000000000, 0.000000000000000000 ) ) ;
#64 = EDGE_CURVE ( 'NONE', #26, #347, #122, .T. ) ;
#65 = PLANE ( 'NONE',  #319 ) ;
#66 = SPHERICAL_SURFACE ( 'NONE', #155, 0.1250000000000000000 ) ;
#67 = COLOUR_RGB ( '',0.7921568627450980005, 0.8196078431372548767, 0.9333333333333333481 ) ;
#68 = PRESENTATION_STYLE_ASSIGNMENT (( #132 ) ) ;
#69 = APPLICATION_CONTEXT ( 'automotive_design' ) ;
#70 = SURFACE_STYLE_USAGE ( .BOTH. , #44 ) ;
#71 =( NAMED_UNIT ( * ) PLANE_ANGLE_UNIT ( ) SI_UNIT ( $, .RADIAN. ) );
#72 =( LENGTH_UNIT ( ) NAMED_UNIT ( * ) SI_UNIT ( $, .METRE. ) );
#73 = PRODUCT_DEFINITION_SHAPE ( 'NONE', 'NONE',  #47 ) ;
#74 = EDGE_CURVE ( 'NONE', #171, #269, #326, .T. ) ;
#75 = ORIENTED_EDGE ( 'NONE', *, *, #117, .T. ) ;
#76 = LINE ( 'NONE', #36, #116 ) ;
#77 = DIRECTION ( 'NONE',  ( 0.000000000000000000, 0.000000000000000000, -1.000000000000000000 ) ) ;
#78 =( NAMED_UNIT ( * ) SI_UNIT ( $, .STERADIAN. ) SOLID_ANGLE_UNIT ( ) );
#79 = ORIENTED_EDGE ( 'NONE', *, *, #339, .F. ) ;
#80 = CIRCLE ( 'NONE', #252, 0.1249999999999997918 ) ;
#81 = ADVANCED_FACE ( 'NONE', ( #31 ), #65, .T. ) ;
#82 = PRESENTATION_LAYER_ASSIGNMENT (  '', '', ( #253 ) ) ;
#83 = PRODUCT_DEFINITION_FORMATION_WITH_SPECIFIED_SOURCE ( 'ANY', '', #43, .NOT_KNOWN. ) ;
#84 = VERTEX_POINT ( 'NONE', #352 ) ;
#85 = MECHANICAL_DESIGN_GEOMETRIC_PRESENTATION_REPRESENTATION (  '', ( #197 ), #109 ) ;
#86 = AXIS2_PLACEMENT_3D ( 'NONE', #248, #302, #228 ) ;
#87 = FILL_AREA_STYLE ('',( #346 ) ) ;
#88 = ORIENTED_EDGE ( 'NONE', *, *, #327, .F. ) ;
#89 = ORIENTED_EDGE ( 'NONE', *, *, #64, .T. ) ;
#90 = COLOUR_RGB ( '',1.000000000000000000, 0.000000000000000000, 0.000000000000000000 ) ;
#91 =( GEOMETRIC_REPRESENTATION_CONTEXT ( 3 ) GLOBAL_UNCERTAINTY_ASSIGNED_CONTEXT ( ( #144 ) ) GLOBAL_UNIT_ASSIGNED_CONTEXT ( ( #118, #290, #325 ) ) REPRESENTATION_CONTEXT ( 'NONE', 'WORKASPACE' ) );
#92 = COLOUR_RGB ( '',0.7921568627450980005, 0.8196078431372548767, 0.9333333333333333481 ) ;
#93 = DIRECTION ( 'NONE',  ( 0.000000000000000000, 0.000000000000000000, -1.000000000000000000 ) ) ;
#94 = EDGE_LOOP ( 'NONE', ( #79, #8, #370, #51 ) ) ;
#95 = SPHERICAL_SURFACE ( 'NONE', #189, 0.1250000000000000000 ) ;
#96 = CLOSED_SHELL ( 'NONE', ( #203, #324, #134, #184 ) ) ;
#97 = AXIS2_PLACEMENT_3D ( 'NONE', #312, #25, #287 ) ;
#98 = LINE ( 'NONE', #45, #53 ) ;
#99 = LENGTH_MEASURE_WITH_UNIT ( LENGTH_MEASURE( 0.02539999999999999897 ), #357 );
#100 = UNCERTAINTY_MEASURE_WITH_UNIT (LENGTH_MEASURE( 1.000000000000000082E-05 ), #101, 'distance_accuracy_value', 'NONE');
#101 =( CONVERSION_BASED_UNIT ( 'INCH', #275 ) LENGTH_UNIT ( ) NAMED_UNIT ( #27 ) );
#102 = SURFACE_STYLE_USAGE ( .BOTH. , #363 ) ;
#103 = AXIS2_PLACEMENT_3D ( 'NONE', #267, #180, #333 ) ;
#104 = LENGTH_MEASURE_WITH_UNIT ( LENGTH_MEASURE( 0.02539999999999999897 ), #72 );
#105 = VERTEX_POINT ( 'NONE', #63 ) ;
#106 = ORIENTED_EDGE ( 'NONE', *, *, #339, .T. ) ;
#107 =( CONVERSION_BASED_UNIT ( 'INCH', #39 ) LENGTH_UNIT ( ) NAMED_UNIT ( #263 ) );
#108 = UNCERTAINTY_MEASURE_WITH_UNIT (LENGTH_MEASURE( 1.000000000000000082E-05 ), #341, 'distance_accuracy_value', 'NONE');
#109 =( GEOMETRIC_REPRESENTATION_CONTEXT ( 3 ) GLOBAL_UNCERTAINTY_ASSIGNED_CONTEXT ( ( #361 ) ) GLOBAL_UNIT_ASSIGNED_CONTEXT ( ( #296, #33, #7 ) ) REPRESENTATION_CONTEXT ( 'NONE', 'WORKASPACE' ) );
#110 = CIRCLE ( 'NONE', #298, 0.1249999999999999584 ) ;
#111 = DIRECTION ( 'NONE',  ( -0.000000000000000000, -1.000000000000000000, -0.000000000000000000 ) ) ;
#112 = DIRECTION ( 'NONE',  ( -2.058076797766554415E-16, 1.000000000000000000, -0.000000000000000000 ) ) ;
#113 = AXIS2_PLACEMENT_3D ( 'NONE', #16, #111, #350 ) ;
#114 = CARTESIAN_POINT ( 'NONE',  ( -1.530808498934191509E-17, 0.1250000000000000000, 0.000000000000000000 ) ) ;
#115 = VERTEX_POINT ( 'NONE', #146 ) ;
#116 = VECTOR ( 'NONE', #364, 39.37007874015748143 ) ;
#117 = EDGE_CURVE ( 'NONE', #347, #316, #147, .T. ) ;
#118 =( CONVERSION_BASED_UNIT ( 'INCH', #139 ) LENGTH_UNIT ( ) NAMED_UNIT ( #323 ) );
#119 = DIRECTION ( 'NONE',  ( 0.000000000000000000, -0.000000000000000000, 1.000000000000000000 ) ) ;
#120 = PRESENTATION_LAYER_ASSIGNMENT (  '', '', ( #140 ) ) ;
#121 = ORIENTED_EDGE ( 'NONE', *, *, #219, .T. ) ;
#122 = LINE ( 'NONE', #240, #270 ) ;
#123 =( LENGTH_UNIT ( ) NAMED_UNIT ( * ) SI_UNIT ( $, .METRE. ) );
#124 = SURFACE_STYLE_USAGE ( .BOTH. , #360 ) ;
#125 =( NAMED_UNIT ( * ) PLANE_ANGLE_UNIT ( ) SI_UNIT ( $, .RADIAN. ) );
#126 = DIRECTION ( 'NONE',  ( 1.224646799147353207E-16, -0.000000000000000000, 1.000000000000000000 ) ) ;
#127 = SURFACE_SIDE_STYLE ('',( #273 ) ) ;
#128 = DIRECTION ( 'NONE',  ( 0.000000000000000000, 0.000000000000000000, -1.000000000000000000 ) ) ;
#129 = FILL_AREA_STYLE_COLOUR ( '', #41 ) ;
#130 = CIRCLE ( 'NONE', #24, 0.1249999999999999584 ) ;
#131 = ORIENTED_EDGE ( 'NONE', *, *, #219, .F. ) ;
#132 = SURFACE_STYLE_USAGE ( .BOTH. , #127 ) ;
#133 = DIRECTION ( 'NONE',  ( -0.000000000000000000, -1.000000000000000000, -0.000000000000000000 ) ) ;
#134 = ADVANCED_FACE ( 'NONE', ( #244 ), #35, .T. ) ;
#135 = DIRECTION ( 'NONE',  ( 0.000000000000000000, 0.000000000000000000, 1.000000000000000000 ) ) ;
#136 = CARTESIAN_POINT ( 'NONE',  ( 1.530808498934189660E-17, 1.750000000000000000, 0.1249999999999997918 ) ) ;
#137 = SURFACE_SIDE_STYLE ('',( #288 ) ) ;
#138 = CARTESIAN_POINT ( 'NONE',  ( 0.1249999999999997918, 4.000000000000000000, 0.000000000000000000 ) ) ;
#139 = LENGTH_MEASURE_WITH_UNIT ( LENGTH_MEASURE( 0.02539999999999999897 ), #373 );
#140 = STYLED_ITEM ( 'NONE', ( #221 ), #181 ) ;
#141 = MECHANICAL_DESIGN_GEOMETRIC_PRESENTATION_REPRESENTATION (  '', ( #140 ), #320 ) ;
#142 = DIRECTION ( 'NONE',  ( -1.000000000000000000, 0.000000000000000000, 0.000000000000000000 ) ) ;
#143 = ORIENTED_EDGE ( 'NONE', *, *, #309, .T. ) ;
#144 = UNCERTAINTY_MEASURE_WITH_UNIT (LENGTH_MEASURE( 1.000000000000000082E-05 ), #118, 'distance_accuracy_value', 'NONE');
#145 = DIMENSIONAL_EXPONENTS ( 1.000000000000000000, 0.000000000000000000, 0.000000000000000000, 0.000000000000000000, 0.000000000000000000, 0.000000000000000000, 0.000000000000000000 ) ;
#146 = CARTESIAN_POINT ( 'NONE',  ( 0.1249999999999999584, 0.1250000000000000278, 0.000000000000000000 ) ) ;
#147 = CIRCLE ( 'NONE', #172, 0.1249999999999999584 ) ;
#148 = AXIS2_PLACEMENT_3D ( 'NONE', #153, #190, #251 ) ;
#149 =( NAMED_UNIT ( * ) SI_UNIT ( $, .STERADIAN. ) SOLID_ANGLE_UNIT ( ) );
#150 = DIRECTION ( 'NONE',  ( -0.000000000000000000, -1.000000000000000000, -0.000000000000000000 ) ) ;
#151 = DIRECTION ( 'NONE',  ( -0.000000000000000000, -1.000000000000000000, -0.000000000000000000 ) ) ;
#152 = PRESENTATION_STYLE_ASSIGNMENT (( #37 ) ) ;
#153 = CARTESIAN_POINT ( 'NONE',  ( 2.793702596253717253E-16, 1.750000000000000000, 0.000000000000000000 ) ) ;
#154 = FACE_OUTER_BOUND ( 'NONE', #356, .T. ) ;
#155 = AXIS2_PLACEMENT_3D ( 'NONE', #307, #135, #157 ) ;
#156 = CIRCLE ( 'NONE', #237, 0.1249999999999997918 ) ;
#157 = DIRECTION ( 'NONE',  ( 1.000000000000000000, 0.000000000000000000, 0.000000000000000000 ) ) ;
#158 = CARTESIAN_POINT ( 'NONE',  ( 0.000000000000000000, 0.1250000000000000278, 0.000000000000000000 ) ) ;
#159 =( LENGTH_UNIT ( ) NAMED_UNIT ( * ) SI_UNIT ( $, .METRE. ) );
#160 = VERTEX_POINT ( 'NONE', #9 ) ;
#161 = ADVANCED_FACE ( 'NONE', ( #243 ), #66, .T. ) ;
#162 = ORIENTED_EDGE ( 'NONE', *, *, #309, .F. ) ;
#163 = DIRECTION ( 'NONE',  ( 0.000000000000000000, 0.000000000000000000, -1.000000000000000000 ) ) ;
#164 = SURFACE_SIDE_STYLE ('',( #22 ) ) ;
#165 = PRODUCT_CONTEXT ( 'NONE', #177, 'mechanical' ) ;
#166 = CARTESIAN_POINT ( 'NONE',  ( -0.1250000000000001665, 4.000000000000000000, 0.000000000000000000 ) ) ;
#167 = CLOSED_SHELL ( 'NONE', ( #284, #40, #81, #206, #161 ) ) ;
#168 =( GEOMETRIC_REPRESENTATION_CONTEXT ( 3 ) GLOBAL_UNCERTAINTY_ASSIGNED_CONTEXT ( ( #369 ) ) GLOBAL_UNIT_ASSIGNED_CONTEXT ( ( #310, #192, #337 ) ) REPRESENTATION_CONTEXT ( 'NONE', 'WORKASPACE' ) );
#169 = DIRECTION ( 'NONE',  ( 1.000000000000000000, 2.058076797766554415E-16, 0.000000000000000000 ) ) ;
#170 = FACE_OUTER_BOUND ( 'NONE', #257, .T. ) ;
#171 = VERTEX_POINT ( 'NONE', #11 ) ;
#172 = AXIS2_PLACEMENT_3D ( 'NONE', #185, #183, #93 ) ;
#173 = DIRECTION ( 'NONE',  ( 0.000000000000000000, 0.000000000000000000, 1.000000000000000000 ) ) ;
#174 = VECTOR ( 'NONE', #245, 39.37007874015748143 ) ;
#175 = ORIENTED_EDGE ( 'NONE', *, *, #261, .F. ) ;
#176 = DIMENSIONAL_EXPONENTS ( 1.000000000000000000, 0.000000000000000000, 0.000000000000000000, 0.000000000000000000, 0.000000000000000000, 0.000000000000000000, 0.000000000000000000 ) ;
#177 = APPLICATION_CONTEXT ( 'automotive_design' ) ;
#178 = DIRECTION ( 'NONE',  ( 0.000000000000000000, 0.000000000000000000, -1.000000000000000000 ) ) ;
#179 = DIMENSIONAL_EXPONENTS ( 1.000000000000000000, 0.000000000000000000, 0.000000000000000000, 0.000000000000000000, 0.000000000000000000, 0.000000000000000000, 0.000000000000000000 ) ;
#180 = DIRECTION ( 'NONE',  ( -0.000000000000000000, -1.000000000000000000, -0.000000000000000000 ) ) ;
#181 = MANIFOLD_SOLID_BREP ( 'Revolve - Tool Body (Straight Shanked)', #96 ) ;
#182 = COLOUR_RGB ( '',1.000000000000000000, 0.000000000000000000, 0.000000000000000000 ) ;
#183 = DIRECTION ( 'NONE',  ( -0.000000000000000000, -1.000000000000000000, -0.000000000000000000 ) ) ;
#184 = ADVANCED_FACE ( 'NONE', ( #21 ), #279, .F. ) ;
#185 = CARTESIAN_POINT ( 'NONE',  ( 0.000000000000000000, 0.1250000000000000278, 0.000000000000000000 ) ) ;
#186 = PLANE ( 'NONE',  #148 ) ;
#187 = FACE_OUTER_BOUND ( 'NONE', #207, .T. ) ;
#188 =( NAMED_UNIT ( * ) SI_UNIT ( $, .STERADIAN. ) SOLID_ANGLE_UNIT ( ) );
#189 = AXIS2_PLACEMENT_3D ( 'NONE', #214, #173, #332 ) ;
#190 = DIRECTION ( 'NONE',  ( -2.058076797766554415E-16, 1.000000000000000000, 0.000000000000000000 ) ) ;
#191 = CYLINDRICAL_SURFACE ( 'NONE', #353, 0.1249999999999998751 ) ;
#192 =( NAMED_UNIT ( * ) PLANE_ANGLE_UNIT ( ) SI_UNIT ( $, .RADIAN. ) );
#193 = DIRECTION ( 'NONE',  ( -0.000000000000000000, -1.000000000000000000, -0.000000000000000000 ) ) ;
#194 =( NAMED_UNIT ( * ) SI_UNIT ( $, .STERADIAN. ) SOLID_ANGLE_UNIT ( ) );
#195 = ORIENTED_EDGE ( 'NONE', *, *, #327, .T. ) ;
#196 = LENGTH_MEASURE_WITH_UNIT ( LENGTH_MEASURE( 0.02539999999999999897 ), #372 );
#197 = STYLED_ITEM ( 'NONE', ( #32 ), #81 ) ;
#198 = CIRCLE ( 'NONE', #247, 0.1249999999999995143 ) ;
#199 = EDGE_LOOP ( 'NONE', ( #46, #344, #121, #143 ) ) ;
#200 = APPLICATION_PROTOCOL_DEFINITION ( 'draft international standard', 'automotive_design', 1998, #69 ) ;
#201 = CARTESIAN_POINT ( 'NONE',  ( -1.836970198721029688E-16, 4.000000000000000000, 0.000000000000000000 ) ) ;
#202 = ORIENTED_EDGE ( 'NONE', *, *, #266, .F. ) ;
#203 = ADVANCED_FACE ( 'NONE', ( #205 ), #335, .T. ) ;
#204 =( GEOMETRIC_REPRESENTATION_CONTEXT ( 3 ) GLOBAL_UNCERTAINTY_ASSIGNED_CONTEXT ( ( #108 ) ) GLOBAL_UNIT_ASSIGNED_CONTEXT ( ( #341, #125, #17 ) ) REPRESENTATION_CONTEXT ( 'NONE', 'WORKASPACE' ) );
#205 = FACE_OUTER_BOUND ( 'NONE', #3, .T. ) ;
#206 = ADVANCED_FACE ( 'NONE', ( #154 ), #191, .T. ) ;
#207 = EDGE_LOOP ( 'NONE', ( #282, #213 ) ) ;
#208 = SURFACE_STYLE_USAGE ( .BOTH. , #164 ) ;
#209 =( GEOMETRIC_REPRESENTATION_CONTEXT ( 3 ) GLOBAL_UNCERTAINTY_ASSIGNED_CONTEXT ( ( #100 ) ) GLOBAL_UNIT_ASSIGNED_CONTEXT ( ( #101, #223, #188 ) ) REPRESENTATION_CONTEXT ( 'NONE', 'WORKASPACE' ) );
#210 = DIRECTION ( 'NONE',  ( -1.000000000000000000, 0.000000000000000000, 0.000000000000000000 ) ) ;
#211 = FILL_AREA_STYLE_COLOUR ( '', #182 ) ;
#212 = FILL_AREA_STYLE ('',( #355 ) ) ;
#213 = ORIENTED_EDGE ( 'NONE', *, *, #277, .F. ) ;
#214 = CARTESIAN_POINT ( 'NONE',  ( -1.530808498934191509E-17, 0.1250000000000000000, 0.000000000000000000 ) ) ;
#215 = AXIS2_PLACEMENT_3D ( 'NONE', #354, #336, #210 ) ;
#216 = AXIS2_PLACEMENT_3D ( 'NONE', #52, #235, #315 ) ;
#217 = DIRECTION ( 'NONE',  ( -1.000000000000000000, 0.000000000000000000, 0.000000000000000000 ) ) ;
#218 = CARTESIAN_POINT ( 'NONE',  ( 0.000000000000000000, 1.750000000000000000, 0.000000000000000000 ) ) ;
#219 = EDGE_CURVE ( 'NONE', #160, #115, #110, .T. ) ;
#220 = DIRECTION ( 'NONE',  ( 0.000000000000000000, 0.000000000000000000, -1.000000000000000000 ) ) ;
#221 = PRESENTATION_STYLE_ASSIGNMENT (( #102 ) ) ;
#222 = AXIS2_PLACEMENT_3D ( 'NONE', #114, #128, #217 ) ;
#223 =( NAMED_UNIT ( * ) PLANE_ANGLE_UNIT ( ) SI_UNIT ( $, .RADIAN. ) );
#224 =( NAMED_UNIT ( * ) PLANE_ANGLE_UNIT ( ) SI_UNIT ( $, .RADIAN. ) );
#225 = EDGE_CURVE ( 'NONE', #105, #84, #359, .T. ) ;
#226 = ORIENTED_EDGE ( 'NONE', *, *, #266, .T. ) ;
#227 = CARTESIAN_POINT ( 'NONE',  ( 0.000000000000000000, 1.750000000000000000, 0.000000000000000000 ) ) ;
#228 = DIRECTION ( 'NONE',  ( -1.000000000000000000, 0.000000000000000000, 0.000000000000000000 ) ) ;
#229 = PRODUCT_DEFINITION_CONTEXT ( 'detailed design', #69, 'design' ) ;
#230 = FACE_OUTER_BOUND ( 'NONE', #265, .T. ) ;
#231 = PRESENTATION_STYLE_ASSIGNMENT (( #371 ) ) ;
#232 = FILL_AREA_STYLE ('',( #366 ) ) ;
#233 = ORIENTED_EDGE ( 'NONE', *, *, #10, .F. ) ;
#234 = EDGE_LOOP ( 'NONE', ( #226, #23 ) ) ;
#235 = DIRECTION ( 'NONE',  ( 0.000000000000000000, 0.000000000000000000, 1.000000000000000000 ) ) ;
#236 = MECHANICAL_DESIGN_GEOMETRIC_PRESENTATION_REPRESENTATION (  '', ( #34 ), #91 ) ;
#237 = AXIS2_PLACEMENT_3D ( 'NONE', #227, #151, #220 ) ;
#238 = EDGE_LOOP ( 'NONE', ( #49, #254 ) ) ;
#239 = LENGTH_MEASURE_WITH_UNIT ( LENGTH_MEASURE( 0.02539999999999999897 ), #123 );
#240 = CARTESIAN_POINT ( 'NONE',  ( 1.530808498934189968E-17, 0.000000000000000000, 0.1249999999999998751 ) ) ;
#241 =( GEOMETRIC_REPRESENTATION_CONTEXT ( 3 ) GLOBAL_UNCERTAINTY_ASSIGNED_CONTEXT ( ( #6 ) ) GLOBAL_UNIT_ASSIGNED_CONTEXT ( ( #294, #329, #149 ) ) REPRESENTATION_CONTEXT ( 'NONE', 'WORKASPACE' ) );
#242 = DIRECTION ( 'NONE',  ( -1.000000000000000000, 0.000000000000000000, 0.000000000000000000 ) ) ;
#243 = FACE_OUTER_BOUND ( 'NONE', #199, .T. ) ;
#244 = FACE_OUTER_BOUND ( 'NONE', #94, .T. ) ;
#245 = DIRECTION ( 'NONE',  ( -2.058076797766554415E-16, 1.000000000000000000, -0.000000000000000000 ) ) ;
#246 = PRESENTATION_STYLE_ASSIGNMENT (( #70 ) ) ;
#247 = AXIS2_PLACEMENT_3D ( 'NONE', #1, #112, #54 ) ;
#248 = CARTESIAN_POINT ( 'NONE',  ( -1.836970198721029688E-16, 4.000000000000000000, 0.000000000000000000 ) ) ;
#249 = LENGTH_MEASURE_WITH_UNIT ( LENGTH_MEASURE( 0.02539999999999999897 ), #42 );
#250 = SURFACE_STYLE_FILL_AREA ( #232 ) ;
#251 = DIRECTION ( 'NONE',  ( -1.000000000000000000, -2.058076797766554415E-16, 0.000000000000000000 ) ) ;
#252 = AXIS2_PLACEMENT_3D ( 'NONE', #218, #60, #178 ) ;
#253 = STYLED_ITEM ( 'NONE', ( #68 ), #305 ) ;
#254 = ORIENTED_EDGE ( 'NONE', *, *, #322, .F. ) ;
#255 = CARTESIAN_POINT ( 'NONE',  ( 0.1249999999999995698, 4.000000000000000000, 1.530808498934188736E-17 ) ) ;
#256 = FILL_AREA_STYLE ('',( #129 ) ) ;
#257 = EDGE_LOOP ( 'NONE', ( #75, #331, #162, #59 ) ) ;
#258 = DIRECTION ( 'NONE',  ( 2.058076797766554415E-16, -1.000000000000000000, 0.000000000000000000 ) ) ;
#259 = ORIENTED_EDGE ( 'NONE', *, *, #225, .T. ) ;
#260 = CIRCLE ( 'NONE', #113, 0.1249999999999999584 ) ;
#261 = EDGE_CURVE ( 'NONE', #115, #347, #130, .T. ) ;
#262 = CARTESIAN_POINT ( 'NONE',  ( 0.000000000000000000, 0.1250000000000000278, 0.000000000000000000 ) ) ;
#263 = DIMENSIONAL_EXPONENTS ( 1.000000000000000000, 0.000000000000000000, 0.000000000000000000, 0.000000000000000000, 0.000000000000000000, 0.000000000000000000, 0.000000000000000000 ) ;
#264 = ORIENTED_EDGE ( 'NONE', *, *, #322, .T. ) ;
#265 = EDGE_LOOP ( 'NONE', ( #340, #89, #175, #131, #88 ) ) ;
#266 = EDGE_CURVE ( 'NONE', #269, #171, #62, .T. ) ;
#267 = CARTESIAN_POINT ( 'NONE',  ( 0.000000000000000000, 0.000000000000000000, 0.000000000000000000 ) ) ;
#268 = CARTESIAN_POINT ( 'NONE',  ( -1.836970198721029688E-16, 4.000000000000000000, 0.000000000000000000 ) ) ;
#269 = VERTEX_POINT ( 'NONE', #166 ) ;
#270 = VECTOR ( 'NONE', #150, 39.37007874015748143 ) ;
#271 = DIRECTION ( 'NONE',  ( -2.058076797766554415E-16, 1.000000000000000000, -0.000000000000000000 ) ) ;
#272 = DIRECTION ( 'NONE',  ( -2.058076797766554415E-16, 1.000000000000000000, -0.000000000000000000 ) ) ;
#273 = SURFACE_STYLE_FILL_AREA ( #30 ) ;
#274 = AXIS2_PLACEMENT_3D ( 'NONE', #268, #271, #242 ) ;
#275 = LENGTH_MEASURE_WITH_UNIT ( LENGTH_MEASURE( 0.02539999999999999897 ), #159 );
#276 = COLOUR_RGB ( '',1.000000000000000000, 0.000000000000000000, 0.000000000000000000 ) ;
#277 = EDGE_CURVE ( 'NONE', #84, #105, #198, .T. ) ;
#278 = CARTESIAN_POINT ( 'NONE',  ( 1.530808498934190893E-17, 0.1250000000000000278, 0.1249999999999999584 ) ) ;
#279 = PLANE ( 'NONE',  #18 ) ;
#280 =( LENGTH_UNIT ( ) NAMED_UNIT ( * ) SI_UNIT ( $, .METRE. ) );
#281 = MECHANICAL_DESIGN_GEOMETRIC_PRESENTATION_REPRESENTATION (  '', ( #253 ), #168 ) ;
#282 = ORIENTED_EDGE ( 'NONE', *, *, #225, .F. ) ;
#283 = FILL_AREA_STYLE ('',( #314 ) ) ;
#284 = ADVANCED_FACE ( 'NONE', ( #170 ), #95, .T. ) ;
#285 = PRESENTATION_STYLE_ASSIGNMENT (( #208 ) ) ;
#286 = STYLED_ITEM ( 'NONE', ( #231 ), #284 ) ;
#287 = DIRECTION ( 'NONE',  ( -1.000000000000000000, 0.000000000000000000, 0.000000000000000000 ) ) ;
#288 = SURFACE_STYLE_FILL_AREA ( #87 ) ;
#289 = PRODUCT_RELATED_PRODUCT_CATEGORY ( 'part', '', ( #43 ) ) ;
#290 =( NAMED_UNIT ( * ) PLANE_ANGLE_UNIT ( ) SI_UNIT ( $, .RADIAN. ) );
#291 = AXIS2_PLACEMENT_3D ( 'NONE', #201, #317, #142 ) ;
#292 = FILL_AREA_STYLE_COLOUR ( '', #67 ) ;
#293 = SURFACE_STYLE_FILL_AREA ( #295 ) ;
#294 =( CONVERSION_BASED_UNIT ( 'INCH', #239 ) LENGTH_UNIT ( ) NAMED_UNIT ( #318 ) );
#295 = FILL_AREA_STYLE ('',( #211 ) ) ;
#296 =( CONVERSION_BASED_UNIT ( 'INCH', #99 ) LENGTH_UNIT ( ) NAMED_UNIT ( #179 ) );
#297 = PRESENTATION_LAYER_ASSIGNMENT (  '', '', ( #4 ) ) ;
#298 = AXIS2_PLACEMENT_3D ( 'NONE', #158, #133, #77 ) ;
#299 = CARTESIAN_POINT ( 'NONE',  ( -0.1250000000000000000, 0.1250000000000000278, 1.530808498934191201E-17 ) ) ;
#300 = SURFACE_SIDE_STYLE ('',( #330 ) ) ;
#301 = APPLICATION_PROTOCOL_DEFINITION ( 'draft international standard', 'automotive_design', 1998, #177 ) ;
#302 = DIRECTION ( 'NONE',  ( -2.058076797766554415E-16, 1.000000000000000000, -0.000000000000000000 ) ) ;
#303 = COLOUR_RGB ( '',1.000000000000000000, 0.000000000000000000, 0.000000000000000000 ) ;
#304 = STYLED_ITEM ( 'NONE', ( #246 ), #206 ) ;
#305 = MANIFOLD_SOLID_BREP ( 'Revolve - Cutting Edge', #167 ) ;
#306 = AXIS2_PLACEMENT_3D ( 'NONE', #38, #126, #308 ) ;
#307 = CARTESIAN_POINT ( 'NONE',  ( -1.530808498934191509E-17, 0.1250000000000000000, 0.000000000000000000 ) ) ;
#308 = DIRECTION ( 'NONE',  ( 1.000000000000000000, 0.000000000000000000, -1.224646799147353207E-16 ) ) ;
#309 = EDGE_CURVE ( 'NONE', #115, #367, #345, .T. ) ;
#310 =( CONVERSION_BASED_UNIT ( 'INCH', #249 ) LENGTH_UNIT ( ) NAMED_UNIT ( #349 ) );
#311 = CARTESIAN_POINT ( 'NONE',  ( 0.000000000000000000, 1.750000000000000000, -0.1249999999999997918 ) ) ;
#312 = CARTESIAN_POINT ( 'NONE',  ( 2.793702596253717253E-16, 1.750000000000000000, 0.000000000000000000 ) ) ;
#313 = PRESENTATION_LAYER_ASSIGNMENT (  '', '', ( #34 ) ) ;
#314 = FILL_AREA_STYLE_COLOUR ( '', #90 ) ;
#315 = DIRECTION ( 'NONE',  ( 1.000000000000000000, 0.000000000000000000, 0.000000000000000000 ) ) ;
#316 = VERTEX_POINT ( 'NONE', #299 ) ;
#317 = DIRECTION ( 'NONE',  ( -2.058076797766554415E-16, 1.000000000000000000, -0.000000000000000000 ) ) ;
#318 = DIMENSIONAL_EXPONENTS ( 1.000000000000000000, 0.000000000000000000, 0.000000000000000000, 0.000000000000000000, 0.000000000000000000, 0.000000000000000000, 0.000000000000000000 ) ;
#319 = AXIS2_PLACEMENT_3D ( 'NONE', #61, #328, #119 ) ;
#320 =( GEOMETRIC_REPRESENTATION_CONTEXT ( 3 ) GLOBAL_UNCERTAINTY_ASSIGNED_CONTEXT ( ( #15 ) ) GLOBAL_UNIT_ASSIGNED_CONTEXT ( ( #107, #224, #194 ) ) REPRESENTATION_CONTEXT ( 'NONE', 'WORKASPACE' ) );
#321 = DIRECTION ( 'NONE',  ( -0.000000000000000000, -1.000000000000000000, -0.000000000000000000 ) ) ;
#322 = EDGE_CURVE ( 'NONE', #26, #2, #156, .T. ) ;
#323 = DIMENSIONAL_EXPONENTS ( 1.000000000000000000, 0.000000000000000000, 0.000000000000000000, 0.000000000000000000, 0.000000000000000000, 0.000000000000000000, 0.000000000000000000 ) ;
#324 = ADVANCED_FACE ( 'NONE', ( #187 ), #186, .F. ) ;
#325 =( NAMED_UNIT ( * ) SI_UNIT ( $, .STERADIAN. ) SOLID_ANGLE_UNIT ( ) );
#326 = CIRCLE ( 'NONE', #215, 0.1249999999999999861 ) ;
#327 = EDGE_CURVE ( 'NONE', #2, #160, #76, .T. ) ;
#328 = DIRECTION ( 'NONE',  ( 0.000000000000000000, 1.000000000000000000, 0.000000000000000000 ) ) ;
#329 =( NAMED_UNIT ( * ) PLANE_ANGLE_UNIT ( ) SI_UNIT ( $, .RADIAN. ) );
#330 = SURFACE_STYLE_FILL_AREA ( #212 ) ;
#331 = ORIENTED_EDGE ( 'NONE', *, *, #351, .T. ) ;
#332 = DIRECTION ( 'NONE',  ( 1.000000000000000000, 0.000000000000000000, 0.000000000000000000 ) ) ;
#333 = DIRECTION ( 'NONE',  ( 0.000000000000000000, 0.000000000000000000, -1.000000000000000000 ) ) ;
#334 = UNCERTAINTY_MEASURE_WITH_UNIT (LENGTH_MEASURE( 1.000000000000000082E-05 ), #368, 'distance_accuracy_value', 'NONE');
#335 = CYLINDRICAL_SURFACE ( 'NONE', #86, 0.1249999999999997641 ) ;
#336 = DIRECTION ( 'NONE',  ( -2.058076797766554415E-16, 1.000000000000000000, -0.000000000000000000 ) ) ;
#337 =( NAMED_UNIT ( * ) SI_UNIT ( $, .STERADIAN. ) SOLID_ANGLE_UNIT ( ) );
#338 = PRESENTATION_LAYER_ASSIGNMENT (  '', '', ( #286 ) ) ;
#339 = EDGE_CURVE ( 'NONE', #84, #171, #362, .T. ) ;
#340 = ORIENTED_EDGE ( 'NONE', *, *, #56, .T. ) ;
#341 =( CONVERSION_BASED_UNIT ( 'INCH', #104 ) LENGTH_UNIT ( ) NAMED_UNIT ( #176 ) );
#342 = CYLINDRICAL_SURFACE ( 'NONE', #103, 0.1249999999999998751 ) ;
#343 = PRESENTATION_LAYER_ASSIGNMENT (  '', '', ( #197 ) ) ;
#344 = ORIENTED_EDGE ( 'NONE', *, *, #10, .T. ) ;
#345 = CIRCLE ( 'NONE', #222, 0.1250000000000000000 ) ;
#346 = FILL_AREA_STYLE_COLOUR ( '', #276 ) ;
#347 = VERTEX_POINT ( 'NONE', #278 ) ;
#348 = ADVANCED_BREP_SHAPE_REPRESENTATION ( '86079', ( #305, #181, #216 ), #204 ) ;
#349 = DIMENSIONAL_EXPONENTS ( 1.000000000000000000, 0.000000000000000000, 0.000000000000000000, 0.000000000000000000, 0.000000000000000000, 0.000000000000000000, 0.000000000000000000 ) ;
#350 = DIRECTION ( 'NONE',  ( 0.000000000000000000, 0.000000000000000000, -1.000000000000000000 ) ) ;
#351 = EDGE_CURVE ( 'NONE', #316, #367, #14, .T. ) ;
#352 = CARTESIAN_POINT ( 'NONE',  ( 0.1249999999999998057, 1.750000000000000000, 1.530808498934189968E-17 ) ) ;
#353 = AXIS2_PLACEMENT_3D ( 'NONE', #365, #193, #19 ) ;
#354 = CARTESIAN_POINT ( 'NONE',  ( -1.836970198721029688E-16, 4.000000000000000000, 0.000000000000000000 ) ) ;
#355 = FILL_AREA_STYLE_COLOUR ( '', #303 ) ;
#356 = EDGE_LOOP ( 'NONE', ( #20, #264, #195, #233, #55 ) ) ;
#357 =( LENGTH_UNIT ( ) NAMED_UNIT ( * ) SI_UNIT ( $, .METRE. ) );
#358 = EDGE_CURVE ( 'NONE', #105, #269, #98, .T. ) ;
#359 = CIRCLE ( 'NONE', #97, 0.1249999999999995143 ) ;
#360 = SURFACE_SIDE_STYLE ('',( #293 ) ) ;
#361 = UNCERTAINTY_MEASURE_WITH_UNIT (LENGTH_MEASURE( 1.000000000000000082E-05 ), #296, 'distance_accuracy_value', 'NONE');
#362 = LINE ( 'NONE', #255, #174 ) ;
#363 = SURFACE_SIDE_STYLE ('',( #250 ) ) ;
#364 = DIRECTION ( 'NONE',  ( -0.000000000000000000, -1.000000000000000000, -0.000000000000000000 ) ) ;
#365 = CARTESIAN_POINT ( 'NONE',  ( 0.000000000000000000, 0.000000000000000000, 0.000000000000000000 ) ) ;
#366 = FILL_AREA_STYLE_COLOUR ( '', #92 ) ;
#367 = VERTEX_POINT ( 'NONE', #12 ) ;
#368 =( CONVERSION_BASED_UNIT ( 'INCH', #196 ) LENGTH_UNIT ( ) NAMED_UNIT ( #145 ) );
#369 = UNCERTAINTY_MEASURE_WITH_UNIT (LENGTH_MEASURE( 1.000000000000000082E-05 ), #310, 'distance_accuracy_value', 'NONE');
#370 = ORIENTED_EDGE ( 'NONE', *, *, #358, .T. ) ;
#371 = SURFACE_STYLE_USAGE ( .BOTH. , #137 ) ;
#372 =( LENGTH_UNIT ( ) NAMED_UNIT ( * ) SI_UNIT ( $, .METRE. ) );
#373 =( LENGTH_UNIT ( ) NAMED_UNIT ( * ) SI_UNIT ( $, .METRE. ) );
ENDSEC;
END-ISO-10303-21;
