ISO-10303-21;
HEADER;
FILE_DESCRIPTION (( 'STEP AP214' ),
    '1' );
FILE_NAME ('30257.STEP',
    '2023-06-22T18:14:49',
    ( '' ),
    ( '' ),
    'SwSTEP 2.0',
    'SolidWorks 2023',
    '' );
FILE_SCHEMA (( 'AUTOMOTIVE_DESIGN' ));
ENDSEC;

DATA;
#1 = CIRCLE ( 'NONE', #92, 0.1562500000000000000 ) ;
#2 = CARTESIAN_POINT ( 'NONE',  ( 0.000000000000000000, 1.250000000000000000, 0.000000000000000000 ) ) ;
#3 =( LENGTH_UNIT ( ) NAMED_UNIT ( * ) SI_UNIT ( $, .METRE. ) );
#4 =( CONVERSION_BASED_UNIT ( 'INCH', #263 ) LENGTH_UNIT ( ) NAMED_UNIT ( #69 ) );
#5 = STYLED_ITEM ( 'NONE', ( #274 ), #52 ) ;
#6 = CARTESIAN_POINT ( 'NONE',  ( 0.000000000000000000, 1.250000000000000000, 0.000000000000000000 ) ) ;
#7 = FACE_OUTER_BOUND ( 'NONE', #64, .T. ) ;
#8 = EDGE_CURVE ( 'NONE', #268, #303, #186, .T. ) ;
#9 = DIRECTION ( 'NONE',  ( 0.000000000000000000, 0.000000000000000000, -1.000000000000000000 ) ) ;
#10 = ORIENTED_EDGE ( 'NONE', *, *, #204, .T. ) ;
#11 =( CONVERSION_BASED_UNIT ( 'INCH', #211 ) LENGTH_UNIT ( ) NAMED_UNIT ( #305 ) );
#12 = STYLED_ITEM ( 'NONE', ( #61 ), #122 ) ;
#13 = SHAPE_DEFINITION_REPRESENTATION ( #177, #149 ) ;
#14 = ORIENTED_EDGE ( 'NONE', *, *, #110, .T. ) ;
#15 = AXIS2_PLACEMENT_3D ( 'NONE', #58, #162, #99 ) ;
#16 = ORIENTED_EDGE ( 'NONE', *, *, #197, .T. ) ;
#17 =( LENGTH_UNIT ( ) NAMED_UNIT ( * ) SI_UNIT ( $, .METRE. ) );
#18 = LENGTH_MEASURE_WITH_UNIT ( LENGTH_MEASURE( 0.02539999999999999897 ), #281 );
#19 =( GEOMETRIC_REPRESENTATION_CONTEXT ( 3 ) GLOBAL_UNCERTAINTY_ASSIGNED_CONTEXT ( ( #40 ) ) GLOBAL_UNIT_ASSIGNED_CONTEXT ( ( #23, #57, #148 ) ) REPRESENTATION_CONTEXT ( 'NONE', 'WORKASPACE' ) );
#20 =( NAMED_UNIT ( * ) SI_UNIT ( $, .STERADIAN. ) SOLID_ANGLE_UNIT ( ) );
#21 = PRESENTATION_STYLE_ASSIGNMENT (( #256 ) ) ;
#22 = EDGE_CURVE ( 'NONE', #243, #79, #250, .T. ) ;
#23 =( CONVERSION_BASED_UNIT ( 'INCH', #198 ) LENGTH_UNIT ( ) NAMED_UNIT ( #288 ) );
#24 = DIRECTION ( 'NONE',  ( -3.498990854706726443E-17, 1.000000000000000000, -0.000000000000000000 ) ) ;
#25 = LENGTH_MEASURE_WITH_UNIT ( LENGTH_MEASURE( 0.02539999999999999897 ), #17 );
#26 = MANIFOLD_SOLID_BREP ( 'Revolve - Cutting Edge', #176 ) ;
#27 = LENGTH_MEASURE_WITH_UNIT ( LENGTH_MEASURE( 0.02539999999999999897 ), #103 );
#28 = AXIS2_PLACEMENT_3D ( 'NONE', #145, #147, #85 ) ;
#29 = SURFACE_STYLE_USAGE ( .BOTH. , #166 ) ;
#30 = CARTESIAN_POINT ( 'NONE',  ( 1.913510623667739463E-17, 0.000000000000000000, 0.1562500000000000000 ) ) ;
#31 = ORIENTED_EDGE ( 'NONE', *, *, #110, .F. ) ;
#32 = DIRECTION ( 'NONE',  ( -3.498990854706726443E-17, 1.000000000000000000, -0.000000000000000000 ) ) ;
#33 = VERTEX_POINT ( 'NONE', #30 ) ;
#34 =( NAMED_UNIT ( * ) SI_UNIT ( $, .STERADIAN. ) SOLID_ANGLE_UNIT ( ) );
#35 = LINE ( 'NONE', #184, #105 ) ;
#36 = LINE ( 'NONE', #54, #37 ) ;
#37 = VECTOR ( 'NONE', #78, 39.37007874015748143 ) ;
#38 = ORIENTED_EDGE ( 'NONE', *, *, #204, .F. ) ;
#39 = COLOUR_RGB ( '',1.000000000000000000, 0.000000000000000000, 0.000000000000000000 ) ;
#40 = UNCERTAINTY_MEASURE_WITH_UNIT (LENGTH_MEASURE( 1.000000000000000082E-05 ), #23, 'distance_accuracy_value', 'NONE');
#41 = PRESENTATION_STYLE_ASSIGNMENT (( #29 ) ) ;
#42 = ORIENTED_EDGE ( 'NONE', *, *, #22, .T. ) ;
#43 = CARTESIAN_POINT ( 'NONE',  ( 0.000000000000000000, 1.250000000000000000, 0.000000000000000000 ) ) ;
#44 = CIRCLE ( 'NONE', #253, 0.1562500000000000000 ) ;
#45 = DIRECTION ( 'NONE',  ( -0.000000000000000000, -1.000000000000000000, -0.000000000000000000 ) ) ;
#46 = LINE ( 'NONE', #127, #276 ) ;
#47 = STYLED_ITEM ( 'NONE', ( #21 ), #26 ) ;
#48 = APPLICATION_CONTEXT ( 'automotive_design' ) ;
#49 = CIRCLE ( 'NONE', #155, 0.1562500000000000000 ) ;
#50 = ADVANCED_FACE ( 'NONE', ( #71 ), #248, .T. ) ;
#51 = PRESENTATION_STYLE_ASSIGNMENT (( #307 ) ) ;
#52 = ADVANCED_FACE ( 'NONE', ( #7 ), #210, .T. ) ;
#53 = FILL_AREA_STYLE_COLOUR ( '', #66 ) ;
#54 = CARTESIAN_POINT ( 'NONE',  ( 1.913510623667739463E-17, 0.000000000000000000, 0.1562500000000000000 ) ) ;
#55 = VECTOR ( 'NONE', #32, 39.37007874015748143 ) ;
#56 = ORIENTED_EDGE ( 'NONE', *, *, #293, .F. ) ;
#57 =( NAMED_UNIT ( * ) PLANE_ANGLE_UNIT ( ) SI_UNIT ( $, .RADIAN. ) );
#58 = CARTESIAN_POINT ( 'NONE',  ( 0.000000000000000000, 0.000000000000000000, 0.000000000000000000 ) ) ;
#59 = FILL_AREA_STYLE_COLOUR ( '', #39 ) ;
#60 = SURFACE_STYLE_USAGE ( .BOTH. , #119 ) ;
#61 = PRESENTATION_STYLE_ASSIGNMENT (( #270 ) ) ;
#62 = EDGE_LOOP ( 'NONE', ( #215, #304 ) ) ;
#63 = PRESENTATION_LAYER_ASSIGNMENT (  '', '', ( #102 ) ) ;
#64 = EDGE_LOOP ( 'NONE', ( #295, #121, #16, #38 ) ) ;
#65 = PLANE ( 'NONE',  #75 ) ;
#66 = COLOUR_RGB ( '',1.000000000000000000, 0.000000000000000000, 0.000000000000000000 ) ;
#67 = FACE_OUTER_BOUND ( 'NONE', #124, .T. ) ;
#68 = FACE_OUTER_BOUND ( 'NONE', #161, .T. ) ;
#69 = DIMENSIONAL_EXPONENTS ( 1.000000000000000000, 0.000000000000000000, 0.000000000000000000, 0.000000000000000000, 0.000000000000000000, 0.000000000000000000, 0.000000000000000000 ) ;
#70 =( CONVERSION_BASED_UNIT ( 'INCH', #27 ) LENGTH_UNIT ( ) NAMED_UNIT ( #106 ) );
#71 = FACE_OUTER_BOUND ( 'NONE', #262, .T. ) ;
#72 = SURFACE_STYLE_FILL_AREA ( #152 ) ;
#73 = SURFACE_STYLE_USAGE ( .BOTH. , #125 ) ;
#74 = DIRECTION ( 'NONE',  ( 0.000000000000000000, 0.000000000000000000, -1.000000000000000000 ) ) ;
#75 = AXIS2_PLACEMENT_3D ( 'NONE', #226, #252, #174 ) ;
#76 = ORIENTED_EDGE ( 'NONE', *, *, #298, .T. ) ;
#77 = EDGE_CURVE ( 'NONE', #91, #277, #258, .T. ) ;
#78 = DIRECTION ( 'NONE',  ( -0.000000000000000000, -1.000000000000000000, -0.000000000000000000 ) ) ;
#79 = VERTEX_POINT ( 'NONE', #123 ) ;
#80 = FILL_AREA_STYLE ('',( #241 ) ) ;
#81 = DIRECTION ( 'NONE',  ( -1.000000000000000000, 0.000000000000000000, 0.000000000000000000 ) ) ;
#82 = AXIS2_PLACEMENT_3D ( 'NONE', #2, #138, #296 ) ;
#83 = DIRECTION ( 'NONE',  ( 1.000000000000000000, 0.000000000000000000, 0.000000000000000000 ) ) ;
#84 = AXIS2_PLACEMENT_3D ( 'NONE', #190, #213, #209 ) ;
#85 = DIRECTION ( 'NONE',  ( -1.000000000000000000, -3.498990854706726443E-17, 0.000000000000000000 ) ) ;
#86 = PRODUCT_RELATED_PRODUCT_CATEGORY ( 'part', '', ( #202 ) ) ;
#87 =( NAMED_UNIT ( * ) PLANE_ANGLE_UNIT ( ) SI_UNIT ( $, .RADIAN. ) );
#88 = FILL_AREA_STYLE_COLOUR ( '', #291 ) ;
#89 = EDGE_CURVE ( 'NONE', #303, #33, #36, .T. ) ;
#90 = CARTESIAN_POINT ( 'NONE',  ( 0.000000000000000000, 0.000000000000000000, 0.000000000000000000 ) ) ;
#91 = VERTEX_POINT ( 'NONE', #94 ) ;
#92 = AXIS2_PLACEMENT_3D ( 'NONE', #285, #156, #74 ) ;
#93 = CYLINDRICAL_SURFACE ( 'NONE', #118, 0.1562500000000000000 ) ;
#94 = CARTESIAN_POINT ( 'NONE',  ( -0.1562500000000000000, 1.250000000000000000, 0.000000000000000000 ) ) ;
#95 = CARTESIAN_POINT ( 'NONE',  ( -6.123233995736772199E-17, 3.000000000000000444, 0.000000000000000000 ) ) ;
#96 =( NAMED_UNIT ( * ) PLANE_ANGLE_UNIT ( ) SI_UNIT ( $, .RADIAN. ) );
#97 = SURFACE_STYLE_FILL_AREA ( #269 ) ;
#98 = PRESENTATION_LAYER_ASSIGNMENT (  '', '', ( #232 ) ) ;
#99 = DIRECTION ( 'NONE',  ( 0.000000000000000000, 0.000000000000000000, -1.000000000000000000 ) ) ;
#100 =( CONVERSION_BASED_UNIT ( 'INCH', #192 ) LENGTH_UNIT ( ) NAMED_UNIT ( #255 ) );
#101 = PRESENTATION_LAYER_ASSIGNMENT (  '', '', ( #47 ) ) ;
#102 = STYLED_ITEM ( 'NONE', ( #294 ), #229 ) ;
#103 =( LENGTH_UNIT ( ) NAMED_UNIT ( * ) SI_UNIT ( $, .METRE. ) );
#104 =( NAMED_UNIT ( * ) SI_UNIT ( $, .STERADIAN. ) SOLID_ANGLE_UNIT ( ) );
#105 = VECTOR ( 'NONE', #137, 39.37007874015748143 ) ;
#106 = DIMENSIONAL_EXPONENTS ( 1.000000000000000000, 0.000000000000000000, 0.000000000000000000, 0.000000000000000000, 0.000000000000000000, 0.000000000000000000, 0.000000000000000000 ) ;
#107 = CARTESIAN_POINT ( 'NONE',  ( 0.000000000000000000, 0.000000000000000000, 0.000000000000000000 ) ) ;
#108 = DIRECTION ( 'NONE',  ( 0.000000000000000000, 0.000000000000000000, 1.000000000000000000 ) ) ;
#109 = CARTESIAN_POINT ( 'NONE',  ( 0.000000000000000000, 1.250000000000000000, 0.000000000000000000 ) ) ;
#110 = EDGE_CURVE ( 'NONE', #277, #91, #44, .T. ) ;
#111 = DIRECTION ( 'NONE',  ( -1.000000000000000000, 0.000000000000000000, 0.000000000000000000 ) ) ;
#112 = COLOUR_RGB ( '',1.000000000000000000, 0.000000000000000000, 0.000000000000000000 ) ;
#113 = DIRECTION ( 'NONE',  ( 0.000000000000000000, -0.000000000000000000, 1.000000000000000000 ) ) ;
#114 = CARTESIAN_POINT ( 'NONE',  ( 0.1562500000000000000, 1.250000000000000000, 1.913510623667739771E-17 ) ) ;
#115 = SURFACE_STYLE_FILL_AREA ( #142 ) ;
#116 = EDGE_LOOP ( 'NONE', ( #264, #172, #56, #245 ) ) ;
#117 = PLANE ( 'NONE',  #141 ) ;
#118 = AXIS2_PLACEMENT_3D ( 'NONE', #107, #280, #306 ) ;
#119 = SURFACE_SIDE_STYLE ('',( #115 ) ) ;
#120 = PRODUCT_DEFINITION_CONTEXT ( 'detailed design', #48, 'design' ) ;
#121 = ORIENTED_EDGE ( 'NONE', *, *, #308, .T. ) ;
#122 = MANIFOLD_SOLID_BREP ( 'Revolve - Tool Body (Straight Shanked)', #251 ) ;
#123 = CARTESIAN_POINT ( 'NONE',  ( 0.1562500000000000000, 3.000000000000000444, 1.913510623667739771E-17 ) ) ;
#124 = EDGE_LOOP ( 'NONE', ( #135, #31 ) ) ;
#125 = SURFACE_SIDE_STYLE ('',( #97 ) ) ;
#126 = CARTESIAN_POINT ( 'NONE',  ( 0.000000000000000000, 0.000000000000000000, 0.000000000000000000 ) ) ;
#127 = CARTESIAN_POINT ( 'NONE',  ( 0.000000000000000000, 0.000000000000000000, -0.1562500000000000000 ) ) ;
#128 = PRODUCT_DEFINITION ( 'UNKNOWN', '', #196, #120 ) ;
#129 = MECHANICAL_DESIGN_GEOMETRIC_PRESENTATION_REPRESENTATION (  '', ( #232 ), #193 ) ;
#130 = DIRECTION ( 'NONE',  ( -0.000000000000000000, -1.000000000000000000, -0.000000000000000000 ) ) ;
#131 = CARTESIAN_POINT ( 'NONE',  ( 0.000000000000000000, 0.000000000000000000, 0.000000000000000000 ) ) ;
#132 = DIRECTION ( 'NONE',  ( -3.498990854706726443E-17, 1.000000000000000000, -0.000000000000000000 ) ) ;
#133 = COLOUR_RGB ( '',0.7921568627450980005, 0.8196078431372548767, 0.9333333333333333481 ) ;
#134 = FILL_AREA_STYLE_COLOUR ( '', #133 ) ;
#135 = ORIENTED_EDGE ( 'NONE', *, *, #77, .F. ) ;
#136 = ADVANCED_FACE ( 'NONE', ( #68 ), #65, .F. ) ;
#137 = DIRECTION ( 'NONE',  ( -3.498990854706726443E-17, 1.000000000000000000, -0.000000000000000000 ) ) ;
#138 = DIRECTION ( 'NONE',  ( -3.498990854706726443E-17, 1.000000000000000000, -0.000000000000000000 ) ) ;
#139 =( LENGTH_UNIT ( ) NAMED_UNIT ( * ) SI_UNIT ( $, .METRE. ) );
#140 = ORIENTED_EDGE ( 'NONE', *, *, #224, .F. ) ;
#141 = AXIS2_PLACEMENT_3D ( 'NONE', #6, #191, #113 ) ;
#142 = FILL_AREA_STYLE ('',( #157 ) ) ;
#143 = UNCERTAINTY_MEASURE_WITH_UNIT (LENGTH_MEASURE( 1.000000000000000082E-05 ), #70, 'distance_accuracy_value', 'NONE');
#144 = EDGE_LOOP ( 'NONE', ( #178, #254, #225, #283 ) ) ;
#145 = CARTESIAN_POINT ( 'NONE',  ( 9.564794532282272738E-35, 1.250000000000000000, 0.000000000000000000 ) ) ;
#146 = AXIS2_PLACEMENT_3D ( 'NONE', #181, #132, #111 ) ;
#147 = DIRECTION ( 'NONE',  ( -3.498990854706726443E-17, 1.000000000000000000, 0.000000000000000000 ) ) ;
#148 =( NAMED_UNIT ( * ) SI_UNIT ( $, .STERADIAN. ) SOLID_ANGLE_UNIT ( ) );
#149 = ADVANCED_BREP_SHAPE_REPRESENTATION ( '30257', ( #26, #122, #175 ), #187 ) ;
#150 = CARTESIAN_POINT ( 'NONE',  ( 0.000000000000000000, 0.000000000000000000, -0.1562500000000000000 ) ) ;
#151 =( GEOMETRIC_REPRESENTATION_CONTEXT ( 3 ) GLOBAL_UNCERTAINTY_ASSIGNED_CONTEXT ( ( #260 ) ) GLOBAL_UNIT_ASSIGNED_CONTEXT ( ( #11, #188, #34 ) ) REPRESENTATION_CONTEXT ( 'NONE', 'WORKASPACE' ) );
#152 = FILL_AREA_STYLE ('',( #53 ) ) ;
#153 = SURFACE_STYLE_FILL_AREA ( #206 ) ;
#154 = FACE_OUTER_BOUND ( 'NONE', #116, .T. ) ;
#155 = AXIS2_PLACEMENT_3D ( 'NONE', #90, #282, #180 ) ;
#156 = DIRECTION ( 'NONE',  ( -0.000000000000000000, -1.000000000000000000, -0.000000000000000000 ) ) ;
#157 = FILL_AREA_STYLE_COLOUR ( '', #112 ) ;
#158 = PRESENTATION_LAYER_ASSIGNMENT (  '', '', ( #5 ) ) ;
#159 = COLOUR_RGB ( '',1.000000000000000000, 0.000000000000000000, 0.000000000000000000 ) ;
#160 = SURFACE_STYLE_FILL_AREA ( #80 ) ;
#161 = EDGE_LOOP ( 'NONE', ( #42, #76 ) ) ;
#162 = DIRECTION ( 'NONE',  ( -0.000000000000000000, -1.000000000000000000, -0.000000000000000000 ) ) ;
#163 = ADVANCED_FACE ( 'NONE', ( #67 ), #200, .F. ) ;
#164 = DIRECTION ( 'NONE',  ( -3.498990854706726443E-17, 1.000000000000000000, -0.000000000000000000 ) ) ;
#165 = APPLICATION_CONTEXT ( 'automotive_design' ) ;
#166 = SURFACE_SIDE_STYLE ('',( #160 ) ) ;
#167 = CIRCLE ( 'NONE', #240, 0.1562500000000000833 ) ;
#168 =( NAMED_UNIT ( * ) PLANE_ANGLE_UNIT ( ) SI_UNIT ( $, .RADIAN. ) );
#169 = UNCERTAINTY_MEASURE_WITH_UNIT (LENGTH_MEASURE( 1.000000000000000082E-05 ), #100, 'distance_accuracy_value', 'NONE');
#170 = ORIENTED_EDGE ( 'NONE', *, *, #298, .F. ) ;
#171 =( NAMED_UNIT ( * ) SI_UNIT ( $, .STERADIAN. ) SOLID_ANGLE_UNIT ( ) );
#172 = ORIENTED_EDGE ( 'NONE', *, *, #89, .T. ) ;
#173 = APPLICATION_PROTOCOL_DEFINITION ( 'draft international standard', 'automotive_design', 1998, #48 ) ;
#174 = DIRECTION ( 'NONE',  ( 1.000000000000000000, 3.498990854706726443E-17, 0.000000000000000000 ) ) ;
#175 = AXIS2_PLACEMENT_3D ( 'NONE', #126, #108, #83 ) ;
#176 = CLOSED_SHELL ( 'NONE', ( #199, #229, #52, #231 ) ) ;
#177 = PRODUCT_DEFINITION_SHAPE ( 'NONE', 'NONE',  #128 ) ;
#178 = ORIENTED_EDGE ( 'NONE', *, *, #77, .T. ) ;
#179 = DIMENSIONAL_EXPONENTS ( 1.000000000000000000, 0.000000000000000000, 0.000000000000000000, 0.000000000000000000, 0.000000000000000000, 0.000000000000000000, 0.000000000000000000 ) ;
#180 = DIRECTION ( 'NONE',  ( 0.000000000000000000, 0.000000000000000000, -1.000000000000000000 ) ) ;
#181 = CARTESIAN_POINT ( 'NONE',  ( -6.123233995736772199E-17, 3.000000000000000444, 0.000000000000000000 ) ) ;
#182 = AXIS2_PLACEMENT_3D ( 'NONE', #109, #201, #279 ) ;
#183 = CARTESIAN_POINT ( 'NONE',  ( -6.123233995736772199E-17, 3.000000000000000444, 0.000000000000000000 ) ) ;
#184 = CARTESIAN_POINT ( 'NONE',  ( -0.1562500000000001110, 3.000000000000000444, 0.000000000000000000 ) ) ;
#185 = LINE ( 'NONE', #286, #55 ) ;
#186 = CIRCLE ( 'NONE', #182, 0.1562500000000000000 ) ;
#187 =( GEOMETRIC_REPRESENTATION_CONTEXT ( 3 ) GLOBAL_UNCERTAINTY_ASSIGNED_CONTEXT ( ( #169 ) ) GLOBAL_UNIT_ASSIGNED_CONTEXT ( ( #100, #168, #171 ) ) REPRESENTATION_CONTEXT ( 'NONE', 'WORKASPACE' ) );
#188 =( NAMED_UNIT ( * ) PLANE_ANGLE_UNIT ( ) SI_UNIT ( $, .RADIAN. ) );
#189 = VERTEX_POINT ( 'NONE', #150 ) ;
#190 = CARTESIAN_POINT ( 'NONE',  ( -6.123233995736772199E-17, 3.000000000000000444, 0.000000000000000000 ) ) ;
#191 = DIRECTION ( 'NONE',  ( 0.000000000000000000, 1.000000000000000000, 0.000000000000000000 ) ) ;
#192 = LENGTH_MEASURE_WITH_UNIT ( LENGTH_MEASURE( 0.02539999999999999897 ), #218 );
#193 =( GEOMETRIC_REPRESENTATION_CONTEXT ( 3 ) GLOBAL_UNCERTAINTY_ASSIGNED_CONTEXT ( ( #220 ) ) GLOBAL_UNIT_ASSIGNED_CONTEXT ( ( #234, #237, #230 ) ) REPRESENTATION_CONTEXT ( 'NONE', 'WORKASPACE' ) );
#194 = MECHANICAL_DESIGN_GEOMETRIC_PRESENTATION_REPRESENTATION (  '', ( #102 ), #151 ) ;
#195 = PRODUCT_CONTEXT ( 'NONE', #165, 'mechanical' ) ;
#196 = PRODUCT_DEFINITION_FORMATION_WITH_SPECIFIED_SOURCE ( 'ANY', '', #202, .NOT_KNOWN. ) ;
#197 = EDGE_CURVE ( 'NONE', #268, #189, #46, .T. ) ;
#198 = LENGTH_MEASURE_WITH_UNIT ( LENGTH_MEASURE( 0.02539999999999999897 ), #3 );
#199 = ADVANCED_FACE ( 'NONE', ( #154 ), #93, .T. ) ;
#200 = PLANE ( 'NONE',  #28 ) ;
#201 = DIRECTION ( 'NONE',  ( -0.000000000000000000, -1.000000000000000000, -0.000000000000000000 ) ) ;
#202 = PRODUCT ( '30257', '30257', '', ( #195 ) ) ;
#203 =( NAMED_UNIT ( * ) PLANE_ANGLE_UNIT ( ) SI_UNIT ( $, .RADIAN. ) );
#204 = EDGE_CURVE ( 'NONE', #33, #189, #49, .T. ) ;
#205 = DIRECTION ( 'NONE',  ( -1.000000000000000000, 0.000000000000000000, 0.000000000000000000 ) ) ;
#206 = FILL_AREA_STYLE ('',( #88 ) ) ;
#207 = MECHANICAL_DESIGN_GEOMETRIC_PRESENTATION_REPRESENTATION (  '', ( #5 ), #272 ) ;
#208 = ADVANCED_FACE ( 'NONE', ( #284 ), #261, .T. ) ;
#209 = DIRECTION ( 'NONE',  ( -1.000000000000000000, 0.000000000000000000, 0.000000000000000000 ) ) ;
#210 = CYLINDRICAL_SURFACE ( 'NONE', #15, 0.1562500000000000000 ) ;
#211 = LENGTH_MEASURE_WITH_UNIT ( LENGTH_MEASURE( 0.02539999999999999897 ), #221 );
#212 = CARTESIAN_POINT ( 'NONE',  ( 1.913510623667739463E-17, 1.250000000000000000, 0.1562500000000000000 ) ) ;
#213 = DIRECTION ( 'NONE',  ( -3.498990854706726443E-17, 1.000000000000000000, -0.000000000000000000 ) ) ;
#214 = UNCERTAINTY_MEASURE_WITH_UNIT (LENGTH_MEASURE( 1.000000000000000082E-05 ), #257, 'distance_accuracy_value', 'NONE');
#215 = ORIENTED_EDGE ( 'NONE', *, *, #8, .F. ) ;
#216 = DIRECTION ( 'NONE',  ( 0.000000000000000000, -1.000000000000000000, -0.000000000000000000 ) ) ;
#217 = ORIENTED_EDGE ( 'NONE', *, *, #275, .T. ) ;
#218 =( LENGTH_UNIT ( ) NAMED_UNIT ( * ) SI_UNIT ( $, .METRE. ) );
#219 = SURFACE_SIDE_STYLE ('',( #242 ) ) ;
#220 = UNCERTAINTY_MEASURE_WITH_UNIT (LENGTH_MEASURE( 1.000000000000000082E-05 ), #234, 'distance_accuracy_value', 'NONE');
#221 =( LENGTH_UNIT ( ) NAMED_UNIT ( * ) SI_UNIT ( $, .METRE. ) );
#222 = PRESENTATION_LAYER_ASSIGNMENT (  '', '', ( #12 ) ) ;
#223 = PRESENTATION_LAYER_ASSIGNMENT (  '', '', ( #228 ) ) ;
#224 = EDGE_CURVE ( 'NONE', #277, #79, #185, .T. ) ;
#225 = ORIENTED_EDGE ( 'NONE', *, *, #22, .F. ) ;
#226 = CARTESIAN_POINT ( 'NONE',  ( 0.1562500000000000000, 3.000000000000000444, 0.000000000000000000 ) ) ;
#227 =( GEOMETRIC_REPRESENTATION_CONTEXT ( 3 ) GLOBAL_UNCERTAINTY_ASSIGNED_CONTEXT ( ( #214 ) ) GLOBAL_UNIT_ASSIGNED_CONTEXT ( ( #257, #203, #20 ) ) REPRESENTATION_CONTEXT ( 'NONE', 'WORKASPACE' ) );
#228 = STYLED_ITEM ( 'NONE', ( #41 ), #231 ) ;
#229 = ADVANCED_FACE ( 'NONE', ( #265 ), #117, .T. ) ;
#230 =( NAMED_UNIT ( * ) SI_UNIT ( $, .STERADIAN. ) SOLID_ANGLE_UNIT ( ) );
#231 = ADVANCED_FACE ( 'NONE', ( #297 ), #289, .T. ) ;
#232 = STYLED_ITEM ( 'NONE', ( #51 ), #199 ) ;
#233 = AXIS2_PLACEMENT_3D ( 'NONE', #43, #45, #9 ) ;
#234 =( CONVERSION_BASED_UNIT ( 'INCH', #25 ) LENGTH_UNIT ( ) NAMED_UNIT ( #235 ) );
#235 = DIMENSIONAL_EXPONENTS ( 1.000000000000000000, 0.000000000000000000, 0.000000000000000000, 0.000000000000000000, 0.000000000000000000, 0.000000000000000000, 0.000000000000000000 ) ;
#236 = SURFACE_SIDE_STYLE ('',( #153 ) ) ;
#237 =( NAMED_UNIT ( * ) PLANE_ANGLE_UNIT ( ) SI_UNIT ( $, .RADIAN. ) );
#238 = CARTESIAN_POINT ( 'NONE',  ( -0.1562500000000001388, 3.000000000000000444, 0.000000000000000000 ) ) ;
#239 = SURFACE_SIDE_STYLE ('',( #72 ) ) ;
#240 = AXIS2_PLACEMENT_3D ( 'NONE', #95, #266, #290 ) ;
#241 = FILL_AREA_STYLE_COLOUR ( '', #159 ) ;
#242 = SURFACE_STYLE_FILL_AREA ( #244 ) ;
#243 = VERTEX_POINT ( 'NONE', #238 ) ;
#244 = FILL_AREA_STYLE ('',( #134 ) ) ;
#245 = ORIENTED_EDGE ( 'NONE', *, *, #197, .F. ) ;
#246 = APPLICATION_PROTOCOL_DEFINITION ( 'draft international standard', 'automotive_design', 1998, #165 ) ;
#247 = DIRECTION ( 'NONE',  ( 0.000000000000000000, 0.000000000000000000, -1.000000000000000000 ) ) ;
#248 = CYLINDRICAL_SURFACE ( 'NONE', #84, 0.1562500000000000278 ) ;
#249 = EDGE_LOOP ( 'NONE', ( #302, #10 ) ) ;
#250 = CIRCLE ( 'NONE', #146, 0.1562500000000000833 ) ;
#251 = CLOSED_SHELL ( 'NONE', ( #208, #163, #50, #136 ) ) ;
#252 = DIRECTION ( 'NONE',  ( 3.498990854706726443E-17, -1.000000000000000000, 0.000000000000000000 ) ) ;
#253 = AXIS2_PLACEMENT_3D ( 'NONE', #299, #164, #81 ) ;
#254 = ORIENTED_EDGE ( 'NONE', *, *, #224, .T. ) ;
#255 = DIMENSIONAL_EXPONENTS ( 1.000000000000000000, 0.000000000000000000, 0.000000000000000000, 0.000000000000000000, 0.000000000000000000, 0.000000000000000000, 0.000000000000000000 ) ;
#256 = SURFACE_STYLE_USAGE ( .BOTH. , #236 ) ;
#257 =( CONVERSION_BASED_UNIT ( 'INCH', #18 ) LENGTH_UNIT ( ) NAMED_UNIT ( #179 ) );
#258 = CIRCLE ( 'NONE', #82, 0.1562500000000000000 ) ;
#259 = AXIS2_PLACEMENT_3D ( 'NONE', #131, #216, #247 ) ;
#260 = UNCERTAINTY_MEASURE_WITH_UNIT (LENGTH_MEASURE( 1.000000000000000082E-05 ), #11, 'distance_accuracy_value', 'NONE');
#261 = CYLINDRICAL_SURFACE ( 'NONE', #292, 0.1562500000000000278 ) ;
#262 = EDGE_LOOP ( 'NONE', ( #140, #14, #217, #170 ) ) ;
#263 = LENGTH_MEASURE_WITH_UNIT ( LENGTH_MEASURE( 0.02539999999999999897 ), #139 );
#264 = ORIENTED_EDGE ( 'NONE', *, *, #8, .T. ) ;
#265 = FACE_OUTER_BOUND ( 'NONE', #62, .T. ) ;
#266 = DIRECTION ( 'NONE',  ( -3.498990854706726443E-17, 1.000000000000000000, -0.000000000000000000 ) ) ;
#267 =( NAMED_UNIT ( * ) SI_UNIT ( $, .STERADIAN. ) SOLID_ANGLE_UNIT ( ) );
#268 = VERTEX_POINT ( 'NONE', #287 ) ;
#269 = FILL_AREA_STYLE ('',( #59 ) ) ;
#270 = SURFACE_STYLE_USAGE ( .BOTH. , #219 ) ;
#271 = UNCERTAINTY_MEASURE_WITH_UNIT (LENGTH_MEASURE( 1.000000000000000082E-05 ), #4, 'distance_accuracy_value', 'NONE');
#272 =( GEOMETRIC_REPRESENTATION_CONTEXT ( 3 ) GLOBAL_UNCERTAINTY_ASSIGNED_CONTEXT ( ( #271 ) ) GLOBAL_UNIT_ASSIGNED_CONTEXT ( ( #4, #96, #267 ) ) REPRESENTATION_CONTEXT ( 'NONE', 'WORKASPACE' ) );
#273 = MECHANICAL_DESIGN_GEOMETRIC_PRESENTATION_REPRESENTATION (  '', ( #228 ), #19 ) ;
#274 = PRESENTATION_STYLE_ASSIGNMENT (( #60 ) ) ;
#275 = EDGE_CURVE ( 'NONE', #91, #243, #35, .T. ) ;
#276 = VECTOR ( 'NONE', #130, 39.37007874015748143 ) ;
#277 = VERTEX_POINT ( 'NONE', #114 ) ;
#278 = CIRCLE ( 'NONE', #233, 0.1562500000000000000 ) ;
#279 = DIRECTION ( 'NONE',  ( 0.000000000000000000, 0.000000000000000000, -1.000000000000000000 ) ) ;
#280 = DIRECTION ( 'NONE',  ( -0.000000000000000000, -1.000000000000000000, -0.000000000000000000 ) ) ;
#281 =( LENGTH_UNIT ( ) NAMED_UNIT ( * ) SI_UNIT ( $, .METRE. ) );
#282 = DIRECTION ( 'NONE',  ( -0.000000000000000000, -1.000000000000000000, -0.000000000000000000 ) ) ;
#283 = ORIENTED_EDGE ( 'NONE', *, *, #275, .F. ) ;
#284 = FACE_OUTER_BOUND ( 'NONE', #144, .T. ) ;
#285 = CARTESIAN_POINT ( 'NONE',  ( 0.000000000000000000, 0.000000000000000000, 0.000000000000000000 ) ) ;
#286 = CARTESIAN_POINT ( 'NONE',  ( 0.1562499999999999722, 3.000000000000000444, 1.913510623667739771E-17 ) ) ;
#287 = CARTESIAN_POINT ( 'NONE',  ( 0.000000000000000000, 1.250000000000000000, -0.1562500000000000000 ) ) ;
#288 = DIMENSIONAL_EXPONENTS ( 1.000000000000000000, 0.000000000000000000, 0.000000000000000000, 0.000000000000000000, 0.000000000000000000, 0.000000000000000000, 0.000000000000000000 ) ;
#289 = PLANE ( 'NONE',  #259 ) ;
#290 = DIRECTION ( 'NONE',  ( -1.000000000000000000, 0.000000000000000000, 0.000000000000000000 ) ) ;
#291 = COLOUR_RGB ( '',0.7921568627450980005, 0.8196078431372548767, 0.9333333333333333481 ) ;
#292 = AXIS2_PLACEMENT_3D ( 'NONE', #183, #24, #205 ) ;
#293 = EDGE_CURVE ( 'NONE', #189, #33, #1, .T. ) ;
#294 = PRESENTATION_STYLE_ASSIGNMENT (( #73 ) ) ;
#295 = ORIENTED_EDGE ( 'NONE', *, *, #89, .F. ) ;
#296 = DIRECTION ( 'NONE',  ( -1.000000000000000000, 0.000000000000000000, 0.000000000000000000 ) ) ;
#297 = FACE_OUTER_BOUND ( 'NONE', #249, .T. ) ;
#298 = EDGE_CURVE ( 'NONE', #79, #243, #167, .T. ) ;
#299 = CARTESIAN_POINT ( 'NONE',  ( 0.000000000000000000, 1.250000000000000000, 0.000000000000000000 ) ) ;
#300 =( GEOMETRIC_REPRESENTATION_CONTEXT ( 3 ) GLOBAL_UNCERTAINTY_ASSIGNED_CONTEXT ( ( #143 ) ) GLOBAL_UNIT_ASSIGNED_CONTEXT ( ( #70, #87, #104 ) ) REPRESENTATION_CONTEXT ( 'NONE', 'WORKASPACE' ) );
#301 = MECHANICAL_DESIGN_GEOMETRIC_PRESENTATION_REPRESENTATION (  '', ( #47 ), #227 ) ;
#302 = ORIENTED_EDGE ( 'NONE', *, *, #293, .T. ) ;
#303 = VERTEX_POINT ( 'NONE', #212 ) ;
#304 = ORIENTED_EDGE ( 'NONE', *, *, #308, .F. ) ;
#305 = DIMENSIONAL_EXPONENTS ( 1.000000000000000000, 0.000000000000000000, 0.000000000000000000, 0.000000000000000000, 0.000000000000000000, 0.000000000000000000, 0.000000000000000000 ) ;
#306 = DIRECTION ( 'NONE',  ( 0.000000000000000000, 0.000000000000000000, -1.000000000000000000 ) ) ;
#307 = SURFACE_STYLE_USAGE ( .BOTH. , #239 ) ;
#308 = EDGE_CURVE ( 'NONE', #303, #268, #278, .T. ) ;
#309 = MECHANICAL_DESIGN_GEOMETRIC_PRESENTATION_REPRESENTATION (  '', ( #12 ), #300 ) ;
ENDSEC;
END-ISO-10303-21;
