ISO-10303-21;
HEADER;
FILE_DESCRIPTION (( 'STEP AP214' ),
    '1' );
FILE_NAME ('03255.STEP',
    '2023-06-22T15:05:17',
    ( '' ),
    ( '' ),
    'SwSTEP 2.0',
    'SolidWorks 2023',
    '' );
FILE_SCHEMA (( 'AUTOMOTIVE_DESIGN' ));
ENDSEC;

DATA;
#1 = FACE_OUTER_BOUND ( 'NONE', #58, .T. ) ;
#2 = FILL_AREA_STYLE_COLOUR ( '', #96 ) ;
#3 = APPLICATION_PROTOCOL_DEFINITION ( 'draft international standard', 'automotive_design', 1998, #113 ) ;
#4 = FILL_AREA_STYLE_COLOUR ( '', #186 ) ;
#5 = CIRCLE ( 'NONE', #188, 0.1562500000000000000 ) ;
#6 = AXIS2_PLACEMENT_3D ( 'NONE', #202, #157, #9 ) ;
#7 = DIRECTION ( 'NONE',  ( -1.000000000000000000, 0.000000000000000000, 0.000000000000000000 ) ) ;
#8 = CARTESIAN_POINT ( 'NONE',  ( -6.123233995736766036E-17, 2.500000000000000000, 0.000000000000000000 ) ) ;
#9 = DIRECTION ( 'NONE',  ( -1.000000000000000000, -3.628583108584750472E-17, 0.000000000000000000 ) ) ;
#10 = PRESENTATION_STYLE_ASSIGNMENT (( #224 ) ) ;
#11 = DIRECTION ( 'NONE',  ( 0.000000000000000000, -1.000000000000000000, -0.000000000000000000 ) ) ;
#12 = VECTOR ( 'NONE', #294, 39.37007874015748143 ) ;
#13 = MECHANICAL_DESIGN_GEOMETRIC_PRESENTATION_REPRESENTATION (  '', ( #154 ), #231 ) ;
#14 = ADVANCED_FACE ( 'NONE', ( #125 ), #185, .T. ) ;
#15 = CARTESIAN_POINT ( 'NONE',  ( -0.1562500000000001110, 2.500000000000000000, 0.000000000000000000 ) ) ;
#16 = FILL_AREA_STYLE ('',( #308 ) ) ;
#17 =( LENGTH_UNIT ( ) NAMED_UNIT ( * ) SI_UNIT ( $, .METRE. ) );
#18 = ADVANCED_FACE ( 'NONE', ( #277 ), #77, .T. ) ;
#19 = CIRCLE ( 'NONE', #35, 0.1562500000000000000 ) ;
#20 = SHAPE_DEFINITION_REPRESENTATION ( #241, #203 ) ;
#21 = SURFACE_STYLE_FILL_AREA ( #142 ) ;
#22 =( NAMED_UNIT ( * ) PLANE_ANGLE_UNIT ( ) SI_UNIT ( $, .RADIAN. ) );
#23 =( LENGTH_UNIT ( ) NAMED_UNIT ( * ) SI_UNIT ( $, .METRE. ) );
#24 = PRESENTATION_LAYER_ASSIGNMENT (  '', '', ( #122 ) ) ;
#25 = MECHANICAL_DESIGN_GEOMETRIC_PRESENTATION_REPRESENTATION (  '', ( #92 ), #100 ) ;
#26 = EDGE_CURVE ( 'NONE', #40, #300, #5, .T. ) ;
#27 = ORIENTED_EDGE ( 'NONE', *, *, #222, .F. ) ;
#28 =( NAMED_UNIT ( * ) SI_UNIT ( $, .STERADIAN. ) SOLID_ANGLE_UNIT ( ) );
#29 = DIRECTION ( 'NONE',  ( -3.628583108584750472E-17, 1.000000000000000000, -0.000000000000000000 ) ) ;
#30 = EDGE_LOOP ( 'NONE', ( #141, #232, #275, #39 ) ) ;
#31 =( CONVERSION_BASED_UNIT ( 'INCH', #98 ) LENGTH_UNIT ( ) NAMED_UNIT ( #70 ) );
#32 = CARTESIAN_POINT ( 'NONE',  ( -0.1562500000000001388, 2.500000000000000000, 0.000000000000000000 ) ) ;
#33 = EDGE_CURVE ( 'NONE', #296, #163, #43, .T. ) ;
#34 =( GEOMETRIC_REPRESENTATION_CONTEXT ( 3 ) GLOBAL_UNCERTAINTY_ASSIGNED_CONTEXT ( ( #46 ) ) GLOBAL_UNIT_ASSIGNED_CONTEXT ( ( #214, #174, #115 ) ) REPRESENTATION_CONTEXT ( 'NONE', 'WORKASPACE' ) );
#35 = AXIS2_PLACEMENT_3D ( 'NONE', #270, #44, #291 ) ;
#36 = ORIENTED_EDGE ( 'NONE', *, *, #279, .F. ) ;
#37 = DIMENSIONAL_EXPONENTS ( 1.000000000000000000, 0.000000000000000000, 0.000000000000000000, 0.000000000000000000, 0.000000000000000000, 0.000000000000000000, 0.000000000000000000 ) ;
#38 = DIRECTION ( 'NONE',  ( -3.628583108584750472E-17, 1.000000000000000000, -0.000000000000000000 ) ) ;
#39 = ORIENTED_EDGE ( 'NONE', *, *, #33, .F. ) ;
#40 = VERTEX_POINT ( 'NONE', #289 ) ;
#41 = DIRECTION ( 'NONE',  ( -3.628583108584750472E-17, 1.000000000000000000, -0.000000000000000000 ) ) ;
#42 = ADVANCED_FACE ( 'NONE', ( #168 ), #124, .T. ) ;
#43 = CIRCLE ( 'NONE', #226, 0.1562500000000000000 ) ;
#44 = DIRECTION ( 'NONE',  ( -0.000000000000000000, -1.000000000000000000, -0.000000000000000000 ) ) ;
#45 = SURFACE_STYLE_USAGE ( .BOTH. , #196 ) ;
#46 = UNCERTAINTY_MEASURE_WITH_UNIT (LENGTH_MEASURE( 1.000000000000000082E-05 ), #214, 'distance_accuracy_value', 'NONE');
#47 = DIRECTION ( 'NONE',  ( 0.000000000000000000, -0.000000000000000000, 1.000000000000000000 ) ) ;
#48 = CARTESIAN_POINT ( 'NONE',  ( 0.000000000000000000, 0.8125000000000000000, -0.1562500000000000000 ) ) ;
#49 = EDGE_CURVE ( 'NONE', #137, #165, #256, .T. ) ;
#50 =( LENGTH_UNIT ( ) NAMED_UNIT ( * ) SI_UNIT ( $, .METRE. ) );
#51 =( CONVERSION_BASED_UNIT ( 'INCH', #74 ) LENGTH_UNIT ( ) NAMED_UNIT ( #173 ) );
#52 = AXIS2_PLACEMENT_3D ( 'NONE', #135, #139, #119 ) ;
#53 = SURFACE_STYLE_FILL_AREA ( #153 ) ;
#54 = SURFACE_SIDE_STYLE ('',( #181 ) ) ;
#55 = STYLED_ITEM ( 'NONE', ( #126 ), #42 ) ;
#56 = STYLED_ITEM ( 'NONE', ( #210 ), #299 ) ;
#57 =( LENGTH_UNIT ( ) NAMED_UNIT ( * ) SI_UNIT ( $, .METRE. ) );
#58 = EDGE_LOOP ( 'NONE', ( #169, #264, #239, #27 ) ) ;
#59 = AXIS2_PLACEMENT_3D ( 'NONE', #309, #152, #288 ) ;
#60 = CIRCLE ( 'NONE', #112, 0.1562500000000000833 ) ;
#61 = ORIENTED_EDGE ( 'NONE', *, *, #88, .F. ) ;
#62 = CARTESIAN_POINT ( 'NONE',  ( -6.123233995736766036E-17, 2.500000000000000000, 0.000000000000000000 ) ) ;
#63 = ORIENTED_EDGE ( 'NONE', *, *, #215, .F. ) ;
#64 = SURFACE_STYLE_FILL_AREA ( #16 ) ;
#65 = MECHANICAL_DESIGN_GEOMETRIC_PRESENTATION_REPRESENTATION (  '', ( #122 ), #158 ) ;
#66 =( GEOMETRIC_REPRESENTATION_CONTEXT ( 3 ) GLOBAL_UNCERTAINTY_ASSIGNED_CONTEXT ( ( #84 ) ) GLOBAL_UNIT_ASSIGNED_CONTEXT ( ( #51, #221, #28 ) ) REPRESENTATION_CONTEXT ( 'NONE', 'WORKASPACE' ) );
#67 = DIRECTION ( 'NONE',  ( -3.628583108584750472E-17, 1.000000000000000000, -0.000000000000000000 ) ) ;
#68 = DIRECTION ( 'NONE',  ( -0.000000000000000000, -1.000000000000000000, -0.000000000000000000 ) ) ;
#69 = CARTESIAN_POINT ( 'NONE',  ( 1.913510623667739463E-17, 0.000000000000000000, 0.1562500000000000000 ) ) ;
#70 = DIMENSIONAL_EXPONENTS ( 1.000000000000000000, 0.000000000000000000, 0.000000000000000000, 0.000000000000000000, 0.000000000000000000, 0.000000000000000000, 0.000000000000000000 ) ;
#71 = ORIENTED_EDGE ( 'NONE', *, *, #33, .T. ) ;
#72 = APPLICATION_PROTOCOL_DEFINITION ( 'draft international standard', 'automotive_design', 1998, #283 ) ;
#73 = EDGE_CURVE ( 'NONE', #137, #227, #276, .T. ) ;
#74 = LENGTH_MEASURE_WITH_UNIT ( LENGTH_MEASURE( 0.02539999999999999897 ), #23 );
#75 = AXIS2_PLACEMENT_3D ( 'NONE', #244, #147, #240 ) ;
#76 = UNCERTAINTY_MEASURE_WITH_UNIT (LENGTH_MEASURE( 1.000000000000000082E-05 ), #266, 'distance_accuracy_value', 'NONE');
#77 = PLANE ( 'NONE',  #145 ) ;
#78 = PRESENTATION_STYLE_ASSIGNMENT (( #298 ) ) ;
#79 = EDGE_LOOP ( 'NONE', ( #262, #234 ) ) ;
#80 =( CONVERSION_BASED_UNIT ( 'INCH', #183 ) LENGTH_UNIT ( ) NAMED_UNIT ( #149 ) );
#81 = PRESENTATION_LAYER_ASSIGNMENT (  '', '', ( #172 ) ) ;
#82 = MANIFOLD_SOLID_BREP ( 'Revolve - Tool Body (Straight Shanked)', #161 ) ;
#83 = SURFACE_SIDE_STYLE ('',( #64 ) ) ;
#84 = UNCERTAINTY_MEASURE_WITH_UNIT (LENGTH_MEASURE( 1.000000000000000082E-05 ), #51, 'distance_accuracy_value', 'NONE');
#85 = PRODUCT_DEFINITION_FORMATION_WITH_SPECIFIED_SOURCE ( 'ANY', '', #155, .NOT_KNOWN. ) ;
#86 = VERTEX_POINT ( 'NONE', #32 ) ;
#87 = SURFACE_STYLE_FILL_AREA ( #267 ) ;
#88 = EDGE_CURVE ( 'NONE', #227, #137, #118, .T. ) ;
#89 = DIMENSIONAL_EXPONENTS ( 1.000000000000000000, 0.000000000000000000, 0.000000000000000000, 0.000000000000000000, 0.000000000000000000, 0.000000000000000000, 0.000000000000000000 ) ;
#90 = DIRECTION ( 'NONE',  ( -0.000000000000000000, -1.000000000000000000, -0.000000000000000000 ) ) ;
#91 =( NAMED_UNIT ( * ) SI_UNIT ( $, .STERADIAN. ) SOLID_ANGLE_UNIT ( ) );
#92 = STYLED_ITEM ( 'NONE', ( #162 ), #134 ) ;
#93 = CARTESIAN_POINT ( 'NONE',  ( -6.123233995736766036E-17, 2.500000000000000000, 0.000000000000000000 ) ) ;
#94 = CARTESIAN_POINT ( 'NONE',  ( -6.123233995736766036E-17, 2.500000000000000000, 0.000000000000000000 ) ) ;
#95 = DIMENSIONAL_EXPONENTS ( 1.000000000000000000, 0.000000000000000000, 0.000000000000000000, 0.000000000000000000, 0.000000000000000000, 0.000000000000000000, 0.000000000000000000 ) ;
#96 = COLOUR_RGB ( '',1.000000000000000000, 0.000000000000000000, 0.000000000000000000 ) ;
#97 = DIRECTION ( 'NONE',  ( -0.000000000000000000, -1.000000000000000000, -0.000000000000000000 ) ) ;
#98 = LENGTH_MEASURE_WITH_UNIT ( LENGTH_MEASURE( 0.02539999999999999897 ), #50 );
#99 = ORIENTED_EDGE ( 'NONE', *, *, #190, .F. ) ;
#100 =( GEOMETRIC_REPRESENTATION_CONTEXT ( 3 ) GLOBAL_UNCERTAINTY_ASSIGNED_CONTEXT ( ( #263 ) ) GLOBAL_UNIT_ASSIGNED_CONTEXT ( ( #166, #242, #281 ) ) REPRESENTATION_CONTEXT ( 'NONE', 'WORKASPACE' ) );
#101 = PLANE ( 'NONE',  #6 ) ;
#102 = DIRECTION ( 'NONE',  ( -3.628583108584750472E-17, 1.000000000000000000, -0.000000000000000000 ) ) ;
#103 =( NAMED_UNIT ( * ) SI_UNIT ( $, .STERADIAN. ) SOLID_ANGLE_UNIT ( ) );
#104 = ADVANCED_FACE ( 'NONE', ( #229 ), #101, .F. ) ;
#105 = SURFACE_STYLE_FILL_AREA ( #160 ) ;
#106 = AXIS2_PLACEMENT_3D ( 'NONE', #62, #38, #246 ) ;
#107 = LENGTH_MEASURE_WITH_UNIT ( LENGTH_MEASURE( 0.02539999999999999897 ), #57 );
#108 = FILL_AREA_STYLE_COLOUR ( '', #271 ) ;
#109 = EDGE_LOOP ( 'NONE', ( #36, #259 ) ) ;
#110 =( LENGTH_UNIT ( ) NAMED_UNIT ( * ) SI_UNIT ( $, .METRE. ) );
#111 = MECHANICAL_DESIGN_GEOMETRIC_PRESENTATION_REPRESENTATION (  '', ( #172 ), #34 ) ;
#112 = AXIS2_PLACEMENT_3D ( 'NONE', #93, #120, #272 ) ;
#113 = APPLICATION_CONTEXT ( 'automotive_design' ) ;
#114 = SURFACE_STYLE_USAGE ( .BOTH. , #83 ) ;
#115 =( NAMED_UNIT ( * ) SI_UNIT ( $, .STERADIAN. ) SOLID_ANGLE_UNIT ( ) );
#116 = ORIENTED_EDGE ( 'NONE', *, *, #292, .T. ) ;
#117 = CARTESIAN_POINT ( 'NONE',  ( 0.000000000000000000, 0.000000000000000000, -0.1562500000000000000 ) ) ;
#118 = CIRCLE ( 'NONE', #286, 0.1562500000000000000 ) ;
#119 = DIRECTION ( 'NONE',  ( 1.000000000000000000, 3.628583108584750472E-17, 0.000000000000000000 ) ) ;
#120 = DIRECTION ( 'NONE',  ( -3.628583108584750472E-17, 1.000000000000000000, -0.000000000000000000 ) ) ;
#121 = DIRECTION ( 'NONE',  ( 0.000000000000000000, 0.000000000000000000, -1.000000000000000000 ) ) ;
#122 = STYLED_ITEM ( 'NONE', ( #78 ), #82 ) ;
#123 = CIRCLE ( 'NONE', #75, 0.1562500000000000000 ) ;
#124 = CYLINDRICAL_SURFACE ( 'NONE', #235, 0.1562500000000000000 ) ;
#125 = FACE_OUTER_BOUND ( 'NONE', #260, .T. ) ;
#126 = PRESENTATION_STYLE_ASSIGNMENT (( #302 ) ) ;
#127 = DIRECTION ( 'NONE',  ( -3.628583108584750472E-17, 1.000000000000000000, -0.000000000000000000 ) ) ;
#128 = ORIENTED_EDGE ( 'NONE', *, *, #251, .T. ) ;
#129 = PRESENTATION_LAYER_ASSIGNMENT (  '', '', ( #56 ) ) ;
#130 = SURFACE_SIDE_STYLE ('',( #53 ) ) ;
#131 = CARTESIAN_POINT ( 'NONE',  ( 0.000000000000000000, 0.000000000000000000, 0.000000000000000000 ) ) ;
#132 = MECHANICAL_DESIGN_GEOMETRIC_PRESENTATION_REPRESENTATION (  '', ( #56 ), #179 ) ;
#133 = ORIENTED_EDGE ( 'NONE', *, *, #292, .F. ) ;
#134 = ADVANCED_FACE ( 'NONE', ( #207 ), #208, .T. ) ;
#135 = CARTESIAN_POINT ( 'NONE',  ( 0.1562500000000000000, 2.500000000000000000, 0.000000000000000000 ) ) ;
#136 = AXIS2_PLACEMENT_3D ( 'NONE', #184, #127, #175 ) ;
#137 = VERTEX_POINT ( 'NONE', #284 ) ;
#138 = LINE ( 'NONE', #15, #206 ) ;
#139 = DIRECTION ( 'NONE',  ( 3.628583108584750472E-17, -1.000000000000000000, 0.000000000000000000 ) ) ;
#140 = EDGE_CURVE ( 'NONE', #86, #165, #278, .T. ) ;
#141 = ORIENTED_EDGE ( 'NONE', *, *, #251, .F. ) ;
#142 = FILL_AREA_STYLE ('',( #2 ) ) ;
#143 = DIRECTION ( 'NONE',  ( 0.000000000000000000, 0.000000000000000000, -1.000000000000000000 ) ) ;
#144 = PRESENTATION_STYLE_ASSIGNMENT (( #114 ) ) ;
#145 = AXIS2_PLACEMENT_3D ( 'NONE', #269, #197, #47 ) ;
#146 = PRESENTATION_LAYER_ASSIGNMENT (  '', '', ( #154 ) ) ;
#147 = DIRECTION ( 'NONE',  ( -0.000000000000000000, -1.000000000000000000, -0.000000000000000000 ) ) ;
#148 = UNCERTAINTY_MEASURE_WITH_UNIT (LENGTH_MEASURE( 1.000000000000000082E-05 ), #31, 'distance_accuracy_value', 'NONE');
#149 = DIMENSIONAL_EXPONENTS ( 1.000000000000000000, 0.000000000000000000, 0.000000000000000000, 0.000000000000000000, 0.000000000000000000, 0.000000000000000000, 0.000000000000000000 ) ;
#150 = ADVANCED_FACE ( 'NONE', ( #209 ), #189, .F. ) ;
#151 = CARTESIAN_POINT ( 'NONE',  ( 0.000000000000000000, 0.8125000000000000000, 0.000000000000000000 ) ) ;
#152 = DIRECTION ( 'NONE',  ( 0.000000000000000000, 0.000000000000000000, 1.000000000000000000 ) ) ;
#153 = FILL_AREA_STYLE ('',( #108 ) ) ;
#154 = STYLED_ITEM ( 'NONE', ( #144 ), #195 ) ;
#155 = PRODUCT ( '03255', '03255', '', ( #176 ) ) ;
#156 = CARTESIAN_POINT ( 'NONE',  ( 0.000000000000000000, 0.8125000000000001110, 0.000000000000000000 ) ) ;
#157 = DIRECTION ( 'NONE',  ( -3.628583108584750472E-17, 1.000000000000000000, 0.000000000000000000 ) ) ;
#158 =( GEOMETRIC_REPRESENTATION_CONTEXT ( 3 ) GLOBAL_UNCERTAINTY_ASSIGNED_CONTEXT ( ( #148 ) ) GLOBAL_UNIT_ASSIGNED_CONTEXT ( ( #31, #177, #274 ) ) REPRESENTATION_CONTEXT ( 'NONE', 'WORKASPACE' ) );
#159 = LENGTH_MEASURE_WITH_UNIT ( LENGTH_MEASURE( 0.02539999999999999897 ), #228 );
#160 = FILL_AREA_STYLE ('',( #182 ) ) ;
#161 = CLOSED_SHELL ( 'NONE', ( #204, #104, #14, #150 ) ) ;
#162 = PRESENTATION_STYLE_ASSIGNMENT (( #170 ) ) ;
#163 = VERTEX_POINT ( 'NONE', #117 ) ;
#164 = CARTESIAN_POINT ( 'NONE',  ( 0.000000000000000000, 0.000000000000000000, 0.000000000000000000 ) ) ;
#165 = VERTEX_POINT ( 'NONE', #305 ) ;
#166 =( CONVERSION_BASED_UNIT ( 'INCH', #211 ) LENGTH_UNIT ( ) NAMED_UNIT ( #95 ) );
#167 =( GEOMETRIC_REPRESENTATION_CONTEXT ( 3 ) GLOBAL_UNCERTAINTY_ASSIGNED_CONTEXT ( ( #233 ) ) GLOBAL_UNIT_ASSIGNED_CONTEXT ( ( #199, #180, #103 ) ) REPRESENTATION_CONTEXT ( 'NONE', 'WORKASPACE' ) );
#168 = FACE_OUTER_BOUND ( 'NONE', #30, .T. ) ;
#169 = ORIENTED_EDGE ( 'NONE', *, *, #88, .T. ) ;
#170 = SURFACE_STYLE_USAGE ( .BOTH. , #268 ) ;
#171 = DIRECTION ( 'NONE',  ( -0.000000000000000000, -1.000000000000000000, -0.000000000000000000 ) ) ;
#172 = STYLED_ITEM ( 'NONE', ( #10 ), #18 ) ;
#173 = DIMENSIONAL_EXPONENTS ( 1.000000000000000000, 0.000000000000000000, 0.000000000000000000, 0.000000000000000000, 0.000000000000000000, 0.000000000000000000, 0.000000000000000000 ) ;
#174 =( NAMED_UNIT ( * ) PLANE_ANGLE_UNIT ( ) SI_UNIT ( $, .RADIAN. ) );
#175 = DIRECTION ( 'NONE',  ( -1.000000000000000000, 0.000000000000000000, 0.000000000000000000 ) ) ;
#176 = PRODUCT_CONTEXT ( 'NONE', #283, 'mechanical' ) ;
#177 =( NAMED_UNIT ( * ) PLANE_ANGLE_UNIT ( ) SI_UNIT ( $, .RADIAN. ) );
#178 = CLOSED_SHELL ( 'NONE', ( #299, #18, #42, #134 ) ) ;
#179 =( GEOMETRIC_REPRESENTATION_CONTEXT ( 3 ) GLOBAL_UNCERTAINTY_ASSIGNED_CONTEXT ( ( #76 ) ) GLOBAL_UNIT_ASSIGNED_CONTEXT ( ( #266, #22, #91 ) ) REPRESENTATION_CONTEXT ( 'NONE', 'WORKASPACE' ) );
#180 =( NAMED_UNIT ( * ) PLANE_ANGLE_UNIT ( ) SI_UNIT ( $, .RADIAN. ) );
#181 = SURFACE_STYLE_FILL_AREA ( #258 ) ;
#182 = FILL_AREA_STYLE_COLOUR ( '', #200 ) ;
#183 = LENGTH_MEASURE_WITH_UNIT ( LENGTH_MEASURE( 0.02539999999999999897 ), #191 );
#184 = CARTESIAN_POINT ( 'NONE',  ( 0.000000000000000000, 0.8125000000000001110, 0.000000000000000000 ) ) ;
#185 = CYLINDRICAL_SURFACE ( 'NONE', #265, 0.1562500000000000278 ) ;
#186 = COLOUR_RGB ( '',0.7921568627450980005, 0.8196078431372548767, 0.9333333333333333481 ) ;
#187 = AXIS2_PLACEMENT_3D ( 'NONE', #253, #97, #225 ) ;
#188 = AXIS2_PLACEMENT_3D ( 'NONE', #151, #194, #252 ) ;
#189 = PLANE ( 'NONE',  #52 ) ;
#190 = EDGE_CURVE ( 'NONE', #300, #163, #212, .T. ) ;
#191 =( LENGTH_UNIT ( ) NAMED_UNIT ( * ) SI_UNIT ( $, .METRE. ) );
#192 = CARTESIAN_POINT ( 'NONE',  ( -0.1562500000000000000, 0.8125000000000001110, 0.000000000000000000 ) ) ;
#193 = PRODUCT_DEFINITION ( 'UNKNOWN', '', #85, #273 ) ;
#194 = DIRECTION ( 'NONE',  ( -0.000000000000000000, -1.000000000000000000, -0.000000000000000000 ) ) ;
#195 = MANIFOLD_SOLID_BREP ( 'Revolve - Cutting Edge', #178 ) ;
#196 = SURFACE_SIDE_STYLE ('',( #21 ) ) ;
#197 = DIRECTION ( 'NONE',  ( 0.000000000000000000, 1.000000000000000000, 0.000000000000000000 ) ) ;
#198 = VECTOR ( 'NONE', #171, 39.37007874015748143 ) ;
#199 =( CONVERSION_BASED_UNIT ( 'INCH', #159 ) LENGTH_UNIT ( ) NAMED_UNIT ( #89 ) );
#200 = COLOUR_RGB ( '',1.000000000000000000, 0.000000000000000000, 0.000000000000000000 ) ;
#201 = AXIS2_PLACEMENT_3D ( 'NONE', #164, #11, #143 ) ;
#202 = CARTESIAN_POINT ( 'NONE',  ( 1.028641826242700895E-34, 0.8125000000000000000, 0.000000000000000000 ) ) ;
#203 = ADVANCED_BREP_SHAPE_REPRESENTATION ( '03255', ( #195, #82, #59 ), #66 ) ;
#204 = ADVANCED_FACE ( 'NONE', ( #1 ), #245, .T. ) ;
#205 = DIRECTION ( 'NONE',  ( 0.000000000000000000, 0.000000000000000000, -1.000000000000000000 ) ) ;
#206 = VECTOR ( 'NONE', #41, 39.37007874015748143 ) ;
#207 = FACE_OUTER_BOUND ( 'NONE', #257, .T. ) ;
#208 = PLANE ( 'NONE',  #201 ) ;
#209 = FACE_OUTER_BOUND ( 'NONE', #79, .T. ) ;
#210 = PRESENTATION_STYLE_ASSIGNMENT (( #45 ) ) ;
#211 = LENGTH_MEASURE_WITH_UNIT ( LENGTH_MEASURE( 0.02539999999999999897 ), #110 );
#212 = LINE ( 'NONE', #217, #280 ) ;
#213 = PRESENTATION_LAYER_ASSIGNMENT (  '', '', ( #55 ) ) ;
#214 =( CONVERSION_BASED_UNIT ( 'INCH', #107 ) LENGTH_UNIT ( ) NAMED_UNIT ( #293 ) );
#215 = EDGE_CURVE ( 'NONE', #165, #86, #60, .T. ) ;
#216 = DIRECTION ( 'NONE',  ( -1.000000000000000000, 0.000000000000000000, 0.000000000000000000 ) ) ;
#217 = CARTESIAN_POINT ( 'NONE',  ( 0.000000000000000000, 0.000000000000000000, -0.1562500000000000000 ) ) ;
#218 =( NAMED_UNIT ( * ) SI_UNIT ( $, .STERADIAN. ) SOLID_ANGLE_UNIT ( ) );
#219 = CYLINDRICAL_SURFACE ( 'NONE', #187, 0.1562500000000000000 ) ;
#220 = COLOUR_RGB ( '',0.7921568627450980005, 0.8196078431372548767, 0.9333333333333333481 ) ;
#221 =( NAMED_UNIT ( * ) PLANE_ANGLE_UNIT ( ) SI_UNIT ( $, .RADIAN. ) );
#222 = EDGE_CURVE ( 'NONE', #227, #86, #138, .T. ) ;
#223 = CARTESIAN_POINT ( 'NONE',  ( 0.1562499999999999722, 2.500000000000000000, 1.913510623667739771E-17 ) ) ;
#224 = SURFACE_STYLE_USAGE ( .BOTH. , #301 ) ;
#225 = DIRECTION ( 'NONE',  ( 0.000000000000000000, 0.000000000000000000, -1.000000000000000000 ) ) ;
#226 = AXIS2_PLACEMENT_3D ( 'NONE', #287, #68, #121 ) ;
#227 = VERTEX_POINT ( 'NONE', #192 ) ;
#228 =( LENGTH_UNIT ( ) NAMED_UNIT ( * ) SI_UNIT ( $, .METRE. ) );
#229 = FACE_OUTER_BOUND ( 'NONE', #248, .T. ) ;
#230 = EDGE_LOOP ( 'NONE', ( #243, #128, #133, #99 ) ) ;
#231 =( GEOMETRIC_REPRESENTATION_CONTEXT ( 3 ) GLOBAL_UNCERTAINTY_ASSIGNED_CONTEXT ( ( #285 ) ) GLOBAL_UNIT_ASSIGNED_CONTEXT ( ( #80, #250, #218 ) ) REPRESENTATION_CONTEXT ( 'NONE', 'WORKASPACE' ) );
#232 = ORIENTED_EDGE ( 'NONE', *, *, #26, .T. ) ;
#233 = UNCERTAINTY_MEASURE_WITH_UNIT (LENGTH_MEASURE( 1.000000000000000082E-05 ), #199, 'distance_accuracy_value', 'NONE');
#234 = ORIENTED_EDGE ( 'NONE', *, *, #215, .T. ) ;
#235 = AXIS2_PLACEMENT_3D ( 'NONE', #131, #254, #205 ) ;
#236 = PRODUCT_RELATED_PRODUCT_CATEGORY ( 'part', '', ( #155 ) ) ;
#237 = FILL_AREA_STYLE_COLOUR ( '', #247 ) ;
#238 = AXIS2_PLACEMENT_3D ( 'NONE', #94, #67, #216 ) ;
#239 = ORIENTED_EDGE ( 'NONE', *, *, #140, .F. ) ;
#240 = DIRECTION ( 'NONE',  ( 0.000000000000000000, 0.000000000000000000, -1.000000000000000000 ) ) ;
#241 = PRODUCT_DEFINITION_SHAPE ( 'NONE', 'NONE',  #193 ) ;
#242 =( NAMED_UNIT ( * ) PLANE_ANGLE_UNIT ( ) SI_UNIT ( $, .RADIAN. ) );
#243 = ORIENTED_EDGE ( 'NONE', *, *, #279, .T. ) ;
#244 = CARTESIAN_POINT ( 'NONE',  ( 0.000000000000000000, 0.000000000000000000, 0.000000000000000000 ) ) ;
#245 = CYLINDRICAL_SURFACE ( 'NONE', #238, 0.1562500000000000278 ) ;
#246 = DIRECTION ( 'NONE',  ( -1.000000000000000000, 0.000000000000000000, 0.000000000000000000 ) ) ;
#247 = COLOUR_RGB ( '',1.000000000000000000, 0.000000000000000000, 0.000000000000000000 ) ;
#248 = EDGE_LOOP ( 'NONE', ( #61, #261 ) ) ;
#249 = CARTESIAN_POINT ( 'NONE',  ( 1.913510623667739463E-17, 0.000000000000000000, 0.1562500000000000000 ) ) ;
#250 =( NAMED_UNIT ( * ) PLANE_ANGLE_UNIT ( ) SI_UNIT ( $, .RADIAN. ) );
#251 = EDGE_CURVE ( 'NONE', #40, #296, #290, .T. ) ;
#252 = DIRECTION ( 'NONE',  ( 0.000000000000000000, 0.000000000000000000, -1.000000000000000000 ) ) ;
#253 = CARTESIAN_POINT ( 'NONE',  ( 0.000000000000000000, 0.000000000000000000, 0.000000000000000000 ) ) ;
#254 = DIRECTION ( 'NONE',  ( -0.000000000000000000, -1.000000000000000000, -0.000000000000000000 ) ) ;
#255 = ORIENTED_EDGE ( 'NONE', *, *, #222, .T. ) ;
#256 = LINE ( 'NONE', #223, #12 ) ;
#257 = EDGE_LOOP ( 'NONE', ( #116, #71 ) ) ;
#258 = FILL_AREA_STYLE ('',( #4 ) ) ;
#259 = ORIENTED_EDGE ( 'NONE', *, *, #26, .F. ) ;
#260 = EDGE_LOOP ( 'NONE', ( #282, #304, #255, #63 ) ) ;
#261 = ORIENTED_EDGE ( 'NONE', *, *, #73, .F. ) ;
#262 = ORIENTED_EDGE ( 'NONE', *, *, #140, .T. ) ;
#263 = UNCERTAINTY_MEASURE_WITH_UNIT (LENGTH_MEASURE( 1.000000000000000082E-05 ), #166, 'distance_accuracy_value', 'NONE');
#264 = ORIENTED_EDGE ( 'NONE', *, *, #49, .T. ) ;
#265 = AXIS2_PLACEMENT_3D ( 'NONE', #8, #102, #297 ) ;
#266 =( CONVERSION_BASED_UNIT ( 'INCH', #306 ) LENGTH_UNIT ( ) NAMED_UNIT ( #37 ) );
#267 = FILL_AREA_STYLE ('',( #237 ) ) ;
#268 = SURFACE_SIDE_STYLE ('',( #87 ) ) ;
#269 = CARTESIAN_POINT ( 'NONE',  ( 0.000000000000000000, 0.8125000000000000000, 0.000000000000000000 ) ) ;
#270 = CARTESIAN_POINT ( 'NONE',  ( 0.000000000000000000, 0.8125000000000000000, 0.000000000000000000 ) ) ;
#271 = COLOUR_RGB ( '',1.000000000000000000, 0.000000000000000000, 0.000000000000000000 ) ;
#272 = DIRECTION ( 'NONE',  ( -1.000000000000000000, 0.000000000000000000, 0.000000000000000000 ) ) ;
#273 = PRODUCT_DEFINITION_CONTEXT ( 'detailed design', #113, 'design' ) ;
#274 =( NAMED_UNIT ( * ) SI_UNIT ( $, .STERADIAN. ) SOLID_ANGLE_UNIT ( ) );
#275 = ORIENTED_EDGE ( 'NONE', *, *, #190, .T. ) ;
#276 = CIRCLE ( 'NONE', #136, 0.1562500000000000000 ) ;
#277 = FACE_OUTER_BOUND ( 'NONE', #109, .T. ) ;
#278 = CIRCLE ( 'NONE', #106, 0.1562500000000000833 ) ;
#279 = EDGE_CURVE ( 'NONE', #300, #40, #19, .T. ) ;
#280 = VECTOR ( 'NONE', #90, 39.37007874015748143 ) ;
#281 =( NAMED_UNIT ( * ) SI_UNIT ( $, .STERADIAN. ) SOLID_ANGLE_UNIT ( ) );
#282 = ORIENTED_EDGE ( 'NONE', *, *, #49, .F. ) ;
#283 = APPLICATION_CONTEXT ( 'automotive_design' ) ;
#284 = CARTESIAN_POINT ( 'NONE',  ( 0.1562500000000000000, 0.8125000000000001110, 1.913510623667739771E-17 ) ) ;
#285 = UNCERTAINTY_MEASURE_WITH_UNIT (LENGTH_MEASURE( 1.000000000000000082E-05 ), #80, 'distance_accuracy_value', 'NONE');
#286 = AXIS2_PLACEMENT_3D ( 'NONE', #156, #29, #7 ) ;
#287 = CARTESIAN_POINT ( 'NONE',  ( 0.000000000000000000, 0.000000000000000000, 0.000000000000000000 ) ) ;
#288 = DIRECTION ( 'NONE',  ( 1.000000000000000000, 0.000000000000000000, 0.000000000000000000 ) ) ;
#289 = CARTESIAN_POINT ( 'NONE',  ( 1.913510623667739463E-17, 0.8125000000000000000, 0.1562500000000000000 ) ) ;
#290 = LINE ( 'NONE', #69, #198 ) ;
#291 = DIRECTION ( 'NONE',  ( 0.000000000000000000, 0.000000000000000000, -1.000000000000000000 ) ) ;
#292 = EDGE_CURVE ( 'NONE', #163, #296, #123, .T. ) ;
#293 = DIMENSIONAL_EXPONENTS ( 1.000000000000000000, 0.000000000000000000, 0.000000000000000000, 0.000000000000000000, 0.000000000000000000, 0.000000000000000000, 0.000000000000000000 ) ;
#294 = DIRECTION ( 'NONE',  ( -3.628583108584750472E-17, 1.000000000000000000, -0.000000000000000000 ) ) ;
#295 = PRESENTATION_LAYER_ASSIGNMENT (  '', '', ( #92 ) ) ;
#296 = VERTEX_POINT ( 'NONE', #249 ) ;
#297 = DIRECTION ( 'NONE',  ( -1.000000000000000000, 0.000000000000000000, 0.000000000000000000 ) ) ;
#298 = SURFACE_STYLE_USAGE ( .BOTH. , #54 ) ;
#299 = ADVANCED_FACE ( 'NONE', ( #307 ), #219, .T. ) ;
#300 = VERTEX_POINT ( 'NONE', #48 ) ;
#301 = SURFACE_SIDE_STYLE ('',( #105 ) ) ;
#302 = SURFACE_STYLE_USAGE ( .BOTH. , #130 ) ;
#303 = MECHANICAL_DESIGN_GEOMETRIC_PRESENTATION_REPRESENTATION (  '', ( #55 ), #167 ) ;
#304 = ORIENTED_EDGE ( 'NONE', *, *, #73, .T. ) ;
#305 = CARTESIAN_POINT ( 'NONE',  ( 0.1562500000000000000, 2.500000000000000000, 1.913510623667739771E-17 ) ) ;
#306 = LENGTH_MEASURE_WITH_UNIT ( LENGTH_MEASURE( 0.02539999999999999897 ), #17 );
#307 = FACE_OUTER_BOUND ( 'NONE', #230, .T. ) ;
#308 = FILL_AREA_STYLE_COLOUR ( '', #220 ) ;
#309 = CARTESIAN_POINT ( 'NONE',  ( 0.000000000000000000, 0.000000000000000000, 0.000000000000000000 ) ) ;
ENDSEC;
END-ISO-10303-21;
