ISO-10303-21;
HEADER;
FILE_DESCRIPTION (( 'STEP AP214' ),
    '1' );
FILE_NAME ('Micro_GEM-156-3.STEP',
    '2021-09-01T19:49:50',
    ( '' ),
    ( '' ),
    'SwSTEP 2.0',
    'SolidWorks 2020',
    '' );
FILE_SCHEMA (( 'AUTOMOTIVE_DESIGN' ));
ENDSEC;

DATA;
#1 = SURFACE_STYLE_FILL_AREA ( #235 ) ;
#2 = ORIENTED_EDGE ( 'NONE', *, *, #250, .T. ) ;
#3 = AXIS2_PLACEMENT_3D ( 'NONE', #221, #111, #16 ) ;
#4 = CIRCLE ( 'NONE', #103, 0.09375000000000001388 ) ;
#5 = VERTEX_POINT ( 'NONE', #132 ) ;
#6 = EDGE_CURVE ( 'NONE', #197, #285, #294, .T. ) ;
#7 = ORIENTED_EDGE ( 'NONE', *, *, #272, .F. ) ;
#8 = ORIENTED_EDGE ( 'NONE', *, *, #295, .T. ) ;
#9 = COLOUR_RGB ( '',0.7921568627450980005, 0.8196078431372548767, 0.9333333333333333481 ) ;
#10 = ORIENTED_EDGE ( 'NONE', *, *, #194, .F. ) ;
#11 = CARTESIAN_POINT ( 'NONE',  ( 0.0000000000000000000, 0.0000000000000000000, 2.000000000000000000 ) ) ;
#12 = DIRECTION ( 'NONE',  ( 0.0000000000000000000, 0.0000000000000000000, 1.000000000000000000 ) ) ;
#13 = DIRECTION ( 'NONE',  ( -1.000000000000000000, 0.0000000000000000000, 0.0000000000000000000 ) ) ;
#14 =( GEOMETRIC_REPRESENTATION_CONTEXT ( 3 ) GLOBAL_UNCERTAINTY_ASSIGNED_CONTEXT ( ( #148 ) ) GLOBAL_UNIT_ASSIGNED_CONTEXT ( ( #40, #289, #225 ) ) REPRESENTATION_CONTEXT ( 'NONE', 'WORKASPACE' ) );
#15 =( GEOMETRIC_REPRESENTATION_CONTEXT ( 3 ) GLOBAL_UNCERTAINTY_ASSIGNED_CONTEXT ( ( #125 ) ) GLOBAL_UNIT_ASSIGNED_CONTEXT ( ( #124, #99, #177 ) ) REPRESENTATION_CONTEXT ( 'NONE', 'WORKASPACE' ) );
#16 = DIRECTION ( 'NONE',  ( 1.000000000000000000, 0.0000000000000000000, -0.0000000000000000000 ) ) ;
#17 = CYLINDRICAL_SURFACE ( 'NONE', #114, 0.07802190000000000514 ) ;
#18 = FACE_OUTER_BOUND ( 'NONE', #260, .T. ) ;
#19 = AXIS2_PLACEMENT_3D ( 'NONE', #167, #144, #271 ) ;
#20 = DIRECTION ( 'NONE',  ( 0.1736481776669313304, 0.0000000000000000000, 0.9848077530122077983 ) ) ;
#21 = VERTEX_POINT ( 'NONE', #149 ) ;
#22 =( NAMED_UNIT ( * ) SI_UNIT ( $, .STERADIAN. ) SOLID_ANGLE_UNIT ( ) );
#23 = EDGE_CURVE ( 'NONE', #197, #172, #215, .T. ) ;
#24 = LINE ( 'NONE', #192, #279 ) ;
#25 = AXIS2_PLACEMENT_3D ( 'NONE', #186, #188, #48 ) ;
#26 = COLOUR_RGB ( '',0.7921568627450980005, 0.8196078431372548767, 0.9333333333333333481 ) ;
#27 = CARTESIAN_POINT ( 'NONE',  ( -0.07802190000000000514, 0.0000000000000000000, 9.554927009839488851E-18 ) ) ;
#28 = ADVANCED_FACE ( 'NONE', ( #237 ), #107, .T. ) ;
#29 = EDGE_LOOP ( 'NONE', ( #218, #154, #228, #187 ) ) ;
#30 = SURFACE_STYLE_USAGE ( .BOTH. , #240 ) ;
#31 = VERTEX_POINT ( 'NONE', #98 ) ;
#32 = EDGE_CURVE ( 'NONE', #172, #251, #239, .T. ) ;
#33 = CONICAL_SURFACE ( 'NONE', #25, 0.07874999999999980627, 0.7853981633974466137 ) ;
#34 = DIRECTION ( 'NONE',  ( 1.224646799147353207E-16, 0.0000000000000000000, 1.000000000000000000 ) ) ;
#35 =( LENGTH_UNIT ( ) NAMED_UNIT ( * ) SI_UNIT ( $, .METRE. ) );
#36 = CARTESIAN_POINT ( 'NONE',  ( -0.09375000000000001388, 0.0000000000000000000, 2.000000000000000000 ) ) ;
#37 = CARTESIAN_POINT ( 'NONE',  ( 0.0000000000000000000, 0.0000000000000000000, 2.000000000000000000 ) ) ;
#38 = AXIS2_PLACEMENT_3D ( 'NONE', #145, #143, #210 ) ;
#39 = FACE_OUTER_BOUND ( 'NONE', #189, .T. ) ;
#40 =( CONVERSION_BASED_UNIT ( 'INCH', #83 ) LENGTH_UNIT ( ) NAMED_UNIT ( #180 ) );
#41 = DIRECTION ( 'NONE',  ( -1.224646799147353207E-16, -0.0000000000000000000, -1.000000000000000000 ) ) ;
#42 = VECTOR ( 'NONE', #120, 39.37007874015748143 ) ;
#43 = DIMENSIONAL_EXPONENTS ( 1.000000000000000000, 0.0000000000000000000, 0.0000000000000000000, 0.0000000000000000000, 0.0000000000000000000, 0.0000000000000000000, 0.0000000000000000000 ) ;
#44 = CARTESIAN_POINT ( 'NONE',  ( 0.0000000000000000000, 0.0000000000000000000, 2.000000000000000000 ) ) ;
#45 = DIRECTION ( 'NONE',  ( -1.000000000000000000, 0.0000000000000000000, 1.224646799147353207E-16 ) ) ;
#46 = MANIFOLD_SOLID_BREP ( 'Cut-Revolve1', #253 ) ;
#47 =( LENGTH_UNIT ( ) NAMED_UNIT ( * ) SI_UNIT ( $, .METRE. ) );
#48 = DIRECTION ( 'NONE',  ( -1.000000000000000000, 0.0000000000000000000, 0.0000000000000000000 ) ) ;
#49 = DIRECTION ( 'NONE',  ( 1.000000000000000000, 0.0000000000000000000, 0.0000000000000000000 ) ) ;
#50 = ORIENTED_EDGE ( 'NONE', *, *, #272, .T. ) ;
#51 = DIRECTION ( 'NONE',  ( 1.000000000000000000, 0.0000000000000000000, 0.0000000000000000000 ) ) ;
#52 = UNCERTAINTY_MEASURE_WITH_UNIT (LENGTH_MEASURE( 1.000000000000000082E-05 ), #275, 'distance_accuracy_value', 'NONE');
#53 = ORIENTED_EDGE ( 'NONE', *, *, #57, .T. ) ;
#54 = CIRCLE ( 'NONE', #212, 0.07802190000000000514 ) ;
#55 =( GEOMETRIC_REPRESENTATION_CONTEXT ( 3 ) GLOBAL_UNCERTAINTY_ASSIGNED_CONTEXT ( ( #52 ) ) GLOBAL_UNIT_ASSIGNED_CONTEXT ( ( #275, #166, #22 ) ) REPRESENTATION_CONTEXT ( 'NONE', 'WORKASPACE' ) );
#56 = ORIENTED_EDGE ( 'NONE', *, *, #155, .F. ) ;
#57 = EDGE_CURVE ( 'NONE', #285, #197, #204, .T. ) ;
#58 = ORIENTED_EDGE ( 'NONE', *, *, #32, .F. ) ;
#59 = SHAPE_DEFINITION_REPRESENTATION ( #191, #220 ) ;
#60 = EDGE_CURVE ( 'NONE', #213, #251, #263, .T. ) ;
#61 = DIRECTION ( 'NONE',  ( 1.000000000000000000, 0.0000000000000000000, 0.0000000000000000000 ) ) ;
#62 = CIRCLE ( 'NONE', #161, 0.09375000000000001388 ) ;
#63 = FILL_AREA_STYLE ('',( #65 ) ) ;
#64 = DIRECTION ( 'NONE',  ( -0.0000000000000000000, -0.0000000000000000000, -1.000000000000000000 ) ) ;
#65 = FILL_AREA_STYLE_COLOUR ( '', #9 ) ;
#66 = DIRECTION ( 'NONE',  ( 1.224646799147353207E-16, 0.0000000000000000000, 1.000000000000000000 ) ) ;
#67 = AXIS2_PLACEMENT_3D ( 'NONE', #160, #246, #13 ) ;
#68 = AXIS2_PLACEMENT_3D ( 'NONE', #170, #258, #232 ) ;
#69 = DIRECTION ( 'NONE',  ( -1.224646799147353207E-16, -0.0000000000000000000, -1.000000000000000000 ) ) ;
#70 = ORIENTED_EDGE ( 'NONE', *, *, #290, .T. ) ;
#71 = LINE ( 'NONE', #297, #214 ) ;
#72 = MECHANICAL_DESIGN_GEOMETRIC_PRESENTATION_REPRESENTATION (  '', ( #86 ), #15 ) ;
#73 = DIRECTION ( 'NONE',  ( -1.000000000000000000, 0.0000000000000000000, 0.0000000000000000000 ) ) ;
#74 = FACE_OUTER_BOUND ( 'NONE', #133, .T. ) ;
#75 = ADVANCED_FACE ( 'NONE', ( #269 ), #248, .F. ) ;
#76 = ORIENTED_EDGE ( 'NONE', *, *, #23, .F. ) ;
#77 = VECTOR ( 'NONE', #100, 39.37007874015748143 ) ;
#78 = ORIENTED_EDGE ( 'NONE', *, *, #194, .T. ) ;
#79 = DIRECTION ( 'NONE',  ( -0.7071067811865463515, 0.0000000000000000000, -0.7071067811865486830 ) ) ;
#80 = VERTEX_POINT ( 'NONE', #134 ) ;
#81 = ORIENTED_EDGE ( 'NONE', *, *, #155, .T. ) ;
#82 = ADVANCED_FACE ( 'NONE', ( #223 ), #96, .T. ) ;
#83 = LENGTH_MEASURE_WITH_UNIT ( LENGTH_MEASURE( 0.02539999999999999897 ), #156 );
#84 = DIRECTION ( 'NONE',  ( -1.000000000000000000, 0.0000000000000000000, 0.0000000000000000000 ) ) ;
#85 = AXIS2_PLACEMENT_3D ( 'NONE', #207, #88, #165 ) ;
#86 = STYLED_ITEM ( 'NONE', ( #129 ), #220 ) ;
#87 = DIRECTION ( 'NONE',  ( -1.000000000000000000, 0.0000000000000000000, 1.224646799147353207E-16 ) ) ;
#88 = DIRECTION ( 'NONE',  ( -1.224646799147353207E-16, -0.0000000000000000000, -1.000000000000000000 ) ) ;
#89 = EDGE_CURVE ( 'NONE', #21, #251, #109, .T. ) ;
#90 = DIRECTION ( 'NONE',  ( -1.224646799147353207E-16, -0.0000000000000000000, -1.000000000000000000 ) ) ;
#91 = CARTESIAN_POINT ( 'NONE',  ( -0.09374999999999991673, 0.0000000000000000000, 0.6521984875871288390 ) ) ;
#92 = CARTESIAN_POINT ( 'NONE',  ( 7.987127902323220081E-17, 0.0000000000000000000, 0.6521984875871288390 ) ) ;
#93 = ADVANCED_FACE ( 'NONE', ( #39 ), #163, .T. ) ;
#94 = PRODUCT_CONTEXT ( 'NONE', #226, 'mechanical' ) ;
#95 = EDGE_LOOP ( 'NONE', ( #7, #2, #78, #242 ) ) ;
#96 = CONICAL_SURFACE ( 'NONE', #193, 0.07802190000000000514, 0.1745329251994338360 ) ;
#97 = ORIENTED_EDGE ( 'NONE', *, *, #238, .F. ) ;
#98 = CARTESIAN_POINT ( 'NONE',  ( 0.09375000000000001388, 1.148106374200643863E-17, 1.984999999999999654 ) ) ;
#99 =( NAMED_UNIT ( * ) PLANE_ANGLE_UNIT ( ) SI_UNIT ( $, .RADIAN. ) );
#100 = DIRECTION ( 'NONE',  ( -0.0000000000000000000, -0.0000000000000000000, -1.000000000000000000 ) ) ;
#101 = ADVANCED_FACE ( 'NONE', ( #202 ), #122, .T. ) ;
#102 = CIRCLE ( 'NONE', #85, 0.07802190000000000514 ) ;
#103 = AXIS2_PLACEMENT_3D ( 'NONE', #92, #227, #113 ) ;
#104 = ORIENTED_EDGE ( 'NONE', *, *, #57, .F. ) ;
#105 = DIRECTION ( 'NONE',  ( 0.0000000000000000000, 0.0000000000000000000, 1.000000000000000000 ) ) ;
#106 = DIRECTION ( 'NONE',  ( 1.000000000000000000, 0.0000000000000000000, -0.0000000000000000000 ) ) ;
#107 = CONICAL_SURFACE ( 'NONE', #229, 0.07802190000000000514, 0.1745329251994338360 ) ;
#108 = DIRECTION ( 'NONE',  ( -1.224646799147353207E-16, -0.0000000000000000000, -1.000000000000000000 ) ) ;
#109 = LINE ( 'NONE', #243, #199 ) ;
#110 = ADVANCED_FACE ( 'NONE', ( #245 ), #135, .T. ) ;
#111 = DIRECTION ( 'NONE',  ( 0.0000000000000000000, 0.0000000000000000000, 1.000000000000000000 ) ) ;
#112 = ADVANCED_FACE ( 'NONE', ( #139 ), #17, .T. ) ;
#113 = DIRECTION ( 'NONE',  ( 1.000000000000000000, 0.0000000000000000000, 0.0000000000000000000 ) ) ;
#114 = AXIS2_PLACEMENT_3D ( 'NONE', #287, #41, #87 ) ;
#115 = ORIENTED_EDGE ( 'NONE', *, *, #6, .T. ) ;
#116 = LINE ( 'NONE', #27, #224 ) ;
#117 = PRODUCT ( 'Micro_GEM-156-3', 'Micro_GEM-156-3', '', ( #94 ) ) ;
#118 = ORIENTED_EDGE ( 'NONE', *, *, #6, .F. ) ;
#119 = ADVANCED_FACE ( 'NONE', ( #183 ), #268, .T. ) ;
#120 = DIRECTION ( 'NONE',  ( 0.7071067811865463515, 8.659560562354916834E-17, -0.7071067811865486830 ) ) ;
#121 = CARTESIAN_POINT ( 'NONE',  ( 0.0000000000000000000, 0.0000000000000000000, 0.0000000000000000000 ) ) ;
#122 = CONICAL_SURFACE ( 'NONE', #244, 0.07874999999999980627, 0.7853981633974466137 ) ;
#123 = PRODUCT_DEFINITION_FORMATION_WITH_SPECIFIED_SOURCE ( 'ANY', '', #117, .NOT_KNOWN. ) ;
#124 =( CONVERSION_BASED_UNIT ( 'INCH', #131 ) LENGTH_UNIT ( ) NAMED_UNIT ( #43 ) );
#125 = UNCERTAINTY_MEASURE_WITH_UNIT (LENGTH_MEASURE( 1.000000000000000082E-05 ), #124, 'distance_accuracy_value', 'NONE');
#126 = APPLICATION_PROTOCOL_DEFINITION ( 'draft international standard', 'automotive_design', 1998, #226 ) ;
#127 = ORIENTED_EDGE ( 'NONE', *, *, #157, .T. ) ;
#128 = ORIENTED_EDGE ( 'NONE', *, *, #157, .F. ) ;
#129 = PRESENTATION_STYLE_ASSIGNMENT (( #30 ) ) ;
#130 = DIRECTION ( 'NONE',  ( 1.000000000000000000, 0.0000000000000000000, 0.0000000000000000000 ) ) ;
#131 = LENGTH_MEASURE_WITH_UNIT ( LENGTH_MEASURE( 0.02539999999999999897 ), #35 );
#132 = CARTESIAN_POINT ( 'NONE',  ( 0.07802190000000000514, 9.554927009839488851E-18, 0.0000000000000000000 ) ) ;
#133 = EDGE_LOOP ( 'NONE', ( #104, #81, #280, #76 ) ) ;
#134 = CARTESIAN_POINT ( 'NONE',  ( 0.07802190000000007453, 0.0000000000000000000, 0.5629999999999999449 ) ) ;
#135 = PLANE ( 'NONE',  #181 ) ;
#136 = CARTESIAN_POINT ( 'NONE',  ( 0.0000000000000000000, 0.0000000000000000000, 2.000000000000000000 ) ) ;
#137 = AXIS2_PLACEMENT_3D ( 'NONE', #247, #108, #184 ) ;
#138 = CARTESIAN_POINT ( 'NONE',  ( 6.894761479199598081E-17, 0.0000000000000000000, 0.5629999999999999449 ) ) ;
#139 = FACE_OUTER_BOUND ( 'NONE', #95, .T. ) ;
#140 = ADVANCED_FACE ( 'NONE', ( #74 ), #33, .T. ) ;
#141 = CYLINDRICAL_SURFACE ( 'NONE', #158, 0.07802190000000000514 ) ;
#142 = CARTESIAN_POINT ( 'NONE',  ( 0.07874999999999980627, 9.644093543285380530E-18, 2.000000000000000000 ) ) ;
#143 = DIRECTION ( 'NONE',  ( -1.224646799147353207E-16, -0.0000000000000000000, -1.000000000000000000 ) ) ;
#144 = DIRECTION ( 'NONE',  ( 0.0000000000000000000, 0.0000000000000000000, -1.000000000000000000 ) ) ;
#145 = CARTESIAN_POINT ( 'NONE',  ( 6.894761479199598081E-17, 0.0000000000000000000, 0.5629999999999999449 ) ) ;
#146 = AXIS2_PLACEMENT_3D ( 'NONE', #37, #150, #51 ) ;
#147 = VERTEX_POINT ( 'NONE', #255 ) ;
#148 = UNCERTAINTY_MEASURE_WITH_UNIT (LENGTH_MEASURE( 1.000000000000000082E-05 ), #40, 'distance_accuracy_value', 'NONE');
#149 = CARTESIAN_POINT ( 'NONE',  ( -0.07802189999999993575, 1.051799537592296220E-17, 0.5629999999999999449 ) ) ;
#150 = DIRECTION ( 'NONE',  ( 0.0000000000000000000, 0.0000000000000000000, 1.000000000000000000 ) ) ;
#151 = AXIS2_PLACEMENT_3D ( 'NONE', #278, #69, #230 ) ;
#152 = EDGE_LOOP ( 'NONE', ( #56, #118, #178, #97 ) ) ;
#153 = FILL_AREA_STYLE_COLOUR ( '', #26 ) ;
#154 = ORIENTED_EDGE ( 'NONE', *, *, #238, .T. ) ;
#155 = EDGE_CURVE ( 'NONE', #285, #31, #273, .T. ) ;
#156 =( LENGTH_UNIT ( ) NAMED_UNIT ( * ) SI_UNIT ( $, .METRE. ) );
#157 = EDGE_CURVE ( 'NONE', #21, #80, #236, .T. ) ;
#158 = AXIS2_PLACEMENT_3D ( 'NONE', #121, #252, #45 ) ;
#159 = APPLICATION_CONTEXT ( 'automotive_design' ) ;
#160 = CARTESIAN_POINT ( 'NONE',  ( 0.0000000000000000000, 0.0000000000000000000, 2.000000000000000000 ) ) ;
#161 = AXIS2_PLACEMENT_3D ( 'NONE', #209, #211, #49 ) ;
#162 = VECTOR ( 'NONE', #249, 39.37007874015748143 ) ;
#163 = CYLINDRICAL_SURFACE ( 'NONE', #171, 0.09375000000000001388 ) ;
#164 = CARTESIAN_POINT ( 'NONE',  ( 0.09375000000000001388, 1.148106374200643863E-17, 2.000000000000000000 ) ) ;
#165 = DIRECTION ( 'NONE',  ( -1.000000000000000000, 0.0000000000000000000, 1.224646799147353207E-16 ) ) ;
#166 =( NAMED_UNIT ( * ) PLANE_ANGLE_UNIT ( ) SI_UNIT ( $, .RADIAN. ) );
#167 = CARTESIAN_POINT ( 'NONE',  ( 0.0000000000000000000, 0.0000000000000000000, 1.984999999999999654 ) ) ;
#168 = CARTESIAN_POINT ( 'NONE',  ( 0.09375000000000009714, 1.148106374200644787E-17, 0.6521984875871288390 ) ) ;
#169 = EDGE_CURVE ( 'NONE', #80, #213, #71, .T. ) ;
#170 = CARTESIAN_POINT ( 'NONE',  ( 0.0000000000000000000, 0.0000000000000000000, 0.0000000000000000000 ) ) ;
#171 = AXIS2_PLACEMENT_3D ( 'NONE', #11, #64, #206 ) ;
#172 = VERTEX_POINT ( 'NONE', #277 ) ;
#173 = ORIENTED_EDGE ( 'NONE', *, *, #250, .F. ) ;
#174 = ORIENTED_EDGE ( 'NONE', *, *, #89, .T. ) ;
#175 = ORIENTED_EDGE ( 'NONE', *, *, #292, .T. ) ;
#176 = STYLED_ITEM ( 'NONE', ( #205 ), #46 ) ;
#177 =( NAMED_UNIT ( * ) SI_UNIT ( $, .STERADIAN. ) SOLID_ANGLE_UNIT ( ) );
#178 = ORIENTED_EDGE ( 'NONE', *, *, #23, .T. ) ;
#179 = DIRECTION ( 'NONE',  ( 1.000000000000000000, 0.0000000000000000000, 0.0000000000000000000 ) ) ;
#180 = DIMENSIONAL_EXPONENTS ( 1.000000000000000000, 0.0000000000000000000, 0.0000000000000000000, 0.0000000000000000000, 0.0000000000000000000, 0.0000000000000000000, 0.0000000000000000000 ) ;
#181 = AXIS2_PLACEMENT_3D ( 'NONE', #44, #12, #106 ) ;
#182 = PRESENTATION_LAYER_ASSIGNMENT (  '', '', ( #86 ) ) ;
#183 = FACE_OUTER_BOUND ( 'NONE', #29, .T. ) ;
#184 = DIRECTION ( 'NONE',  ( 1.000000000000000000, 0.0000000000000000000, 0.0000000000000000000 ) ) ;
#185 = PRESENTATION_LAYER_ASSIGNMENT (  '', '', ( #176 ) ) ;
#186 = CARTESIAN_POINT ( 'NONE',  ( 0.0000000000000000000, 0.0000000000000000000, 2.000000000000000000 ) ) ;
#187 = ORIENTED_EDGE ( 'NONE', *, *, #60, .F. ) ;
#188 = DIRECTION ( 'NONE',  ( 0.0000000000000000000, 0.0000000000000000000, -1.000000000000000000 ) ) ;
#189 = EDGE_LOOP ( 'NONE', ( #70, #175, #282, #58 ) ) ;
#190 = LENGTH_MEASURE_WITH_UNIT ( LENGTH_MEASURE( 0.02539999999999999897 ), #47 );
#191 = PRODUCT_DEFINITION_SHAPE ( 'NONE', 'NONE',  #262 ) ;
#192 = CARTESIAN_POINT ( 'NONE',  ( 0.07802190000000000514, 9.554927009839488851E-18, -9.554927009839488851E-18 ) ) ;
#193 = AXIS2_PLACEMENT_3D ( 'NONE', #138, #66, #61 ) ;
#194 = EDGE_CURVE ( 'NONE', #21, #147, #116, .T. ) ;
#195 = ORIENTED_EDGE ( 'NONE', *, *, #254, .T. ) ;
#196 = CARTESIAN_POINT ( 'NONE',  ( -0.07874999999999980627, 0.0000000000000000000, 2.000000000000000000 ) ) ;
#197 = VERTEX_POINT ( 'NONE', #257 ) ;
#198 = CARTESIAN_POINT ( 'NONE',  ( 0.0000000000000000000, 0.0000000000000000000, 2.000000000000000000 ) ) ;
#199 = VECTOR ( 'NONE', #267, 39.37007874015747433 ) ;
#200 = ORIENTED_EDGE ( 'NONE', *, *, #241, .T. ) ;
#201 = DIMENSIONAL_EXPONENTS ( 1.000000000000000000, 0.0000000000000000000, 0.0000000000000000000, 0.0000000000000000000, 0.0000000000000000000, 0.0000000000000000000, 0.0000000000000000000 ) ;
#202 = FACE_OUTER_BOUND ( 'NONE', #152, .T. ) ;
#203 = SURFACE_SIDE_STYLE ('',( #222 ) ) ;
#204 = CIRCLE ( 'NONE', #288, 0.07874999999999980627 ) ;
#205 = PRESENTATION_STYLE_ASSIGNMENT (( #291 ) ) ;
#206 = DIRECTION ( 'NONE',  ( -1.000000000000000000, 0.0000000000000000000, 0.0000000000000000000 ) ) ;
#207 = CARTESIAN_POINT ( 'NONE',  ( 1.170141077868652023E-33, 0.0000000000000000000, 9.554927009839488851E-18 ) ) ;
#208 = DIRECTION ( 'NONE',  ( -1.224646799147353207E-16, -0.0000000000000000000, -1.000000000000000000 ) ) ;
#209 = CARTESIAN_POINT ( 'NONE',  ( 0.0000000000000000000, 0.0000000000000000000, 1.984999999999999654 ) ) ;
#210 = DIRECTION ( 'NONE',  ( -1.000000000000000000, 0.0000000000000000000, 0.0000000000000000000 ) ) ;
#211 = DIRECTION ( 'NONE',  ( 0.0000000000000000000, 0.0000000000000000000, -1.000000000000000000 ) ) ;
#212 = AXIS2_PLACEMENT_3D ( 'NONE', #231, #90, #73 ) ;
#213 = VERTEX_POINT ( 'NONE', #168 ) ;
#214 = VECTOR ( 'NONE', #20, 39.37007874015748143 ) ;
#215 = LINE ( 'NONE', #196, #270 ) ;
#216 = ORIENTED_EDGE ( 'NONE', *, *, #60, .T. ) ;
#217 = CARTESIAN_POINT ( 'NONE',  ( 6.894761479199598081E-17, 0.0000000000000000000, 0.5629999999999999449 ) ) ;
#218 = ORIENTED_EDGE ( 'NONE', *, *, #292, .F. ) ;
#219 = MECHANICAL_DESIGN_GEOMETRIC_PRESENTATION_REPRESENTATION (  '', ( #176 ), #14 ) ;
#220 = ADVANCED_BREP_SHAPE_REPRESENTATION ( 'Micro_GEM-156-3', ( #46, #68 ), #55 ) ;
#221 = CARTESIAN_POINT ( 'NONE',  ( 0.0000000000000000000, 0.0000000000000000000, 0.0000000000000000000 ) ) ;
#222 = SURFACE_STYLE_FILL_AREA ( #63 ) ;
#223 = FACE_OUTER_BOUND ( 'NONE', #265, .T. ) ;
#224 = VECTOR ( 'NONE', #296, 39.37007874015748143 ) ;
#225 =( NAMED_UNIT ( * ) SI_UNIT ( $, .STERADIAN. ) SOLID_ANGLE_UNIT ( ) );
#226 = APPLICATION_CONTEXT ( 'automotive_design' ) ;
#227 = DIRECTION ( 'NONE',  ( -1.224646799147353207E-16, -0.0000000000000000000, -1.000000000000000000 ) ) ;
#228 = ORIENTED_EDGE ( 'NONE', *, *, #32, .T. ) ;
#229 = AXIS2_PLACEMENT_3D ( 'NONE', #217, #34, #130 ) ;
#230 = DIRECTION ( 'NONE',  ( -1.000000000000000000, 0.0000000000000000000, 1.224646799147353207E-16 ) ) ;
#231 = CARTESIAN_POINT ( 'NONE',  ( 6.894761479199598081E-17, 0.0000000000000000000, 0.5629999999999999449 ) ) ;
#232 = DIRECTION ( 'NONE',  ( 1.000000000000000000, 0.0000000000000000000, 0.0000000000000000000 ) ) ;
#233 = ORIENTED_EDGE ( 'NONE', *, *, #254, .F. ) ;
#234 = ORIENTED_EDGE ( 'NONE', *, *, #89, .F. ) ;
#235 = FILL_AREA_STYLE ('',( #153 ) ) ;
#236 = CIRCLE ( 'NONE', #38, 0.07802190000000000514 ) ;
#237 = FACE_OUTER_BOUND ( 'NONE', #274, .T. ) ;
#238 = EDGE_CURVE ( 'NONE', #31, #172, #284, .T. ) ;
#239 = LINE ( 'NONE', #36, #77 ) ;
#240 = SURFACE_SIDE_STYLE ('',( #1 ) ) ;
#241 = EDGE_CURVE ( 'NONE', #5, #147, #276, .T. ) ;
#242 = ORIENTED_EDGE ( 'NONE', *, *, #241, .F. ) ;
#243 = CARTESIAN_POINT ( 'NONE',  ( -0.07802189999999993575, 9.554927009839488851E-18, 0.5629999999999999449 ) ) ;
#244 = AXIS2_PLACEMENT_3D ( 'NONE', #136, #286, #84 ) ;
#245 = FACE_OUTER_BOUND ( 'NONE', #261, .T. ) ;
#246 = DIRECTION ( 'NONE',  ( -0.0000000000000000000, -0.0000000000000000000, -1.000000000000000000 ) ) ;
#247 = CARTESIAN_POINT ( 'NONE',  ( 7.987127902323220081E-17, 0.0000000000000000000, 0.6521984875871288390 ) ) ;
#248 = PLANE ( 'NONE',  #3 ) ;
#249 = DIRECTION ( 'NONE',  ( -0.0000000000000000000, -0.0000000000000000000, -1.000000000000000000 ) ) ;
#250 = EDGE_CURVE ( 'NONE', #80, #21, #54, .T. ) ;
#251 = VERTEX_POINT ( 'NONE', #91 ) ;
#252 = DIRECTION ( 'NONE',  ( -1.224646799147353207E-16, -0.0000000000000000000, -1.000000000000000000 ) ) ;
#253 = CLOSED_SHELL ( 'NONE', ( #281, #28, #140, #93, #119, #110, #101, #82, #112, #75 ) ) ;
#254 = EDGE_CURVE ( 'NONE', #147, #5, #102, .T. ) ;
#255 = CARTESIAN_POINT ( 'NONE',  ( -0.07802190000000000514, 0.0000000000000000000, 1.910985401967897770E-17 ) ) ;
#256 = PRODUCT_DEFINITION_CONTEXT ( 'detailed design', #159, 'design' ) ;
#257 = CARTESIAN_POINT ( 'NONE',  ( -0.07874999999999980627, 0.0000000000000000000, 2.000000000000000000 ) ) ;
#258 = DIRECTION ( 'NONE',  ( 0.0000000000000000000, 0.0000000000000000000, 1.000000000000000000 ) ) ;
#259 = ORIENTED_EDGE ( 'NONE', *, *, #169, .T. ) ;
#260 = EDGE_LOOP ( 'NONE', ( #127, #50, #233, #10 ) ) ;
#261 = EDGE_LOOP ( 'NONE', ( #115, #53 ) ) ;
#262 = PRODUCT_DEFINITION ( 'UNKNOWN', '', #123, #256 ) ;
#263 = CIRCLE ( 'NONE', #137, 0.09375000000000001388 ) ;
#264 = EDGE_LOOP ( 'NONE', ( #195, #200 ) ) ;
#265 = EDGE_LOOP ( 'NONE', ( #234, #173, #259, #216 ) ) ;
#266 = APPLICATION_PROTOCOL_DEFINITION ( 'draft international standard', 'automotive_design', 1998, #159 ) ;
#267 = DIRECTION ( 'NONE',  ( -0.1736481776669311639, 2.126576849575782392E-17, 0.9848077530122080203 ) ) ;
#268 = CYLINDRICAL_SURFACE ( 'NONE', #67, 0.09375000000000001388 ) ;
#269 = FACE_OUTER_BOUND ( 'NONE', #264, .T. ) ;
#270 = VECTOR ( 'NONE', #79, 39.37007874015748143 ) ;
#271 = DIRECTION ( 'NONE',  ( 1.000000000000000000, 0.0000000000000000000, 0.0000000000000000000 ) ) ;
#272 = EDGE_CURVE ( 'NONE', #80, #5, #24, .T. ) ;
#273 = LINE ( 'NONE', #142, #42 ) ;
#274 = EDGE_LOOP ( 'NONE', ( #128, #174, #8, #283 ) ) ;
#275 =( CONVERSION_BASED_UNIT ( 'INCH', #190 ) LENGTH_UNIT ( ) NAMED_UNIT ( #201 ) );
#276 = CIRCLE ( 'NONE', #151, 0.07802190000000000514 ) ;
#277 = CARTESIAN_POINT ( 'NONE',  ( -0.09375000000000001388, 0.0000000000000000000, 1.984999999999999654 ) ) ;
#278 = CARTESIAN_POINT ( 'NONE',  ( 1.170141077868652023E-33, 0.0000000000000000000, 9.554927009839488851E-18 ) ) ;
#279 = VECTOR ( 'NONE', #208, 39.37007874015748143 ) ;
#280 = ORIENTED_EDGE ( 'NONE', *, *, #290, .F. ) ;
#281 = ADVANCED_FACE ( 'NONE', ( #18 ), #141, .T. ) ;
#282 = ORIENTED_EDGE ( 'NONE', *, *, #295, .F. ) ;
#283 = ORIENTED_EDGE ( 'NONE', *, *, #169, .F. ) ;
#284 = CIRCLE ( 'NONE', #19, 0.09375000000000001388 ) ;
#285 = VERTEX_POINT ( 'NONE', #293 ) ;
#286 = DIRECTION ( 'NONE',  ( 0.0000000000000000000, 0.0000000000000000000, -1.000000000000000000 ) ) ;
#287 = CARTESIAN_POINT ( 'NONE',  ( 0.0000000000000000000, 0.0000000000000000000, 0.0000000000000000000 ) ) ;
#288 = AXIS2_PLACEMENT_3D ( 'NONE', #198, #105, #179 ) ;
#289 =( NAMED_UNIT ( * ) PLANE_ANGLE_UNIT ( ) SI_UNIT ( $, .RADIAN. ) );
#290 = EDGE_CURVE ( 'NONE', #172, #31, #62, .T. ) ;
#291 = SURFACE_STYLE_USAGE ( .BOTH. , #203 ) ;
#292 = EDGE_CURVE ( 'NONE', #31, #213, #298, .T. ) ;
#293 = CARTESIAN_POINT ( 'NONE',  ( 0.07874999999999980627, 1.056257864264590573E-17, 2.000000000000000000 ) ) ;
#294 = CIRCLE ( 'NONE', #146, 0.07874999999999980627 ) ;
#295 = EDGE_CURVE ( 'NONE', #251, #213, #4, .T. ) ;
#296 = DIRECTION ( 'NONE',  ( -1.224646799147353207E-16, -0.0000000000000000000, -1.000000000000000000 ) ) ;
#297 = CARTESIAN_POINT ( 'NONE',  ( 0.07802190000000007453, 0.0000000000000000000, 0.5629999999999999449 ) ) ;
#298 = LINE ( 'NONE', #164, #162 ) ;
#299 = PRODUCT_RELATED_PRODUCT_CATEGORY ( 'part', '', ( #117 ) ) ;
ENDSEC;
END-ISO-10303-21;
