ISO-10303-21;
HEADER;
FILE_DESCRIPTION (( 'STEP AP214' ),
    '1' );
FILE_NAME ('06408.STEP',
    '2023-07-05T16:02:37',
    ( '' ),
    ( '' ),
    'SwSTEP 2.0',
    'SolidWorks 2023',
    '' );
FILE_SCHEMA (( 'AUTOMOTIVE_DESIGN' ));
ENDSEC;

DATA;
#1 = DIRECTION ( 'NONE',  ( -1.223875815962772189E-16, 1.000000000000000000, -0.000000000000000000 ) ) ;
#2 = CLOSED_SHELL ( 'NONE', ( #102, #220, #63, #195 ) ) ;
#3 = CONICAL_SURFACE ( 'NONE', #246, 68.19097667594041923, 1.047197551196600074 ) ;
#4 = CARTESIAN_POINT ( 'NONE',  ( 3.628235616585349371E-16, 0.03608439182435149023, 0.000000000000000000 ) ) ;
#5 = FILL_AREA_STYLE ('',( #217 ) ) ;
#6 = FACE_OUTER_BOUND ( 'NONE', #125, .T. ) ;
#7 = DIRECTION ( 'NONE',  ( -1.223875815962772189E-16, 1.000000000000000000, -0.000000000000000000 ) ) ;
#8 = MECHANICAL_DESIGN_GEOMETRIC_PRESENTATION_REPRESENTATION (  '', ( #23 ), #64 ) ;
#9 = MECHANICAL_DESIGN_GEOMETRIC_PRESENTATION_REPRESENTATION (  '', ( #46 ), #206 ) ;
#10 = DIRECTION ( 'NONE',  ( -1.223875815962772189E-16, 1.000000000000000000, -0.000000000000000000 ) ) ;
#11 =( NAMED_UNIT ( * ) SI_UNIT ( $, .STERADIAN. ) SOLID_ANGLE_UNIT ( ) );
#12 = ORIENTED_EDGE ( 'NONE', *, *, #30, .F. ) ;
#13 = EDGE_CURVE ( 'NONE', #199, #106, #142, .T. ) ;
#14 = DIRECTION ( 'NONE',  ( 0.000000000000000000, 0.000000000000000000, 1.000000000000000000 ) ) ;
#15 = CARTESIAN_POINT ( 'NONE',  ( 0.06250000000000008327, 2.000000000000000000, 0.000000000000000000 ) ) ;
#16 = STYLED_ITEM ( 'NONE', ( #197 ), #214 ) ;
#17 = LENGTH_MEASURE_WITH_UNIT ( LENGTH_MEASURE( 0.02539999999999999897 ), #51 );
#18 = DIRECTION ( 'NONE',  ( 0.000000000000000000, -0.000000000000000000, 1.000000000000000000 ) ) ;
#19 = AXIS2_PLACEMENT_3D ( 'NONE', #122, #145, #18 ) ;
#20 = PRESENTATION_LAYER_ASSIGNMENT (  '', '', ( #46 ) ) ;
#21 =( CONVERSION_BASED_UNIT ( 'INCH', #265 ) LENGTH_UNIT ( ) NAMED_UNIT ( #103 ) );
#22 = DIRECTION ( 'NONE',  ( -1.000000000000000000, -1.365923996832137526E-16, 0.000000000000000000 ) ) ;
#23 = STYLED_ITEM ( 'NONE', ( #150 ), #143 ) ;
#24 = DIRECTION ( 'NONE',  ( -1.000000000000000000, -1.365923996832137526E-16, 0.000000000000000000 ) ) ;
#25 = CARTESIAN_POINT ( 'NONE',  ( 0.000000000000000000, 39.37007874015748143, 0.000000000000000000 ) ) ;
#26 = EDGE_LOOP ( 'NONE', ( #71, #151, #73 ) ) ;
#27 = ADVANCED_BREP_SHAPE_REPRESENTATION ( '06408', ( #225, #143, #31 ), #172 ) ;
#28 = DIRECTION ( 'NONE',  ( 0.000000000000000000, 0.000000000000000000, -1.000000000000000000 ) ) ;
#29 = CARTESIAN_POINT ( 'NONE',  ( 1.224646799147353700E-16, 2.000000000000000000, 0.000000000000000000 ) ) ;
#30 = EDGE_CURVE ( 'NONE', #199, #111, #97, .T. ) ;
#31 = AXIS2_PLACEMENT_3D ( 'NONE', #144, #78, #202 ) ;
#32 = PRESENTATION_STYLE_ASSIGNMENT (( #176 ) ) ;
#33 = DIRECTION ( 'NONE',  ( 1.223875815962772189E-16, -1.000000000000000000, 0.000000000000000000 ) ) ;
#34 =( NAMED_UNIT ( * ) PLANE_ANGLE_UNIT ( ) SI_UNIT ( $, .RADIAN. ) );
#35 = AXIS2_PLACEMENT_3D ( 'NONE', #182, #185, #92 ) ;
#36 = PRODUCT_RELATED_PRODUCT_CATEGORY ( 'part', '', ( #169 ) ) ;
#37 = PRODUCT_CONTEXT ( 'NONE', #170, 'mechanical' ) ;
#38 = VECTOR ( 'NONE', #192, 39.37007874015748143 ) ;
#39 = LENGTH_MEASURE_WITH_UNIT ( LENGTH_MEASURE( 0.02539999999999999897 ), #165 );
#40 = DIMENSIONAL_EXPONENTS ( 1.000000000000000000, 0.000000000000000000, 0.000000000000000000, 0.000000000000000000, 0.000000000000000000, 0.000000000000000000, 0.000000000000000000 ) ;
#41 = ORIENTED_EDGE ( 'NONE', *, *, #248, .T. ) ;
#42 = DIMENSIONAL_EXPONENTS ( 1.000000000000000000, 0.000000000000000000, 0.000000000000000000, 0.000000000000000000, 0.000000000000000000, 0.000000000000000000, 0.000000000000000000 ) ;
#43 = ORIENTED_EDGE ( 'NONE', *, *, #164, .F. ) ;
#44 = COLOUR_RGB ( '',1.000000000000000000, 0.000000000000000000, 0.000000000000000000 ) ;
#45 = AXIS2_PLACEMENT_3D ( 'NONE', #15, #33, #117 ) ;
#46 = STYLED_ITEM ( 'NONE', ( #99 ), #242 ) ;
#47 = SURFACE_STYLE_USAGE ( .BOTH. , #157 ) ;
#48 = PLANE ( 'NONE',  #19 ) ;
#49 = UNCERTAINTY_MEASURE_WITH_UNIT (LENGTH_MEASURE( 1.000000000000000082E-05 ), #260, 'distance_accuracy_value', 'NONE');
#50 = VERTEX_POINT ( 'NONE', #57 ) ;
#51 =( LENGTH_UNIT ( ) NAMED_UNIT ( * ) SI_UNIT ( $, .METRE. ) );
#52 = LENGTH_MEASURE_WITH_UNIT ( LENGTH_MEASURE( 0.02539999999999999897 ), #250 );
#53 =( NAMED_UNIT ( * ) PLANE_ANGLE_UNIT ( ) SI_UNIT ( $, .RADIAN. ) );
#54 = LENGTH_MEASURE_WITH_UNIT ( LENGTH_MEASURE( 0.02539999999999999897 ), #236 );
#55 = CARTESIAN_POINT ( 'NONE',  ( 1.224646799147353700E-16, 2.000000000000000000, 0.000000000000000000 ) ) ;
#56 = FILL_AREA_STYLE_COLOUR ( '', #44 ) ;
#57 = CARTESIAN_POINT ( 'NONE',  ( 0.06250000000000008327, 2.000000000000000000, 7.654042494670945219E-18 ) ) ;
#58 = CARTESIAN_POINT ( 'NONE',  ( 0.000000000000000000, 0.000000000000000000, 0.000000000000000000 ) ) ;
#59 = FACE_OUTER_BOUND ( 'NONE', #26, .T. ) ;
#60 = VECTOR ( 'NONE', #108, 39.37007874015748854 ) ;
#61 = SURFACE_STYLE_USAGE ( .BOTH. , #201 ) ;
#62 = VECTOR ( 'NONE', #94, 39.37007874015748854 ) ;
#63 = ADVANCED_FACE ( 'NONE', ( #90 ), #68, .T. ) ;
#64 =( GEOMETRIC_REPRESENTATION_CONTEXT ( 3 ) GLOBAL_UNCERTAINTY_ASSIGNED_CONTEXT ( ( #207 ) ) GLOBAL_UNIT_ASSIGNED_CONTEXT ( ( #21, #210, #191 ) ) REPRESENTATION_CONTEXT ( 'NONE', 'WORKASPACE' ) );
#65 = ORIENTED_EDGE ( 'NONE', *, *, #13, .T. ) ;
#66 = VERTEX_POINT ( 'NONE', #129 ) ;
#67 = FILL_AREA_STYLE ('',( #88 ) ) ;
#68 = CYLINDRICAL_SURFACE ( 'NONE', #87, 0.06249999999999984734 ) ;
#69 = CARTESIAN_POINT ( 'NONE',  ( 1.224646799147353700E-16, 2.000000000000000000, 0.000000000000000000 ) ) ;
#70 = UNCERTAINTY_MEASURE_WITH_UNIT (LENGTH_MEASURE( 1.000000000000000082E-05 ), #238, 'distance_accuracy_value', 'NONE');
#71 = ORIENTED_EDGE ( 'NONE', *, *, #203, .F. ) ;
#72 = AXIS2_PLACEMENT_3D ( 'NONE', #163, #241, #222 ) ;
#73 = ORIENTED_EDGE ( 'NONE', *, *, #224, .T. ) ;
#74 = FILL_AREA_STYLE ('',( #119 ) ) ;
#75 = ORIENTED_EDGE ( 'NONE', *, *, #13, .F. ) ;
#76 = DIRECTION ( 'NONE',  ( 0.000000000000000000, 0.000000000000000000, 1.000000000000000000 ) ) ;
#77 = CARTESIAN_POINT ( 'NONE',  ( -0.06249999999999936856, 0.03608439182435148329, 0.000000000000000000 ) ) ;
#78 = DIRECTION ( 'NONE',  ( 0.000000000000000000, 0.000000000000000000, 1.000000000000000000 ) ) ;
#79 = DIMENSIONAL_EXPONENTS ( 1.000000000000000000, 0.000000000000000000, 0.000000000000000000, 0.000000000000000000, 0.000000000000000000, 0.000000000000000000, 0.000000000000000000 ) ;
#80 =( NAMED_UNIT ( * ) SI_UNIT ( $, .STERADIAN. ) SOLID_ANGLE_UNIT ( ) );
#81 = PRESENTATION_STYLE_ASSIGNMENT (( #61 ) ) ;
#82 = CARTESIAN_POINT ( 'NONE',  ( 0.000000000000000000, 0.000000000000000000, 0.000000000000000000 ) ) ;
#83 = CONICAL_SURFACE ( 'NONE', #205, 68.19097667594041923, 1.047197551196600074 ) ;
#84 = SURFACE_STYLE_FILL_AREA ( #168 ) ;
#85 = APPLICATION_PROTOCOL_DEFINITION ( 'draft international standard', 'automotive_design', 1998, #229 ) ;
#86 = DIMENSIONAL_EXPONENTS ( 1.000000000000000000, 0.000000000000000000, 0.000000000000000000, 0.000000000000000000, 0.000000000000000000, 0.000000000000000000, 0.000000000000000000 ) ;
#87 = AXIS2_PLACEMENT_3D ( 'NONE', #55, #7, #154 ) ;
#88 = FILL_AREA_STYLE_COLOUR ( '', #147 ) ;
#89 = AXIS2_PLACEMENT_3D ( 'NONE', #69, #10, #178 ) ;
#90 = FACE_OUTER_BOUND ( 'NONE', #190, .T. ) ;
#91 = ORIENTED_EDGE ( 'NONE', *, *, #181, .T. ) ;
#92 = DIRECTION ( 'NONE',  ( -1.000000000000000000, -1.223875815962772189E-16, 0.000000000000000000 ) ) ;
#93 =( NAMED_UNIT ( * ) PLANE_ANGLE_UNIT ( ) SI_UNIT ( $, .RADIAN. ) );
#94 = DIRECTION ( 'NONE',  ( 0.000000000000000000, 0.4999999999999979461, 0.8660254037844397068 ) ) ;
#95 = AXIS2_PLACEMENT_3D ( 'NONE', #258, #213, #28 ) ;
#96 = ORIENTED_EDGE ( 'NONE', *, *, #224, .F. ) ;
#97 = LINE ( 'NONE', #162, #38 ) ;
#98 = PLANE ( 'NONE',  #35 ) ;
#99 = PRESENTATION_STYLE_ASSIGNMENT (( #186 ) ) ;
#100 = SURFACE_SIDE_STYLE ('',( #136 ) ) ;
#101 = CIRCLE ( 'NONE', #245, 0.06249999999999999306 ) ;
#102 = ADVANCED_FACE ( 'NONE', ( #137 ), #135, .T. ) ;
#103 = DIMENSIONAL_EXPONENTS ( 1.000000000000000000, 0.000000000000000000, 0.000000000000000000, 0.000000000000000000, 0.000000000000000000, 0.000000000000000000, 0.000000000000000000 ) ;
#104 = COLOUR_RGB ( '',1.000000000000000000, 0.000000000000000000, 0.000000000000000000 ) ;
#105 = CARTESIAN_POINT ( 'NONE',  ( -0.06249999999999984734, 2.000000000000000000, 0.000000000000000000 ) ) ;
#106 = VERTEX_POINT ( 'NONE', #234 ) ;
#107 = ADVANCED_FACE ( 'NONE', ( #158 ), #48, .T. ) ;
#108 = DIRECTION ( 'NONE',  ( 1.060575238724908024E-16, 0.4999999999999979461, -0.8660254037844397068 ) ) ;
#109 = ORIENTED_EDGE ( 'NONE', *, *, #173, .F. ) ;
#110 = COLOUR_RGB ( '',1.000000000000000000, 0.000000000000000000, 0.000000000000000000 ) ;
#111 = VERTEX_POINT ( 'NONE', #105 ) ;
#112 = VERTEX_POINT ( 'NONE', #82 ) ;
#113 =( NAMED_UNIT ( * ) SI_UNIT ( $, .STERADIAN. ) SOLID_ANGLE_UNIT ( ) );
#114 = MECHANICAL_DESIGN_GEOMETRIC_PRESENTATION_REPRESENTATION (  '', ( #259 ), #227 ) ;
#115 = DIRECTION ( 'NONE',  ( 0.000000000000000000, 0.000000000000000000, -1.000000000000000000 ) ) ;
#116 = ORIENTED_EDGE ( 'NONE', *, *, #164, .T. ) ;
#117 = DIRECTION ( 'NONE',  ( 1.000000000000000000, 1.223875815962772189E-16, 0.000000000000000000 ) ) ;
#118 = CARTESIAN_POINT ( 'NONE',  ( 0.000000000000000000, 39.37007874015748143, 0.000000000000000000 ) ) ;
#119 = FILL_AREA_STYLE_COLOUR ( '', #104 ) ;
#120 = AXIS2_PLACEMENT_3D ( 'NONE', #189, #1, #22 ) ;
#121 =( NAMED_UNIT ( * ) SI_UNIT ( $, .STERADIAN. ) SOLID_ANGLE_UNIT ( ) );
#122 = CARTESIAN_POINT ( 'NONE',  ( 0.000000000000000000, 0.03608439182435149023, 0.000000000000000000 ) ) ;
#123 =( CONVERSION_BASED_UNIT ( 'INCH', #39 ) LENGTH_UNIT ( ) NAMED_UNIT ( #40 ) );
#124 =( NAMED_UNIT ( * ) PLANE_ANGLE_UNIT ( ) SI_UNIT ( $, .RADIAN. ) );
#125 = EDGE_LOOP ( 'NONE', ( #75, #43 ) ) ;
#126 = CIRCLE ( 'NONE', #89, 0.06249999999999996531 ) ;
#127 = LINE ( 'NONE', #208, #60 ) ;
#128 = SURFACE_STYLE_FILL_AREA ( #5 ) ;
#129 = CARTESIAN_POINT ( 'NONE',  ( 0.000000000000000000, 0.03608439182435141390, 0.06250000000000000000 ) ) ;
#130 = CIRCLE ( 'NONE', #120, 0.06249999999999972938 ) ;
#131 =( LENGTH_UNIT ( ) NAMED_UNIT ( * ) SI_UNIT ( $, .METRE. ) );
#132 = SURFACE_STYLE_FILL_AREA ( #67 ) ;
#133 = PRODUCT_DEFINITION_CONTEXT ( 'detailed design', #229, 'design' ) ;
#134 =( CONVERSION_BASED_UNIT ( 'INCH', #52 ) LENGTH_UNIT ( ) NAMED_UNIT ( #209 ) );
#135 = CYLINDRICAL_SURFACE ( 'NONE', #139, 0.06249999999999984734 ) ;
#136 = SURFACE_STYLE_FILL_AREA ( #221 ) ;
#137 = FACE_OUTER_BOUND ( 'NONE', #237, .T. ) ;
#138 = FACE_OUTER_BOUND ( 'NONE', #228, .T. ) ;
#139 = AXIS2_PLACEMENT_3D ( 'NONE', #29, #233, #156 ) ;
#140 = PLANE ( 'NONE',  #45 ) ;
#141 = SHAPE_DEFINITION_REPRESENTATION ( #251, #27 ) ;
#142 = CIRCLE ( 'NONE', #264, 0.06249999999999972938 ) ;
#143 = MANIFOLD_SOLID_BREP ( 'Revolve - Tool Body (Pointed)', #2 ) ;
#144 = CARTESIAN_POINT ( 'NONE',  ( 0.000000000000000000, 0.000000000000000000, 0.000000000000000000 ) ) ;
#145 = DIRECTION ( 'NONE',  ( 0.000000000000000000, 1.000000000000000000, 0.000000000000000000 ) ) ;
#146 = EDGE_CURVE ( 'NONE', #106, #50, #249, .T. ) ;
#147 = COLOUR_RGB ( '',0.7921568627450980005, 0.8196078431372548767, 0.9333333333333333481 ) ;
#148 = VERTEX_POINT ( 'NONE', #167 ) ;
#149 = ORIENTED_EDGE ( 'NONE', *, *, #248, .F. ) ;
#150 = PRESENTATION_STYLE_ASSIGNMENT (( #47 ) ) ;
#151 = ORIENTED_EDGE ( 'NONE', *, *, #152, .T. ) ;
#152 = EDGE_CURVE ( 'NONE', #112, #148, #127, .T. ) ;
#153 = CIRCLE ( 'NONE', #72, 0.06249999999999996531 ) ;
#154 = DIRECTION ( 'NONE',  ( -1.000000000000000000, 0.000000000000000000, 0.000000000000000000 ) ) ;
#155 = UNCERTAINTY_MEASURE_WITH_UNIT (LENGTH_MEASURE( 1.000000000000000082E-05 ), #123, 'distance_accuracy_value', 'NONE');
#156 = DIRECTION ( 'NONE',  ( -1.000000000000000000, 0.000000000000000000, 0.000000000000000000 ) ) ;
#157 = SURFACE_SIDE_STYLE ('',( #132 ) ) ;
#158 = FACE_OUTER_BOUND ( 'NONE', #184, .T. ) ;
#159 = MECHANICAL_DESIGN_GEOMETRIC_PRESENTATION_REPRESENTATION (  '', ( #16 ), #196 ) ;
#160 = ORIENTED_EDGE ( 'NONE', *, *, #203, .T. ) ;
#161 = DIRECTION ( 'NONE',  ( -0.000000000000000000, -1.000000000000000000, -0.000000000000000000 ) ) ;
#162 = CARTESIAN_POINT ( 'NONE',  ( -0.06249999999999972938, 2.000000000000000000, 0.000000000000000000 ) ) ;
#163 = CARTESIAN_POINT ( 'NONE',  ( 1.224646799147353700E-16, 2.000000000000000000, 0.000000000000000000 ) ) ;
#164 = EDGE_CURVE ( 'NONE', #106, #199, #130, .T. ) ;
#165 =( LENGTH_UNIT ( ) NAMED_UNIT ( * ) SI_UNIT ( $, .METRE. ) );
#166 = PRESENTATION_LAYER_ASSIGNMENT (  '', '', ( #259 ) ) ;
#167 = CARTESIAN_POINT ( 'NONE',  ( 7.654042494670957545E-18, 0.03608439182435141390, -0.06250000000000000000 ) ) ;
#168 = FILL_AREA_STYLE ('',( #226 ) ) ;
#169 = PRODUCT ( '06408', '06408', '', ( #37 ) ) ;
#170 = APPLICATION_CONTEXT ( 'automotive_design' ) ;
#171 = PRESENTATION_LAYER_ASSIGNMENT (  '', '', ( #16 ) ) ;
#172 =( GEOMETRIC_REPRESENTATION_CONTEXT ( 3 ) GLOBAL_UNCERTAINTY_ASSIGNED_CONTEXT ( ( #235 ) ) GLOBAL_UNIT_ASSIGNED_CONTEXT ( ( #244, #187, #80 ) ) REPRESENTATION_CONTEXT ( 'NONE', 'WORKASPACE' ) );
#173 = EDGE_CURVE ( 'NONE', #111, #50, #126, .T. ) ;
#174 = PRESENTATION_LAYER_ASSIGNMENT (  '', '', ( #23 ) ) ;
#175 = DIRECTION ( 'NONE',  ( -1.223875815962772189E-16, 1.000000000000000000, -0.000000000000000000 ) ) ;
#176 = SURFACE_STYLE_USAGE ( .BOTH. , #177 ) ;
#177 = SURFACE_SIDE_STYLE ('',( #128 ) ) ;
#178 = DIRECTION ( 'NONE',  ( -1.000000000000000000, 0.000000000000000000, 0.000000000000000000 ) ) ;
#179 = CLOSED_SHELL ( 'NONE', ( #242, #107, #214 ) ) ;
#180 = ORIENTED_EDGE ( 'NONE', *, *, #30, .T. ) ;
#181 = EDGE_CURVE ( 'NONE', #66, #148, #101, .T. ) ;
#182 = CARTESIAN_POINT ( 'NONE',  ( 3.628235616585349371E-16, 0.03608439182435149023, 0.000000000000000000 ) ) ;
#183 = DIRECTION ( 'NONE',  ( 0.000000000000000000, 1.000000000000000000, 0.000000000000000000 ) ) ;
#184 = EDGE_LOOP ( 'NONE', ( #257, #96 ) ) ;
#185 = DIRECTION ( 'NONE',  ( -1.223875815962772189E-16, 1.000000000000000000, 0.000000000000000000 ) ) ;
#186 = SURFACE_STYLE_USAGE ( .BOTH. , #200 ) ;
#187 =( NAMED_UNIT ( * ) PLANE_ANGLE_UNIT ( ) SI_UNIT ( $, .RADIAN. ) );
#188 = ORIENTED_EDGE ( 'NONE', *, *, #146, .F. ) ;
#189 = CARTESIAN_POINT ( 'NONE',  ( 3.628235616585349371E-16, 0.03608439182435149023, 0.000000000000000000 ) ) ;
#190 = EDGE_LOOP ( 'NONE', ( #188, #116, #180, #149 ) ) ;
#191 =( NAMED_UNIT ( * ) SI_UNIT ( $, .STERADIAN. ) SOLID_ANGLE_UNIT ( ) );
#192 = DIRECTION ( 'NONE',  ( -1.223875815962772189E-16, 1.000000000000000000, -0.000000000000000000 ) ) ;
#193 = DIRECTION ( 'NONE',  ( 0.000000000000000000, 1.000000000000000000, 0.000000000000000000 ) ) ;
#194 = ORIENTED_EDGE ( 'NONE', *, *, #146, .T. ) ;
#195 = ADVANCED_FACE ( 'NONE', ( #198 ), #140, .F. ) ;
#196 =( GEOMETRIC_REPRESENTATION_CONTEXT ( 3 ) GLOBAL_UNCERTAINTY_ASSIGNED_CONTEXT ( ( #49 ) ) GLOBAL_UNIT_ASSIGNED_CONTEXT ( ( #260, #53, #113 ) ) REPRESENTATION_CONTEXT ( 'NONE', 'WORKASPACE' ) );
#197 = PRESENTATION_STYLE_ASSIGNMENT (( #219 ) ) ;
#198 = FACE_OUTER_BOUND ( 'NONE', #239, .T. ) ;
#199 = VERTEX_POINT ( 'NONE', #77 ) ;
#200 = SURFACE_SIDE_STYLE ('',( #253 ) ) ;
#201 = SURFACE_SIDE_STYLE ('',( #84 ) ) ;
#202 = DIRECTION ( 'NONE',  ( 1.000000000000000000, 0.000000000000000000, 0.000000000000000000 ) ) ;
#203 = EDGE_CURVE ( 'NONE', #112, #66, #256, .T. ) ;
#204 =( LENGTH_UNIT ( ) NAMED_UNIT ( * ) SI_UNIT ( $, .METRE. ) );
#205 = AXIS2_PLACEMENT_3D ( 'NONE', #25, #193, #14 ) ;
#206 =( GEOMETRIC_REPRESENTATION_CONTEXT ( 3 ) GLOBAL_UNCERTAINTY_ASSIGNED_CONTEXT ( ( #70 ) ) GLOBAL_UNIT_ASSIGNED_CONTEXT ( ( #238, #34, #11 ) ) REPRESENTATION_CONTEXT ( 'NONE', 'WORKASPACE' ) );
#207 = UNCERTAINTY_MEASURE_WITH_UNIT (LENGTH_MEASURE( 1.000000000000000082E-05 ), #21, 'distance_accuracy_value', 'NONE');
#208 = CARTESIAN_POINT ( 'NONE',  ( 0.000000000000000000, 0.000000000000000000, 0.000000000000000000 ) ) ;
#209 = DIMENSIONAL_EXPONENTS ( 1.000000000000000000, 0.000000000000000000, 0.000000000000000000, 0.000000000000000000, 0.000000000000000000, 0.000000000000000000, 0.000000000000000000 ) ;
#210 =( NAMED_UNIT ( * ) PLANE_ANGLE_UNIT ( ) SI_UNIT ( $, .RADIAN. ) );
#211 = VECTOR ( 'NONE', #175, 39.37007874015748143 ) ;
#212 = DIRECTION ( 'NONE',  ( -1.223875815962772189E-16, 1.000000000000000000, -0.000000000000000000 ) ) ;
#213 = DIRECTION ( 'NONE',  ( -0.000000000000000000, -1.000000000000000000, -0.000000000000000000 ) ) ;
#214 = ADVANCED_FACE ( 'NONE', ( #138 ), #83, .T. ) ;
#215 = ORIENTED_EDGE ( 'NONE', *, *, #173, .T. ) ;
#216 = LENGTH_MEASURE_WITH_UNIT ( LENGTH_MEASURE( 0.02539999999999999897 ), #131 );
#217 = FILL_AREA_STYLE_COLOUR ( '', #110 ) ;
#218 =( GEOMETRIC_REPRESENTATION_CONTEXT ( 3 ) GLOBAL_UNCERTAINTY_ASSIGNED_CONTEXT ( ( #155 ) ) GLOBAL_UNIT_ASSIGNED_CONTEXT ( ( #123, #124, #121 ) ) REPRESENTATION_CONTEXT ( 'NONE', 'WORKASPACE' ) );
#219 = SURFACE_STYLE_USAGE ( .BOTH. , #100 ) ;
#220 = ADVANCED_FACE ( 'NONE', ( #6 ), #98, .F. ) ;
#221 = FILL_AREA_STYLE ('',( #56 ) ) ;
#222 = DIRECTION ( 'NONE',  ( -1.000000000000000000, 0.000000000000000000, 0.000000000000000000 ) ) ;
#223 = CIRCLE ( 'NONE', #95, 0.06249999999999999306 ) ;
#224 = EDGE_CURVE ( 'NONE', #148, #66, #223, .T. ) ;
#225 = MANIFOLD_SOLID_BREP ( 'Revolve - Cutting Edge', #179 ) ;
#226 = FILL_AREA_STYLE_COLOUR ( '', #254 ) ;
#227 =( GEOMETRIC_REPRESENTATION_CONTEXT ( 3 ) GLOBAL_UNCERTAINTY_ASSIGNED_CONTEXT ( ( #247 ) ) GLOBAL_UNIT_ASSIGNED_CONTEXT ( ( #134, #93, #255 ) ) REPRESENTATION_CONTEXT ( 'NONE', 'WORKASPACE' ) );
#228 = EDGE_LOOP ( 'NONE', ( #252, #160, #91 ) ) ;
#229 = APPLICATION_CONTEXT ( 'automotive_design' ) ;
#230 = PRESENTATION_LAYER_ASSIGNMENT (  '', '', ( #243 ) ) ;
#231 = CARTESIAN_POINT ( 'NONE',  ( 0.06249999999999996531, 2.000000000000000000, 7.654042494670939056E-18 ) ) ;
#232 = PRODUCT_DEFINITION ( 'UNKNOWN', '', #263, #133 ) ;
#233 = DIRECTION ( 'NONE',  ( -1.223875815962772189E-16, 1.000000000000000000, -0.000000000000000000 ) ) ;
#234 = CARTESIAN_POINT ( 'NONE',  ( 0.06250000000000008327, 0.03608439182435150411, 7.654042494670946760E-18 ) ) ;
#235 = UNCERTAINTY_MEASURE_WITH_UNIT (LENGTH_MEASURE( 1.000000000000000082E-05 ), #244, 'distance_accuracy_value', 'NONE');
#236 =( LENGTH_UNIT ( ) NAMED_UNIT ( * ) SI_UNIT ( $, .METRE. ) );
#237 = EDGE_LOOP ( 'NONE', ( #65, #194, #109, #12 ) ) ;
#238 =( CONVERSION_BASED_UNIT ( 'INCH', #54 ) LENGTH_UNIT ( ) NAMED_UNIT ( #86 ) );
#239 = EDGE_LOOP ( 'NONE', ( #215, #41 ) ) ;
#240 = CARTESIAN_POINT ( 'NONE',  ( 0.000000000000000000, 0.03608439182435141390, 0.000000000000000000 ) ) ;
#241 = DIRECTION ( 'NONE',  ( -1.223875815962772189E-16, 1.000000000000000000, -0.000000000000000000 ) ) ;
#242 = ADVANCED_FACE ( 'NONE', ( #59 ), #3, .T. ) ;
#243 = STYLED_ITEM ( 'NONE', ( #81 ), #225 ) ;
#244 =( CONVERSION_BASED_UNIT ( 'INCH', #17 ) LENGTH_UNIT ( ) NAMED_UNIT ( #79 ) );
#245 = AXIS2_PLACEMENT_3D ( 'NONE', #240, #161, #115 ) ;
#246 = AXIS2_PLACEMENT_3D ( 'NONE', #118, #183, #76 ) ;
#247 = UNCERTAINTY_MEASURE_WITH_UNIT (LENGTH_MEASURE( 1.000000000000000082E-05 ), #134, 'distance_accuracy_value', 'NONE');
#248 = EDGE_CURVE ( 'NONE', #50, #111, #153, .T. ) ;
#249 = LINE ( 'NONE', #231, #211 ) ;
#250 =( LENGTH_UNIT ( ) NAMED_UNIT ( * ) SI_UNIT ( $, .METRE. ) );
#251 = PRODUCT_DEFINITION_SHAPE ( 'NONE', 'NONE',  #232 ) ;
#252 = ORIENTED_EDGE ( 'NONE', *, *, #152, .F. ) ;
#253 = SURFACE_STYLE_FILL_AREA ( #74 ) ;
#254 = COLOUR_RGB ( '',0.7921568627450980005, 0.8196078431372548767, 0.9333333333333333481 ) ;
#255 =( NAMED_UNIT ( * ) SI_UNIT ( $, .STERADIAN. ) SOLID_ANGLE_UNIT ( ) );
#256 = LINE ( 'NONE', #58, #62 ) ;
#257 = ORIENTED_EDGE ( 'NONE', *, *, #181, .F. ) ;
#258 = CARTESIAN_POINT ( 'NONE',  ( 0.000000000000000000, 0.03608439182435141390, 0.000000000000000000 ) ) ;
#259 = STYLED_ITEM ( 'NONE', ( #32 ), #107 ) ;
#260 =( CONVERSION_BASED_UNIT ( 'INCH', #216 ) LENGTH_UNIT ( ) NAMED_UNIT ( #42 ) );
#261 = APPLICATION_PROTOCOL_DEFINITION ( 'draft international standard', 'automotive_design', 1998, #170 ) ;
#262 = MECHANICAL_DESIGN_GEOMETRIC_PRESENTATION_REPRESENTATION (  '', ( #243 ), #218 ) ;
#263 = PRODUCT_DEFINITION_FORMATION_WITH_SPECIFIED_SOURCE ( 'ANY', '', #169, .NOT_KNOWN. ) ;
#264 = AXIS2_PLACEMENT_3D ( 'NONE', #4, #212, #24 ) ;
#265 = LENGTH_MEASURE_WITH_UNIT ( LENGTH_MEASURE( 0.02539999999999999897 ), #204 );
ENDSEC;
END-ISO-10303-21;
