ISO-10303-21;
HEADER;
FILE_DESCRIPTION (( 'STEP AP214' ),
    '1' );
FILE_NAME ('Micro_GEM-203-4X.STEP',
    '2021-09-01T20:09:16',
    ( '' ),
    ( '' ),
    'SwSTEP 2.0',
    'SolidWorks 2020',
    '' );
FILE_SCHEMA (( 'AUTOMOTIVE_DESIGN' ));
ENDSEC;

DATA;
#1 = CARTESIAN_POINT ( 'NONE',  ( 0.0000000000000000000, 0.0000000000000000000, 2.500000000000000000 ) ) ;
#2 = EDGE_CURVE ( 'NONE', #197, #201, #245, .T. ) ;
#3 = EDGE_LOOP ( 'NONE', ( #152, #51, #176, #181 ) ) ;
#4 = AXIS2_PLACEMENT_3D ( 'NONE', #270, #186, #62 ) ;
#5 =( CONVERSION_BASED_UNIT ( 'INCH', #76 ) LENGTH_UNIT ( ) NAMED_UNIT ( #72 ) );
#6 = EDGE_LOOP ( 'NONE', ( #235, #282, #202, #26 ) ) ;
#7 = ORIENTED_EDGE ( 'NONE', *, *, #48, .T. ) ;
#8 = VERTEX_POINT ( 'NONE', #154 ) ;
#9 = SURFACE_STYLE_USAGE ( .BOTH. , #269 ) ;
#10 = LINE ( 'NONE', #111, #211 ) ;
#11 = EDGE_CURVE ( 'NONE', #201, #197, #61, .T. ) ;
#12 = CIRCLE ( 'NONE', #134, 0.1250000000000000000 ) ;
#13 = LINE ( 'NONE', #288, #172 ) ;
#14 = DIRECTION ( 'NONE',  ( -1.224646799147353207E-16, -0.0000000000000000000, -1.000000000000000000 ) ) ;
#15 = DIRECTION ( 'NONE',  ( 0.0000000000000000000, 0.0000000000000000000, 1.000000000000000000 ) ) ;
#16 = MECHANICAL_DESIGN_GEOMETRIC_PRESENTATION_REPRESENTATION (  '', ( #121 ), #266 ) ;
#17 = DIRECTION ( 'NONE',  ( -1.224646799147353207E-16, -0.0000000000000000000, -1.000000000000000000 ) ) ;
#18 = EDGE_CURVE ( 'NONE', #278, #256, #272, .T. ) ;
#19 = SURFACE_STYLE_USAGE ( .BOTH. , #234 ) ;
#20 = EDGE_LOOP ( 'NONE', ( #221, #147 ) ) ;
#21 = DIRECTION ( 'NONE',  ( 0.1736481776669314137, 0.0000000000000000000, 0.9848077530122077983 ) ) ;
#22 = DIMENSIONAL_EXPONENTS ( 1.000000000000000000, 0.0000000000000000000, 0.0000000000000000000, 0.0000000000000000000, 0.0000000000000000000, 0.0000000000000000000, 0.0000000000000000000 ) ;
#23 = ADVANCED_FACE ( 'NONE', ( #28 ), #131, .T. ) ;
#24 =( CONVERSION_BASED_UNIT ( 'INCH', #119 ) LENGTH_UNIT ( ) NAMED_UNIT ( #22 ) );
#25 = PRODUCT_DEFINITION_FORMATION_WITH_SPECIFIED_SOURCE ( 'ANY', '', #219, .NOT_KNOWN. ) ;
#26 = ORIENTED_EDGE ( 'NONE', *, *, #79, .T. ) ;
#27 = ADVANCED_FACE ( 'NONE', ( #214 ), #56, .T. ) ;
#28 = FACE_OUTER_BOUND ( 'NONE', #120, .T. ) ;
#29 = DIRECTION ( 'NONE',  ( -0.0000000000000000000, -0.0000000000000000000, -1.000000000000000000 ) ) ;
#30 =( NAMED_UNIT ( * ) SI_UNIT ( $, .STERADIAN. ) SOLID_ANGLE_UNIT ( ) );
#31 = CARTESIAN_POINT ( 'NONE',  ( -0.1014484499999999956, 0.0000000000000000000, 1.242385195709603026E-17 ) ) ;
#32 = CIRCLE ( 'NONE', #96, 0.1014484499999999956 ) ;
#33 = SHAPE_DEFINITION_REPRESENTATION ( #284, #67 ) ;
#34 = EDGE_LOOP ( 'NONE', ( #192, #81, #170, #100 ) ) ;
#35 = ORIENTED_EDGE ( 'NONE', *, *, #262, .F. ) ;
#36 = FILL_AREA_STYLE ('',( #160 ) ) ;
#37 = CLOSED_SHELL ( 'NONE', ( #23, #68, #183, #225, #27, #127, #73, #217, #125, #53 ) ) ;
#38 = DIRECTION ( 'NONE',  ( -1.000000000000000000, 0.0000000000000000000, 1.224646799147353207E-16 ) ) ;
#39 = CARTESIAN_POINT ( 'NONE',  ( 9.289772330602642653E-17, 0.0000000000000000000, 0.7585674773388166869 ) ) ;
#40 = DIRECTION ( 'NONE',  ( 1.000000000000000000, 0.0000000000000000000, 0.0000000000000000000 ) ) ;
#41 = AXIS2_PLACEMENT_3D ( 'NONE', #163, #290, #223 ) ;
#42 = CARTESIAN_POINT ( 'NONE',  ( 0.0000000000000000000, 0.0000000000000000000, 2.500000000000000000 ) ) ;
#43 = CARTESIAN_POINT ( 'NONE',  ( 0.0000000000000000000, 0.0000000000000000000, 2.500000000000000000 ) ) ;
#44 = CARTESIAN_POINT ( 'NONE',  ( -0.1014484499999999956, 0.0000000000000000000, 2.484770391419206052E-17 ) ) ;
#45 = STYLED_ITEM ( 'NONE', ( #250 ), #90 ) ;
#46 = CARTESIAN_POINT ( 'NONE',  ( 7.654042494670957853E-17, 0.0000000000000000000, 0.6250000000000000000 ) ) ;
#47 = ORIENTED_EDGE ( 'NONE', *, *, #63, .T. ) ;
#48 = EDGE_CURVE ( 'NONE', #8, #260, #78, .T. ) ;
#49 = CARTESIAN_POINT ( 'NONE',  ( -0.1249999999999999167, 0.0000000000000000000, 0.7585674773388166869 ) ) ;
#50 = ORIENTED_EDGE ( 'NONE', *, *, #198, .T. ) ;
#51 = ORIENTED_EDGE ( 'NONE', *, *, #177, .T. ) ;
#52 = DIRECTION ( 'NONE',  ( -1.000000000000000000, 0.0000000000000000000, 1.224646799147353207E-16 ) ) ;
#53 = ADVANCED_FACE ( 'NONE', ( #239 ), #129, .F. ) ;
#54 = VERTEX_POINT ( 'NONE', #218 ) ;
#55 = VECTOR ( 'NONE', #199, 39.37007874015748143 ) ;
#56 = CYLINDRICAL_SURFACE ( 'NONE', #102, 0.1250000000000000000 ) ;
#57 = CONICAL_SURFACE ( 'NONE', #95, 0.1014484499999999956, 0.1745329251994339192 ) ;
#58 = DIRECTION ( 'NONE',  ( -1.224646799147353207E-16, -0.0000000000000000000, -1.000000000000000000 ) ) ;
#59 = FACE_OUTER_BOUND ( 'NONE', #295, .T. ) ;
#60 = CARTESIAN_POINT ( 'NONE',  ( 7.654042494670957853E-17, 0.0000000000000000000, 0.6250000000000000000 ) ) ;
#61 = CIRCLE ( 'NONE', #65, 0.1014484499999999956 ) ;
#62 = DIRECTION ( 'NONE',  ( 1.000000000000000000, 0.0000000000000000000, 0.0000000000000000000 ) ) ;
#63 = EDGE_CURVE ( 'NONE', #256, #197, #283, .T. ) ;
#64 = CARTESIAN_POINT ( 'NONE',  ( 7.654042494670957853E-17, 0.0000000000000000000, 0.6250000000000000000 ) ) ;
#65 = AXIS2_PLACEMENT_3D ( 'NONE', #80, #58, #286 ) ;
#66 = DIRECTION ( 'NONE',  ( -0.0000000000000000000, -0.0000000000000000000, -1.000000000000000000 ) ) ;
#67 = ADVANCED_BREP_SHAPE_REPRESENTATION ( 'Micro_GEM-203-4X', ( #90, #143 ), #273 ) ;
#68 = ADVANCED_FACE ( 'NONE', ( #178 ), #227, .T. ) ;
#69 = FILL_AREA_STYLE_COLOUR ( '', #277 ) ;
#70 = FILL_AREA_STYLE ('',( #69 ) ) ;
#71 = DIRECTION ( 'NONE',  ( 1.000000000000000000, 0.0000000000000000000, 0.0000000000000000000 ) ) ;
#72 = DIMENSIONAL_EXPONENTS ( 1.000000000000000000, 0.0000000000000000000, 0.0000000000000000000, 0.0000000000000000000, 0.0000000000000000000, 0.0000000000000000000, 0.0000000000000000000 ) ;
#73 = ADVANCED_FACE ( 'NONE', ( #59 ), #179, .T. ) ;
#74 = ORIENTED_EDGE ( 'NONE', *, *, #109, .T. ) ;
#75 = CARTESIAN_POINT ( 'NONE',  ( 0.1014484499999999956, 1.242385195709603026E-17, 0.0000000000000000000 ) ) ;
#76 = LENGTH_MEASURE_WITH_UNIT ( LENGTH_MEASURE( 0.02539999999999999897 ), #128 );
#77 = AXIS2_PLACEMENT_3D ( 'NONE', #174, #168, #232 ) ;
#78 = LINE ( 'NONE', #238, #171 ) ;
#79 = EDGE_CURVE ( 'NONE', #260, #220, #138, .T. ) ;
#80 = CARTESIAN_POINT ( 'NONE',  ( 1.521483053233823417E-33, 0.0000000000000000000, 1.242385195709603026E-17 ) ) ;
#81 = ORIENTED_EDGE ( 'NONE', *, *, #136, .T. ) ;
#82 = ORIENTED_EDGE ( 'NONE', *, *, #2, .F. ) ;
#83 = CARTESIAN_POINT ( 'NONE',  ( 7.654042494670957853E-17, 0.0000000000000000000, 0.6250000000000000000 ) ) ;
#84 = DIRECTION ( 'NONE',  ( 0.0000000000000000000, 0.0000000000000000000, -1.000000000000000000 ) ) ;
#85 = DIRECTION ( 'NONE',  ( 0.0000000000000000000, 0.0000000000000000000, 1.000000000000000000 ) ) ;
#86 = DIRECTION ( 'NONE',  ( 0.7071067811865499042, 8.659560562354961208E-17, -0.7071067811865451302 ) ) ;
#87 = DIRECTION ( 'NONE',  ( -0.1736481776669312194, 2.126576849575783625E-17, 0.9848077530122080203 ) ) ;
#88 = FACE_OUTER_BOUND ( 'NONE', #294, .T. ) ;
#89 = FACE_OUTER_BOUND ( 'NONE', #175, .T. ) ;
#90 = MANIFOLD_SOLID_BREP ( 'Cut-Revolve1', #37 ) ;
#91 = ORIENTED_EDGE ( 'NONE', *, *, #107, .T. ) ;
#92 = ORIENTED_EDGE ( 'NONE', *, *, #198, .F. ) ;
#93 = PRODUCT_RELATED_PRODUCT_CATEGORY ( 'part', '', ( #219 ) ) ;
#94 = AXIS2_PLACEMENT_3D ( 'NONE', #216, #261, #241 ) ;
#95 = AXIS2_PLACEMENT_3D ( 'NONE', #46, #145, #209 ) ;
#96 = AXIS2_PLACEMENT_3D ( 'NONE', #60, #164, #162 ) ;
#97 = APPLICATION_PROTOCOL_DEFINITION ( 'draft international standard', 'automotive_design', 1998, #157 ) ;
#98 = EDGE_CURVE ( 'NONE', #210, #8, #139, .T. ) ;
#99 = APPLICATION_CONTEXT ( 'automotive_design' ) ;
#100 = ORIENTED_EDGE ( 'NONE', *, *, #107, .F. ) ;
#101 = DIRECTION ( 'NONE',  ( -0.0000000000000000000, -0.0000000000000000000, -1.000000000000000000 ) ) ;
#102 = AXIS2_PLACEMENT_3D ( 'NONE', #1, #101, #195 ) ;
#103 = EDGE_LOOP ( 'NONE', ( #298, #285, #213, #35 ) ) ;
#104 = DIRECTION ( 'NONE',  ( -1.224646799147353207E-16, -0.0000000000000000000, -1.000000000000000000 ) ) ;
#105 = ORIENTED_EDGE ( 'NONE', *, *, #2, .T. ) ;
#106 = VERTEX_POINT ( 'NONE', #248 ) ;
#107 = EDGE_CURVE ( 'NONE', #106, #210, #13, .T. ) ;
#108 = DIRECTION ( 'NONE',  ( 0.0000000000000000000, 0.0000000000000000000, 1.000000000000000000 ) ) ;
#109 = EDGE_CURVE ( 'NONE', #256, #278, #32, .T. ) ;
#110 = EDGE_CURVE ( 'NONE', #256, #220, #247, .T. ) ;
#111 = CARTESIAN_POINT ( 'NONE',  ( 0.1100000000000001948, 1.347111479062090784E-17, 2.500000000000000000 ) ) ;
#112 = AXIS2_PLACEMENT_3D ( 'NONE', #43, #15, #141 ) ;
#113 = CYLINDRICAL_SURFACE ( 'NONE', #233, 0.1014484499999999956 ) ;
#114 = CARTESIAN_POINT ( 'NONE',  ( 0.0000000000000000000, 0.0000000000000000000, 2.500000000000000000 ) ) ;
#115 = CARTESIAN_POINT ( 'NONE',  ( 0.1014484500000000650, 0.0000000000000000000, 0.6250000000000000000 ) ) ;
#116 = AXIS2_PLACEMENT_3D ( 'NONE', #236, #252, #299 ) ;
#117 =( LENGTH_UNIT ( ) NAMED_UNIT ( * ) SI_UNIT ( $, .METRE. ) );
#118 = PRESENTATION_STYLE_ASSIGNMENT (( #19 ) ) ;
#119 = LENGTH_MEASURE_WITH_UNIT ( LENGTH_MEASURE( 0.02539999999999999897 ), #117 );
#120 = EDGE_LOOP ( 'NONE', ( #74, #50, #82, #156 ) ) ;
#121 = STYLED_ITEM ( 'NONE', ( #118 ), #67 ) ;
#122 = FACE_OUTER_BOUND ( 'NONE', #6, .T. ) ;
#123 = ORIENTED_EDGE ( 'NONE', *, *, #243, .F. ) ;
#124 = APPLICATION_PROTOCOL_DEFINITION ( 'draft international standard', 'automotive_design', 1998, #99 ) ;
#125 = ADVANCED_FACE ( 'NONE', ( #88 ), #113, .T. ) ;
#126 = CARTESIAN_POINT ( 'NONE',  ( 0.0000000000000000000, 0.0000000000000000000, 0.0000000000000000000 ) ) ;
#127 = ADVANCED_FACE ( 'NONE', ( #206 ), #292, .T. ) ;
#128 =( LENGTH_UNIT ( ) NAMED_UNIT ( * ) SI_UNIT ( $, .METRE. ) );
#129 = PLANE ( 'NONE',  #94 ) ;
#130 = AXIS2_PLACEMENT_3D ( 'NONE', #39, #287, #140 ) ;
#131 = CYLINDRICAL_SURFACE ( 'NONE', #226, 0.1014484499999999956 ) ;
#132 = DIRECTION ( 'NONE',  ( -1.000000000000000000, 0.0000000000000000000, 0.0000000000000000000 ) ) ;
#133 = ORIENTED_EDGE ( 'NONE', *, *, #11, .T. ) ;
#134 = AXIS2_PLACEMENT_3D ( 'NONE', #276, #166, #71 ) ;
#135 = DIRECTION ( 'NONE',  ( 1.000000000000000000, 0.0000000000000000000, -0.0000000000000000000 ) ) ;
#136 = EDGE_CURVE ( 'NONE', #54, #8, #10, .T. ) ;
#137 =( CONVERSION_BASED_UNIT ( 'INCH', #229 ) LENGTH_UNIT ( ) NAMED_UNIT ( #158 ) );
#138 = CIRCLE ( 'NONE', #130, 0.1250000000000000000 ) ;
#139 = CIRCLE ( 'NONE', #41, 0.1250000000000000000 ) ;
#140 = DIRECTION ( 'NONE',  ( 1.000000000000000000, 0.0000000000000000000, 0.0000000000000000000 ) ) ;
#141 = DIRECTION ( 'NONE',  ( 1.000000000000000000, 0.0000000000000000000, 0.0000000000000000000 ) ) ;
#142 = CARTESIAN_POINT ( 'NONE',  ( 0.1014484499999999956, 1.242385195709603026E-17, -1.242385195709603026E-17 ) ) ;
#143 = AXIS2_PLACEMENT_3D ( 'NONE', #153, #258, #200 ) ;
#144 = ORIENTED_EDGE ( 'NONE', *, *, #177, .F. ) ;
#145 = DIRECTION ( 'NONE',  ( 1.224646799147353207E-16, 0.0000000000000000000, 1.000000000000000000 ) ) ;
#146 = CARTESIAN_POINT ( 'NONE',  ( -0.1014484499999999262, 1.386596847321897422E-17, 0.6250000000000000000 ) ) ;
#147 = ORIENTED_EDGE ( 'NONE', *, *, #165, .T. ) ;
#148 = AXIS2_PLACEMENT_3D ( 'NONE', #264, #104, #259 ) ;
#149 = PRESENTATION_LAYER_ASSIGNMENT (  '', '', ( #45 ) ) ;
#150 = ORIENTED_EDGE ( 'NONE', *, *, #98, .T. ) ;
#151 =( NAMED_UNIT ( * ) PLANE_ANGLE_UNIT ( ) SI_UNIT ( $, .RADIAN. ) );
#152 = ORIENTED_EDGE ( 'NONE', *, *, #48, .F. ) ;
#153 = CARTESIAN_POINT ( 'NONE',  ( 0.0000000000000000000, 0.0000000000000000000, 0.0000000000000000000 ) ) ;
#154 = CARTESIAN_POINT ( 'NONE',  ( 0.1250000000000000000, 1.530808498934191509E-17, 2.485000000000000320 ) ) ;
#155 = AXIS2_PLACEMENT_3D ( 'NONE', #187, #85, #188 ) ;
#156 = ORIENTED_EDGE ( 'NONE', *, *, #63, .F. ) ;
#157 = APPLICATION_CONTEXT ( 'automotive_design' ) ;
#158 = DIMENSIONAL_EXPONENTS ( 1.000000000000000000, 0.0000000000000000000, 0.0000000000000000000, 0.0000000000000000000, 0.0000000000000000000, 0.0000000000000000000, 0.0000000000000000000 ) ;
#159 = ORIENTED_EDGE ( 'NONE', *, *, #230, .F. ) ;
#160 = FILL_AREA_STYLE_COLOUR ( '', #281 ) ;
#161 = CIRCLE ( 'NONE', #4, 0.1250000000000000000 ) ;
#162 = DIRECTION ( 'NONE',  ( -1.000000000000000000, 0.0000000000000000000, 0.0000000000000000000 ) ) ;
#163 = CARTESIAN_POINT ( 'NONE',  ( 0.0000000000000000000, 0.0000000000000000000, 2.485000000000000320 ) ) ;
#164 = DIRECTION ( 'NONE',  ( -1.224646799147353207E-16, -0.0000000000000000000, -1.000000000000000000 ) ) ;
#165 = EDGE_CURVE ( 'NONE', #54, #106, #297, .T. ) ;
#166 = DIRECTION ( 'NONE',  ( -1.224646799147353207E-16, -0.0000000000000000000, -1.000000000000000000 ) ) ;
#167 = UNCERTAINTY_MEASURE_WITH_UNIT (LENGTH_MEASURE( 1.000000000000000082E-05 ), #24, 'distance_accuracy_value', 'NONE');
#168 = DIRECTION ( 'NONE',  ( 0.0000000000000000000, 0.0000000000000000000, -1.000000000000000000 ) ) ;
#169 = LINE ( 'NONE', #142, #180 ) ;
#170 = ORIENTED_EDGE ( 'NONE', *, *, #98, .F. ) ;
#171 = VECTOR ( 'NONE', #29, 39.37007874015748143 ) ;
#172 = VECTOR ( 'NONE', #265, 39.37007874015748143 ) ;
#173 = CARTESIAN_POINT ( 'NONE',  ( 0.1250000000000000833, 1.530808498934192433E-17, 0.7585674773388166869 ) ) ;
#174 = CARTESIAN_POINT ( 'NONE',  ( 0.0000000000000000000, 0.0000000000000000000, 2.500000000000000000 ) ) ;
#175 = EDGE_LOOP ( 'NONE', ( #150, #7, #123, #159 ) ) ;
#176 = ORIENTED_EDGE ( 'NONE', *, *, #230, .T. ) ;
#177 = EDGE_CURVE ( 'NONE', #8, #210, #161, .T. ) ;
#178 = FACE_OUTER_BOUND ( 'NONE', #103, .T. ) ;
#179 = CONICAL_SURFACE ( 'NONE', #190, 0.1100000000000001948, 0.7853981633974517207 ) ;
#180 = VECTOR ( 'NONE', #17, 39.37007874015748143 ) ;
#181 = ORIENTED_EDGE ( 'NONE', *, *, #79, .F. ) ;
#182 = ORIENTED_EDGE ( 'NONE', *, *, #18, .T. ) ;
#183 = ADVANCED_FACE ( 'NONE', ( #251 ), #204, .T. ) ;
#184 =( NAMED_UNIT ( * ) SI_UNIT ( $, .STERADIAN. ) SOLID_ANGLE_UNIT ( ) );
#185 = PRESENTATION_LAYER_ASSIGNMENT (  '', '', ( #121 ) ) ;
#186 = DIRECTION ( 'NONE',  ( 0.0000000000000000000, 0.0000000000000000000, -1.000000000000000000 ) ) ;
#187 = CARTESIAN_POINT ( 'NONE',  ( 0.0000000000000000000, 0.0000000000000000000, 2.500000000000000000 ) ) ;
#188 = DIRECTION ( 'NONE',  ( 1.000000000000000000, 0.0000000000000000000, 0.0000000000000000000 ) ) ;
#189 = CARTESIAN_POINT ( 'NONE',  ( 0.1014484500000000650, 0.0000000000000000000, 0.6250000000000000000 ) ) ;
#190 = AXIS2_PLACEMENT_3D ( 'NONE', #42, #84, #224 ) ;
#191 = UNCERTAINTY_MEASURE_WITH_UNIT (LENGTH_MEASURE( 1.000000000000000082E-05 ), #137, 'distance_accuracy_value', 'NONE');
#192 = ORIENTED_EDGE ( 'NONE', *, *, #165, .F. ) ;
#193 = VECTOR ( 'NONE', #66, 39.37007874015748143 ) ;
#194 = ORIENTED_EDGE ( 'NONE', *, *, #11, .F. ) ;
#195 = DIRECTION ( 'NONE',  ( -1.000000000000000000, 0.0000000000000000000, 0.0000000000000000000 ) ) ;
#196 = AXIS2_PLACEMENT_3D ( 'NONE', #114, #108, #135 ) ;
#197 = VERTEX_POINT ( 'NONE', #44 ) ;
#198 = EDGE_CURVE ( 'NONE', #278, #201, #169, .T. ) ;
#199 = DIRECTION ( 'NONE',  ( -1.224646799147353207E-16, -0.0000000000000000000, -1.000000000000000000 ) ) ;
#200 = DIRECTION ( 'NONE',  ( 1.000000000000000000, 0.0000000000000000000, 0.0000000000000000000 ) ) ;
#201 = VERTEX_POINT ( 'NONE', #75 ) ;
#202 = ORIENTED_EDGE ( 'NONE', *, *, #262, .T. ) ;
#203 = SURFACE_STYLE_FILL_AREA ( #36 ) ;
#204 = CONICAL_SURFACE ( 'NONE', #77, 0.1100000000000001948, 0.7853981633974517207 ) ;
#205 = CARTESIAN_POINT ( 'NONE',  ( 0.0000000000000000000, 0.0000000000000000000, 0.0000000000000000000 ) ) ;
#206 = FACE_OUTER_BOUND ( 'NONE', #20, .T. ) ;
#207 = PRODUCT_DEFINITION_CONTEXT ( 'detailed design', #99, 'design' ) ;
#208 = ORIENTED_EDGE ( 'NONE', *, *, #267, .F. ) ;
#209 = DIRECTION ( 'NONE',  ( 1.000000000000000000, 0.0000000000000000000, 0.0000000000000000000 ) ) ;
#210 = VERTEX_POINT ( 'NONE', #255 ) ;
#211 = VECTOR ( 'NONE', #86, 39.37007874015748143 ) ;
#212 = CYLINDRICAL_SURFACE ( 'NONE', #116, 0.1250000000000000000 ) ;
#213 = ORIENTED_EDGE ( 'NONE', *, *, #243, .T. ) ;
#214 = FACE_OUTER_BOUND ( 'NONE', #3, .T. ) ;
#215 = PRODUCT_CONTEXT ( 'NONE', #157, 'mechanical' ) ;
#216 = CARTESIAN_POINT ( 'NONE',  ( 0.0000000000000000000, 0.0000000000000000000, 0.0000000000000000000 ) ) ;
#217 = ADVANCED_FACE ( 'NONE', ( #122 ), #57, .T. ) ;
#218 = CARTESIAN_POINT ( 'NONE',  ( 0.1100000000000001948, 1.438959988998141146E-17, 2.500000000000000000 ) ) ;
#219 = PRODUCT ( 'Micro_GEM-203-4X', 'Micro_GEM-203-4X', '', ( #215 ) ) ;
#220 = VERTEX_POINT ( 'NONE', #49 ) ;
#221 = ORIENTED_EDGE ( 'NONE', *, *, #267, .T. ) ;
#222 = CIRCLE ( 'NONE', #112, 0.1100000000000001948 ) ;
#223 = DIRECTION ( 'NONE',  ( 1.000000000000000000, 0.0000000000000000000, 0.0000000000000000000 ) ) ;
#224 = DIRECTION ( 'NONE',  ( -1.000000000000000000, 0.0000000000000000000, 0.0000000000000000000 ) ) ;
#225 = ADVANCED_FACE ( 'NONE', ( #89 ), #212, .T. ) ;
#226 = AXIS2_PLACEMENT_3D ( 'NONE', #126, #280, #52 ) ;
#227 = CONICAL_SURFACE ( 'NONE', #263, 0.1014484499999999956, 0.1745329251994339192 ) ;
#228 = MECHANICAL_DESIGN_GEOMETRIC_PRESENTATION_REPRESENTATION (  '', ( #45 ), #289 ) ;
#229 = LENGTH_MEASURE_WITH_UNIT ( LENGTH_MEASURE( 0.02539999999999999897 ), #244 );
#230 = EDGE_CURVE ( 'NONE', #210, #220, #296, .T. ) ;
#231 = UNCERTAINTY_MEASURE_WITH_UNIT (LENGTH_MEASURE( 1.000000000000000082E-05 ), #5, 'distance_accuracy_value', 'NONE');
#232 = DIRECTION ( 'NONE',  ( -1.000000000000000000, 0.0000000000000000000, 0.0000000000000000000 ) ) ;
#233 = AXIS2_PLACEMENT_3D ( 'NONE', #205, #14, #38 ) ;
#234 = SURFACE_SIDE_STYLE ('',( #279 ) ) ;
#235 = ORIENTED_EDGE ( 'NONE', *, *, #110, .F. ) ;
#236 = CARTESIAN_POINT ( 'NONE',  ( 0.0000000000000000000, 0.0000000000000000000, 2.500000000000000000 ) ) ;
#237 = DIRECTION ( 'NONE',  ( -1.224646799147353207E-16, -0.0000000000000000000, -1.000000000000000000 ) ) ;
#238 = CARTESIAN_POINT ( 'NONE',  ( 0.1250000000000000000, 1.530808498934191509E-17, 2.500000000000000000 ) ) ;
#239 = FACE_OUTER_BOUND ( 'NONE', #254, .T. ) ;
#240 = VECTOR ( 'NONE', #21, 39.37007874015748143 ) ;
#241 = DIRECTION ( 'NONE',  ( 1.000000000000000000, 0.0000000000000000000, -0.0000000000000000000 ) ) ;
#242 = ORIENTED_EDGE ( 'NONE', *, *, #136, .F. ) ;
#243 = EDGE_CURVE ( 'NONE', #220, #260, #12, .T. ) ;
#244 =( LENGTH_UNIT ( ) NAMED_UNIT ( * ) SI_UNIT ( $, .METRE. ) );
#245 = CIRCLE ( 'NONE', #148, 0.1014484499999999956 ) ;
#246 = VECTOR ( 'NONE', #87, 39.37007874015747433 ) ;
#247 = LINE ( 'NONE', #268, #246 ) ;
#248 = CARTESIAN_POINT ( 'NONE',  ( -0.1100000000000001948, 0.0000000000000000000, 2.500000000000000000 ) ) ;
#249 = DIRECTION ( 'NONE',  ( 1.224646799147353207E-16, 0.0000000000000000000, 1.000000000000000000 ) ) ;
#250 = PRESENTATION_STYLE_ASSIGNMENT (( #9 ) ) ;
#251 = FACE_OUTER_BOUND ( 'NONE', #34, .T. ) ;
#252 = DIRECTION ( 'NONE',  ( -0.0000000000000000000, -0.0000000000000000000, -1.000000000000000000 ) ) ;
#253 = AXIS2_PLACEMENT_3D ( 'NONE', #83, #237, #132 ) ;
#254 = EDGE_LOOP ( 'NONE', ( #105, #133 ) ) ;
#255 = CARTESIAN_POINT ( 'NONE',  ( -0.1250000000000000000, 0.0000000000000000000, 2.485000000000000320 ) ) ;
#256 = VERTEX_POINT ( 'NONE', #146 ) ;
#257 =( NAMED_UNIT ( * ) PLANE_ANGLE_UNIT ( ) SI_UNIT ( $, .RADIAN. ) );
#258 = DIRECTION ( 'NONE',  ( 0.0000000000000000000, 0.0000000000000000000, 1.000000000000000000 ) ) ;
#259 = DIRECTION ( 'NONE',  ( -1.000000000000000000, 0.0000000000000000000, 1.224646799147353207E-16 ) ) ;
#260 = VERTEX_POINT ( 'NONE', #173 ) ;
#261 = DIRECTION ( 'NONE',  ( 0.0000000000000000000, 0.0000000000000000000, 1.000000000000000000 ) ) ;
#262 = EDGE_CURVE ( 'NONE', #278, #260, #275, .T. ) ;
#263 = AXIS2_PLACEMENT_3D ( 'NONE', #64, #249, #40 ) ;
#264 = CARTESIAN_POINT ( 'NONE',  ( 1.521483053233823417E-33, 0.0000000000000000000, 1.242385195709603026E-17 ) ) ;
#265 = DIRECTION ( 'NONE',  ( -0.7071067811865499042, 0.0000000000000000000, -0.7071067811865451302 ) ) ;
#266 =( GEOMETRIC_REPRESENTATION_CONTEXT ( 3 ) GLOBAL_UNCERTAINTY_ASSIGNED_CONTEXT ( ( #231 ) ) GLOBAL_UNIT_ASSIGNED_CONTEXT ( ( #5, #151, #30 ) ) REPRESENTATION_CONTEXT ( 'NONE', 'WORKASPACE' ) );
#267 = EDGE_CURVE ( 'NONE', #106, #54, #222, .T. ) ;
#268 = CARTESIAN_POINT ( 'NONE',  ( -0.1014484499999999262, 1.242385195709603026E-17, 0.6250000000000000000 ) ) ;
#269 = SURFACE_SIDE_STYLE ('',( #203 ) ) ;
#270 = CARTESIAN_POINT ( 'NONE',  ( 0.0000000000000000000, 0.0000000000000000000, 2.485000000000000320 ) ) ;
#271 = PRODUCT_DEFINITION ( 'UNKNOWN', '', #25, #207 ) ;
#272 = CIRCLE ( 'NONE', #253, 0.1014484499999999956 ) ;
#273 =( GEOMETRIC_REPRESENTATION_CONTEXT ( 3 ) GLOBAL_UNCERTAINTY_ASSIGNED_CONTEXT ( ( #167 ) ) GLOBAL_UNIT_ASSIGNED_CONTEXT ( ( #24, #257, #274 ) ) REPRESENTATION_CONTEXT ( 'NONE', 'WORKASPACE' ) );
#274 =( NAMED_UNIT ( * ) SI_UNIT ( $, .STERADIAN. ) SOLID_ANGLE_UNIT ( ) );
#275 = LINE ( 'NONE', #189, #240 ) ;
#276 = CARTESIAN_POINT ( 'NONE',  ( 9.289772330602642653E-17, 0.0000000000000000000, 0.7585674773388166869 ) ) ;
#277 = COLOUR_RGB ( '',0.7921568627450980005, 0.8196078431372548767, 0.9333333333333333481 ) ;
#278 = VERTEX_POINT ( 'NONE', #115 ) ;
#279 = SURFACE_STYLE_FILL_AREA ( #70 ) ;
#280 = DIRECTION ( 'NONE',  ( -1.224646799147353207E-16, -0.0000000000000000000, -1.000000000000000000 ) ) ;
#281 = COLOUR_RGB ( '',0.7921568627450980005, 0.8196078431372548767, 0.9333333333333333481 ) ;
#282 = ORIENTED_EDGE ( 'NONE', *, *, #18, .F. ) ;
#283 = LINE ( 'NONE', #31, #55 ) ;
#284 = PRODUCT_DEFINITION_SHAPE ( 'NONE', 'NONE',  #271 ) ;
#285 = ORIENTED_EDGE ( 'NONE', *, *, #110, .T. ) ;
#286 = DIRECTION ( 'NONE',  ( -1.000000000000000000, 0.0000000000000000000, 1.224646799147353207E-16 ) ) ;
#287 = DIRECTION ( 'NONE',  ( -1.224646799147353207E-16, -0.0000000000000000000, -1.000000000000000000 ) ) ;
#288 = CARTESIAN_POINT ( 'NONE',  ( -0.1100000000000001948, 0.0000000000000000000, 2.500000000000000000 ) ) ;
#289 =( GEOMETRIC_REPRESENTATION_CONTEXT ( 3 ) GLOBAL_UNCERTAINTY_ASSIGNED_CONTEXT ( ( #191 ) ) GLOBAL_UNIT_ASSIGNED_CONTEXT ( ( #137, #291, #184 ) ) REPRESENTATION_CONTEXT ( 'NONE', 'WORKASPACE' ) );
#290 = DIRECTION ( 'NONE',  ( 0.0000000000000000000, 0.0000000000000000000, -1.000000000000000000 ) ) ;
#291 =( NAMED_UNIT ( * ) PLANE_ANGLE_UNIT ( ) SI_UNIT ( $, .RADIAN. ) );
#292 = PLANE ( 'NONE',  #196 ) ;
#293 = CARTESIAN_POINT ( 'NONE',  ( -0.1250000000000000000, 0.0000000000000000000, 2.500000000000000000 ) ) ;
#294 = EDGE_LOOP ( 'NONE', ( #92, #182, #47, #194 ) ) ;
#295 = EDGE_LOOP ( 'NONE', ( #242, #208, #91, #144 ) ) ;
#296 = LINE ( 'NONE', #293, #193 ) ;
#297 = CIRCLE ( 'NONE', #155, 0.1100000000000001948 ) ;
#298 = ORIENTED_EDGE ( 'NONE', *, *, #109, .F. ) ;
#299 = DIRECTION ( 'NONE',  ( -1.000000000000000000, 0.0000000000000000000, 0.0000000000000000000 ) ) ;
ENDSEC;
END-ISO-10303-21;
