ISO-10303-21;
HEADER;
FILE_DESCRIPTION (( 'STEP AP214' ),
    '1' );
FILE_NAME ('00195.STEP',
    '2023-06-22T14:04:08',
    ( '' ),
    ( '' ),
    'SwSTEP 2.0',
    'SolidWorks 2023',
    '' );
FILE_SCHEMA (( 'AUTOMOTIVE_DESIGN' ));
ENDSEC;

DATA;
#1 = ORIENTED_EDGE ( 'NONE', *, *, #167, .T. ) ;
#2 = AXIS2_PLACEMENT_3D ( 'NONE', #40, #174, #153 ) ;
#3 = CARTESIAN_POINT ( 'NONE',  ( -0.1250000000000000000, 1.250000000000000000, 0.000000000000000000 ) ) ;
#4 = EDGE_LOOP ( 'NONE', ( #181, #257 ) ) ;
#5 = EDGE_LOOP ( 'NONE', ( #83, #1 ) ) ;
#6 =( NAMED_UNIT ( * ) SI_UNIT ( $, .STERADIAN. ) SOLID_ANGLE_UNIT ( ) );
#7 = PRESENTATION_LAYER_ASSIGNMENT (  '', '', ( #13 ) ) ;
#8 =( GEOMETRIC_REPRESENTATION_CONTEXT ( 3 ) GLOBAL_UNCERTAINTY_ASSIGNED_CONTEXT ( ( #221 ) ) GLOBAL_UNIT_ASSIGNED_CONTEXT ( ( #256, #287, #6 ) ) REPRESENTATION_CONTEXT ( 'NONE', 'WORKASPACE' ) );
#9 = DIRECTION ( 'NONE',  ( -3.498990854706726443E-17, 1.000000000000000000, -0.000000000000000000 ) ) ;
#10 = SURFACE_STYLE_USAGE ( .BOTH. , #182 ) ;
#11 = LINE ( 'NONE', #199, #24 ) ;
#12 = SURFACE_STYLE_USAGE ( .BOTH. , #36 ) ;
#13 = STYLED_ITEM ( 'NONE', ( #93 ), #117 ) ;
#14 = CARTESIAN_POINT ( 'NONE',  ( -6.123233995736772199E-17, 3.000000000000000444, 0.000000000000000000 ) ) ;
#15 = EDGE_LOOP ( 'NONE', ( #124, #260, #203, #286 ) ) ;
#16 = FILL_AREA_STYLE_COLOUR ( '', #77 ) ;
#17 = ADVANCED_BREP_SHAPE_REPRESENTATION ( '00195', ( #66, #262, #45 ), #21 ) ;
#18 = APPLICATION_CONTEXT ( 'automotive_design' ) ;
#19 = SURFACE_STYLE_USAGE ( .BOTH. , #135 ) ;
#20 = UNCERTAINTY_MEASURE_WITH_UNIT (LENGTH_MEASURE( 1.000000000000000082E-05 ), #42, 'distance_accuracy_value', 'NONE');
#21 =( GEOMETRIC_REPRESENTATION_CONTEXT ( 3 ) GLOBAL_UNCERTAINTY_ASSIGNED_CONTEXT ( ( #37 ) ) GLOBAL_UNIT_ASSIGNED_CONTEXT ( ( #107, #159, #127 ) ) REPRESENTATION_CONTEXT ( 'NONE', 'WORKASPACE' ) );
#22 = CARTESIAN_POINT ( 'NONE',  ( 1.530808498934191509E-17, 1.250000000000000000, 0.1250000000000000000 ) ) ;
#23 = PRODUCT_DEFINITION_SHAPE ( 'NONE', 'NONE',  #259 ) ;
#24 = VECTOR ( 'NONE', #291, 39.37007874015748143 ) ;
#25 = MECHANICAL_DESIGN_GEOMETRIC_PRESENTATION_REPRESENTATION (  '', ( #119 ), #8 ) ;
#26 = LINE ( 'NONE', #281, #300 ) ;
#27 = AXIS2_PLACEMENT_3D ( 'NONE', #130, #9, #264 ) ;
#28 = LINE ( 'NONE', #52, #273 ) ;
#29 = ORIENTED_EDGE ( 'NONE', *, *, #58, .F. ) ;
#30 = SURFACE_STYLE_FILL_AREA ( #190 ) ;
#31 = ADVANCED_FACE ( 'NONE', ( #62 ), #270, .F. ) ;
#32 = ORIENTED_EDGE ( 'NONE', *, *, #308, .T. ) ;
#33 = CIRCLE ( 'NONE', #212, 0.1250000000000000000 ) ;
#34 = DIRECTION ( 'NONE',  ( 0.000000000000000000, 0.000000000000000000, -1.000000000000000000 ) ) ;
#35 = ORIENTED_EDGE ( 'NONE', *, *, #138, .F. ) ;
#36 = SURFACE_SIDE_STYLE ('',( #61 ) ) ;
#37 = UNCERTAINTY_MEASURE_WITH_UNIT (LENGTH_MEASURE( 1.000000000000000082E-05 ), #107, 'distance_accuracy_value', 'NONE');
#38 = DIRECTION ( 'NONE',  ( -3.498990854706726443E-17, 1.000000000000000000, -0.000000000000000000 ) ) ;
#39 = CLOSED_SHELL ( 'NONE', ( #47, #109, #289, #31 ) ) ;
#40 = CARTESIAN_POINT ( 'NONE',  ( -6.123233995736772199E-17, 3.000000000000000444, 0.000000000000000000 ) ) ;
#41 = ORIENTED_EDGE ( 'NONE', *, *, #198, .T. ) ;
#42 =( CONVERSION_BASED_UNIT ( 'INCH', #175 ) LENGTH_UNIT ( ) NAMED_UNIT ( #290 ) );
#43 = DIRECTION ( 'NONE',  ( 0.000000000000000000, 0.000000000000000000, -1.000000000000000000 ) ) ;
#44 = ADVANCED_FACE ( 'NONE', ( #299 ), #59, .T. ) ;
#45 = AXIS2_PLACEMENT_3D ( 'NONE', #132, #220, #293 ) ;
#46 =( NAMED_UNIT ( * ) PLANE_ANGLE_UNIT ( ) SI_UNIT ( $, .RADIAN. ) );
#47 = ADVANCED_FACE ( 'NONE', ( #152 ), #183, .T. ) ;
#48 = DIRECTION ( 'NONE',  ( 0.000000000000000000, -1.000000000000000000, -0.000000000000000000 ) ) ;
#49 = MECHANICAL_DESIGN_GEOMETRIC_PRESENTATION_REPRESENTATION (  '', ( #13 ), #118 ) ;
#50 = MECHANICAL_DESIGN_GEOMETRIC_PRESENTATION_REPRESENTATION (  '', ( #196 ), #201 ) ;
#51 = FACE_OUTER_BOUND ( 'NONE', #4, .T. ) ;
#52 = CARTESIAN_POINT ( 'NONE',  ( 0.1249999999999999584, 3.000000000000000444, 1.530808498934191817E-17 ) ) ;
#53 = FILL_AREA_STYLE_COLOUR ( '', #233 ) ;
#54 = SURFACE_STYLE_USAGE ( .BOTH. , #215 ) ;
#55 = ORIENTED_EDGE ( 'NONE', *, *, #58, .T. ) ;
#56 = PRODUCT_DEFINITION_FORMATION_WITH_SPECIFIED_SOURCE ( 'ANY', '', #297, .NOT_KNOWN. ) ;
#57 = VERTEX_POINT ( 'NONE', #246 ) ;
#58 = EDGE_CURVE ( 'NONE', #151, #202, #11, .T. ) ;
#59 = CYLINDRICAL_SURFACE ( 'NONE', #236, 0.1250000000000000000 ) ;
#60 = STYLED_ITEM ( 'NONE', ( #154 ), #44 ) ;
#61 = SURFACE_STYLE_FILL_AREA ( #266 ) ;
#62 = FACE_OUTER_BOUND ( 'NONE', #5, .T. ) ;
#63 = PLANE ( 'NONE',  #184 ) ;
#64 =( LENGTH_UNIT ( ) NAMED_UNIT ( * ) SI_UNIT ( $, .METRE. ) );
#65 = EDGE_LOOP ( 'NONE', ( #169, #55, #35, #294 ) ) ;
#66 = MANIFOLD_SOLID_BREP ( 'Revolve - Cutting Edge', #243 ) ;
#67 = DIRECTION ( 'NONE',  ( -0.000000000000000000, -1.000000000000000000, -0.000000000000000000 ) ) ;
#68 = CARTESIAN_POINT ( 'NONE',  ( 0.000000000000000000, 1.250000000000000000, 0.000000000000000000 ) ) ;
#69 = FACE_OUTER_BOUND ( 'NONE', #78, .T. ) ;
#70 = APPLICATION_CONTEXT ( 'automotive_design' ) ;
#71 = DIRECTION ( 'NONE',  ( -3.498990854706726443E-17, 1.000000000000000000, -0.000000000000000000 ) ) ;
#72 = EDGE_CURVE ( 'NONE', #268, #151, #265, .T. ) ;
#73 = VECTOR ( 'NONE', #120, 39.37007874015748143 ) ;
#74 = SURFACE_STYLE_FILL_AREA ( #284 ) ;
#75 = VERTEX_POINT ( 'NONE', #279 ) ;
#76 = DIRECTION ( 'NONE',  ( -3.498990854706726443E-17, 1.000000000000000000, -0.000000000000000000 ) ) ;
#77 = COLOUR_RGB ( '',1.000000000000000000, 0.000000000000000000, 0.000000000000000000 ) ;
#78 = EDGE_LOOP ( 'NONE', ( #108, #41 ) ) ;
#79 = CIRCLE ( 'NONE', #244, 0.1250000000000000555 ) ;
#80 = EDGE_CURVE ( 'NONE', #151, #268, #258, .T. ) ;
#81 = CARTESIAN_POINT ( 'NONE',  ( 1.530808498934191509E-17, 0.000000000000000000, 0.1250000000000000000 ) ) ;
#82 = SURFACE_STYLE_FILL_AREA ( #84 ) ;
#83 = ORIENTED_EDGE ( 'NONE', *, *, #302, .T. ) ;
#84 = FILL_AREA_STYLE ('',( #16 ) ) ;
#85 = CARTESIAN_POINT ( 'NONE',  ( 0.000000000000000000, 1.250000000000000000, 0.000000000000000000 ) ) ;
#86 = AXIS2_PLACEMENT_3D ( 'NONE', #304, #48, #307 ) ;
#87 = LENGTH_MEASURE_WITH_UNIT ( LENGTH_MEASURE( 0.02539999999999999897 ), #64 );
#88 = ORIENTED_EDGE ( 'NONE', *, *, #178, .T. ) ;
#89 = DIMENSIONAL_EXPONENTS ( 1.000000000000000000, 0.000000000000000000, 0.000000000000000000, 0.000000000000000000, 0.000000000000000000, 0.000000000000000000, 0.000000000000000000 ) ;
#90 = FILL_AREA_STYLE ('',( #247 ) ) ;
#91 = CARTESIAN_POINT ( 'NONE',  ( 0.000000000000000000, 0.000000000000000000, 0.000000000000000000 ) ) ;
#92 =( LENGTH_UNIT ( ) NAMED_UNIT ( * ) SI_UNIT ( $, .METRE. ) );
#93 = PRESENTATION_STYLE_ASSIGNMENT (( #141 ) ) ;
#94 = DIRECTION ( 'NONE',  ( -0.000000000000000000, -1.000000000000000000, -0.000000000000000000 ) ) ;
#95 = CARTESIAN_POINT ( 'NONE',  ( 0.000000000000000000, 0.000000000000000000, 0.000000000000000000 ) ) ;
#96 = PRESENTATION_LAYER_ASSIGNMENT (  '', '', ( #106 ) ) ;
#97 = LENGTH_MEASURE_WITH_UNIT ( LENGTH_MEASURE( 0.02539999999999999897 ), #147 );
#98 = ORIENTED_EDGE ( 'NONE', *, *, #173, .F. ) ;
#99 = CARTESIAN_POINT ( 'NONE',  ( -0.1250000000000001110, 3.000000000000000444, 0.000000000000000000 ) ) ;
#100 = EDGE_LOOP ( 'NONE', ( #29, #121, #88, #129 ) ) ;
#101 =( NAMED_UNIT ( * ) SI_UNIT ( $, .STERADIAN. ) SOLID_ANGLE_UNIT ( ) );
#102 =( GEOMETRIC_REPRESENTATION_CONTEXT ( 3 ) GLOBAL_UNCERTAINTY_ASSIGNED_CONTEXT ( ( #164 ) ) GLOBAL_UNIT_ASSIGNED_CONTEXT ( ( #134, #267, #269 ) ) REPRESENTATION_CONTEXT ( 'NONE', 'WORKASPACE' ) );
#103 = EDGE_LOOP ( 'NONE', ( #98, #32, #204, #252 ) ) ;
#104 =( LENGTH_UNIT ( ) NAMED_UNIT ( * ) SI_UNIT ( $, .METRE. ) );
#105 = PRESENTATION_STYLE_ASSIGNMENT (( #12 ) ) ;
#106 = STYLED_ITEM ( 'NONE', ( #105 ), #66 ) ;
#107 =( CONVERSION_BASED_UNIT ( 'INCH', #219 ) LENGTH_UNIT ( ) NAMED_UNIT ( #89 ) );
#108 = ORIENTED_EDGE ( 'NONE', *, *, #138, .T. ) ;
#109 = ADVANCED_FACE ( 'NONE', ( #51 ), #145, .F. ) ;
#110 =( NAMED_UNIT ( * ) SI_UNIT ( $, .STERADIAN. ) SOLID_ANGLE_UNIT ( ) );
#111 = CARTESIAN_POINT ( 'NONE',  ( -6.123233995736772199E-17, 3.000000000000000444, 0.000000000000000000 ) ) ;
#112 =( CONVERSION_BASED_UNIT ( 'INCH', #185 ) LENGTH_UNIT ( ) NAMED_UNIT ( #248 ) );
#113 =( GEOMETRIC_REPRESENTATION_CONTEXT ( 3 ) GLOBAL_UNCERTAINTY_ASSIGNED_CONTEXT ( ( #20 ) ) GLOBAL_UNIT_ASSIGNED_CONTEXT ( ( #42, #227, #110 ) ) REPRESENTATION_CONTEXT ( 'NONE', 'WORKASPACE' ) );
#114 = MECHANICAL_DESIGN_GEOMETRIC_PRESENTATION_REPRESENTATION (  '', ( #128 ), #102 ) ;
#115 = CARTESIAN_POINT ( 'NONE',  ( 0.000000000000000000, 1.250000000000000000, 0.000000000000000000 ) ) ;
#116 =( LENGTH_UNIT ( ) NAMED_UNIT ( * ) SI_UNIT ( $, .METRE. ) );
#117 = ADVANCED_FACE ( 'NONE', ( #69 ), #254, .T. ) ;
#118 =( GEOMETRIC_REPRESENTATION_CONTEXT ( 3 ) GLOBAL_UNCERTAINTY_ASSIGNED_CONTEXT ( ( #158 ) ) GLOBAL_UNIT_ASSIGNED_CONTEXT ( ( #301, #208, #209 ) ) REPRESENTATION_CONTEXT ( 'NONE', 'WORKASPACE' ) );
#119 = STYLED_ITEM ( 'NONE', ( #171 ), #262 ) ;
#120 = DIRECTION ( 'NONE',  ( -3.498990854706726443E-17, 1.000000000000000000, -0.000000000000000000 ) ) ;
#121 = ORIENTED_EDGE ( 'NONE', *, *, #80, .T. ) ;
#122 = EDGE_CURVE ( 'NONE', #218, #57, #253, .T. ) ;
#123 = CARTESIAN_POINT ( 'NONE',  ( -0.1250000000000001388, 3.000000000000000444, 0.000000000000000000 ) ) ;
#124 = ORIENTED_EDGE ( 'NONE', *, *, #122, .T. ) ;
#125 = CYLINDRICAL_SURFACE ( 'NONE', #283, 0.1250000000000000000 ) ;
#126 = MECHANICAL_DESIGN_GEOMETRIC_PRESENTATION_REPRESENTATION (  '', ( #60 ), #113 ) ;
#127 =( NAMED_UNIT ( * ) SI_UNIT ( $, .STERADIAN. ) SOLID_ANGLE_UNIT ( ) );
#128 = STYLED_ITEM ( 'NONE', ( #249 ), #285 ) ;
#129 = ORIENTED_EDGE ( 'NONE', *, *, #198, .F. ) ;
#130 = CARTESIAN_POINT ( 'NONE',  ( 0.000000000000000000, 1.250000000000000000, 0.000000000000000000 ) ) ;
#131 = CARTESIAN_POINT ( 'NONE',  ( -6.123233995736772199E-17, 3.000000000000000444, 0.000000000000000000 ) ) ;
#132 = CARTESIAN_POINT ( 'NONE',  ( 0.000000000000000000, 0.000000000000000000, 0.000000000000000000 ) ) ;
#133 = SURFACE_STYLE_FILL_AREA ( #90 ) ;
#134 =( CONVERSION_BASED_UNIT ( 'INCH', #87 ) LENGTH_UNIT ( ) NAMED_UNIT ( #240 ) );
#135 = SURFACE_SIDE_STYLE ('',( #133 ) ) ;
#136 = FACE_OUTER_BOUND ( 'NONE', #103, .T. ) ;
#137 = DIRECTION ( 'NONE',  ( 0.000000000000000000, 0.000000000000000000, -1.000000000000000000 ) ) ;
#138 = EDGE_CURVE ( 'NONE', #148, #202, #33, .T. ) ;
#139 = CIRCLE ( 'NONE', #144, 0.1250000000000000000 ) ;
#140 = DIRECTION ( 'NONE',  ( -3.498990854706726443E-17, 1.000000000000000000, 0.000000000000000000 ) ) ;
#141 = SURFACE_STYLE_USAGE ( .BOTH. , #142 ) ;
#142 = SURFACE_SIDE_STYLE ('',( #280 ) ) ;
#143 = AXIS2_PLACEMENT_3D ( 'NONE', #298, #224, #156 ) ;
#144 = AXIS2_PLACEMENT_3D ( 'NONE', #261, #309, #172 ) ;
#145 = PLANE ( 'NONE',  #211 ) ;
#146 =( LENGTH_UNIT ( ) NAMED_UNIT ( * ) SI_UNIT ( $, .METRE. ) );
#147 =( LENGTH_UNIT ( ) NAMED_UNIT ( * ) SI_UNIT ( $, .METRE. ) );
#148 = VERTEX_POINT ( 'NONE', #229 ) ;
#149 = LINE ( 'NONE', #99, #73 ) ;
#150 = LENGTH_MEASURE_WITH_UNIT ( LENGTH_MEASURE( 0.02539999999999999897 ), #146 );
#151 = VERTEX_POINT ( 'NONE', #22 ) ;
#152 = FACE_OUTER_BOUND ( 'NONE', #15, .T. ) ;
#153 = DIRECTION ( 'NONE',  ( -1.000000000000000000, 0.000000000000000000, 0.000000000000000000 ) ) ;
#154 = PRESENTATION_STYLE_ASSIGNMENT (( #19 ) ) ;
#155 = FACE_OUTER_BOUND ( 'NONE', #177, .T. ) ;
#156 = DIRECTION ( 'NONE',  ( 1.000000000000000000, 3.498990854706726443E-17, 0.000000000000000000 ) ) ;
#157 = DIRECTION ( 'NONE',  ( -3.498990854706726443E-17, 1.000000000000000000, -0.000000000000000000 ) ) ;
#158 = UNCERTAINTY_MEASURE_WITH_UNIT (LENGTH_MEASURE( 1.000000000000000082E-05 ), #301, 'distance_accuracy_value', 'NONE');
#159 =( NAMED_UNIT ( * ) PLANE_ANGLE_UNIT ( ) SI_UNIT ( $, .RADIAN. ) );
#160 =( LENGTH_UNIT ( ) NAMED_UNIT ( * ) SI_UNIT ( $, .METRE. ) );
#161 = DIRECTION ( 'NONE',  ( -1.000000000000000000, 0.000000000000000000, 0.000000000000000000 ) ) ;
#162 = CIRCLE ( 'NONE', #205, 0.1250000000000000555 ) ;
#163 = LENGTH_MEASURE_WITH_UNIT ( LENGTH_MEASURE( 0.02539999999999999897 ), #116 );
#164 = UNCERTAINTY_MEASURE_WITH_UNIT (LENGTH_MEASURE( 1.000000000000000082E-05 ), #134, 'distance_accuracy_value', 'NONE');
#165 = FILL_AREA_STYLE_COLOUR ( '', #292 ) ;
#166 = PRESENTATION_STYLE_ASSIGNMENT (( #197 ) ) ;
#167 = EDGE_CURVE ( 'NONE', #75, #193, #79, .T. ) ;
#168 = DIRECTION ( 'NONE',  ( -0.000000000000000000, -1.000000000000000000, -0.000000000000000000 ) ) ;
#169 = ORIENTED_EDGE ( 'NONE', *, *, #72, .T. ) ;
#170 = PRESENTATION_LAYER_ASSIGNMENT (  '', '', ( #196 ) ) ;
#171 = PRESENTATION_STYLE_ASSIGNMENT (( #54 ) ) ;
#172 = DIRECTION ( 'NONE',  ( 0.000000000000000000, 0.000000000000000000, -1.000000000000000000 ) ) ;
#173 = EDGE_CURVE ( 'NONE', #57, #75, #28, .T. ) ;
#174 = DIRECTION ( 'NONE',  ( -3.498990854706726443E-17, 1.000000000000000000, -0.000000000000000000 ) ) ;
#175 = LENGTH_MEASURE_WITH_UNIT ( LENGTH_MEASURE( 0.02539999999999999897 ), #160 );
#176 = FILL_AREA_STYLE_COLOUR ( '', #232 ) ;
#177 = EDGE_LOOP ( 'NONE', ( #194, #242 ) ) ;
#178 = EDGE_CURVE ( 'NONE', #268, #148, #26, .T. ) ;
#179 = PRODUCT_DEFINITION_CONTEXT ( 'detailed design', #70, 'design' ) ;
#180 = DIRECTION ( 'NONE',  ( -0.000000000000000000, -1.000000000000000000, -0.000000000000000000 ) ) ;
#181 = ORIENTED_EDGE ( 'NONE', *, *, #122, .F. ) ;
#182 = SURFACE_SIDE_STYLE ('',( #82 ) ) ;
#183 = CYLINDRICAL_SURFACE ( 'NONE', #228, 0.1250000000000000278 ) ;
#184 = AXIS2_PLACEMENT_3D ( 'NONE', #296, #222, #274 ) ;
#185 = LENGTH_MEASURE_WITH_UNIT ( LENGTH_MEASURE( 0.02539999999999999897 ), #92 );
#186 =( NAMED_UNIT ( * ) SI_UNIT ( $, .STERADIAN. ) SOLID_ANGLE_UNIT ( ) );
#187 =( GEOMETRIC_REPRESENTATION_CONTEXT ( 3 ) GLOBAL_UNCERTAINTY_ASSIGNED_CONTEXT ( ( #263 ) ) GLOBAL_UNIT_ASSIGNED_CONTEXT ( ( #112, #46, #186 ) ) REPRESENTATION_CONTEXT ( 'NONE', 'WORKASPACE' ) );
#188 = CIRCLE ( 'NONE', #27, 0.1250000000000000000 ) ;
#189 = DIRECTION ( 'NONE',  ( 0.000000000000000000, 0.000000000000000000, -1.000000000000000000 ) ) ;
#190 = FILL_AREA_STYLE ('',( #241 ) ) ;
#191 = AXIS2_PLACEMENT_3D ( 'NONE', #68, #277, #189 ) ;
#192 =( CONVERSION_BASED_UNIT ( 'INCH', #97 ) LENGTH_UNIT ( ) NAMED_UNIT ( #288 ) );
#193 = VERTEX_POINT ( 'NONE', #123 ) ;
#194 = ORIENTED_EDGE ( 'NONE', *, *, #72, .F. ) ;
#195 = AXIS2_PLACEMENT_3D ( 'NONE', #85, #94, #207 ) ;
#196 = STYLED_ITEM ( 'NONE', ( #166 ), #271 ) ;
#197 = SURFACE_STYLE_USAGE ( .BOTH. , #235 ) ;
#198 = EDGE_CURVE ( 'NONE', #202, #148, #139, .T. ) ;
#199 = CARTESIAN_POINT ( 'NONE',  ( 1.530808498934191509E-17, 0.000000000000000000, 0.1250000000000000000 ) ) ;
#200 = DIMENSIONAL_EXPONENTS ( 1.000000000000000000, 0.000000000000000000, 0.000000000000000000, 0.000000000000000000, 0.000000000000000000, 0.000000000000000000, 0.000000000000000000 ) ;
#201 =( GEOMETRIC_REPRESENTATION_CONTEXT ( 3 ) GLOBAL_UNCERTAINTY_ASSIGNED_CONTEXT ( ( #206 ) ) GLOBAL_UNIT_ASSIGNED_CONTEXT ( ( #192, #213, #101 ) ) REPRESENTATION_CONTEXT ( 'NONE', 'WORKASPACE' ) );
#202 = VERTEX_POINT ( 'NONE', #81 ) ;
#203 = ORIENTED_EDGE ( 'NONE', *, *, #302, .F. ) ;
#204 = ORIENTED_EDGE ( 'NONE', *, *, #238, .T. ) ;
#205 = AXIS2_PLACEMENT_3D ( 'NONE', #14, #38, #225 ) ;
#206 = UNCERTAINTY_MEASURE_WITH_UNIT (LENGTH_MEASURE( 1.000000000000000082E-05 ), #192, 'distance_accuracy_value', 'NONE');
#207 = DIRECTION ( 'NONE',  ( 0.000000000000000000, 0.000000000000000000, -1.000000000000000000 ) ) ;
#208 =( NAMED_UNIT ( * ) PLANE_ANGLE_UNIT ( ) SI_UNIT ( $, .RADIAN. ) );
#209 =( NAMED_UNIT ( * ) SI_UNIT ( $, .STERADIAN. ) SOLID_ANGLE_UNIT ( ) );
#210 = DIRECTION ( 'NONE',  ( -1.000000000000000000, 0.000000000000000000, 0.000000000000000000 ) ) ;
#211 = AXIS2_PLACEMENT_3D ( 'NONE', #234, #140, #278 ) ;
#212 = AXIS2_PLACEMENT_3D ( 'NONE', #276, #67, #43 ) ;
#213 =( NAMED_UNIT ( * ) PLANE_ANGLE_UNIT ( ) SI_UNIT ( $, .RADIAN. ) );
#214 = APPLICATION_PROTOCOL_DEFINITION ( 'draft international standard', 'automotive_design', 1998, #70 ) ;
#215 = SURFACE_SIDE_STYLE ('',( #30 ) ) ;
#216 = PRODUCT_RELATED_PRODUCT_CATEGORY ( 'part', '', ( #297 ) ) ;
#217 = PRESENTATION_LAYER_ASSIGNMENT (  '', '', ( #128 ) ) ;
#218 = VERTEX_POINT ( 'NONE', #3 ) ;
#219 = LENGTH_MEASURE_WITH_UNIT ( LENGTH_MEASURE( 0.02539999999999999897 ), #104 );
#220 = DIRECTION ( 'NONE',  ( 0.000000000000000000, 0.000000000000000000, 1.000000000000000000 ) ) ;
#221 = UNCERTAINTY_MEASURE_WITH_UNIT (LENGTH_MEASURE( 1.000000000000000082E-05 ), #256, 'distance_accuracy_value', 'NONE');
#222 = DIRECTION ( 'NONE',  ( 0.000000000000000000, 1.000000000000000000, 0.000000000000000000 ) ) ;
#223 = COLOUR_RGB ( '',0.7921568627450980005, 0.8196078431372548767, 0.9333333333333333481 ) ;
#224 = DIRECTION ( 'NONE',  ( 3.498990854706726443E-17, -1.000000000000000000, 0.000000000000000000 ) ) ;
#225 = DIRECTION ( 'NONE',  ( -1.000000000000000000, 0.000000000000000000, 0.000000000000000000 ) ) ;
#226 = DIRECTION ( 'NONE',  ( -0.000000000000000000, -1.000000000000000000, -0.000000000000000000 ) ) ;
#227 =( NAMED_UNIT ( * ) PLANE_ANGLE_UNIT ( ) SI_UNIT ( $, .RADIAN. ) );
#228 = AXIS2_PLACEMENT_3D ( 'NONE', #131, #157, #275 ) ;
#229 = CARTESIAN_POINT ( 'NONE',  ( 0.000000000000000000, 0.000000000000000000, -0.1250000000000000000 ) ) ;
#230 = FILL_AREA_STYLE ('',( #165 ) ) ;
#231 = SHAPE_DEFINITION_REPRESENTATION ( #23, #17 ) ;
#232 = COLOUR_RGB ( '',0.7921568627450980005, 0.8196078431372548767, 0.9333333333333333481 ) ;
#233 = COLOUR_RGB ( '',1.000000000000000000, 0.000000000000000000, 0.000000000000000000 ) ;
#234 = CARTESIAN_POINT ( 'NONE',  ( 7.651835625825817976E-35, 1.250000000000000000, 0.000000000000000000 ) ) ;
#235 = SURFACE_SIDE_STYLE ('',( #74 ) ) ;
#236 = AXIS2_PLACEMENT_3D ( 'NONE', #91, #226, #137 ) ;
#237 = CARTESIAN_POINT ( 'NONE',  ( 0.000000000000000000, 1.250000000000000000, -0.1250000000000000000 ) ) ;
#238 = EDGE_CURVE ( 'NONE', #218, #193, #149, .T. ) ;
#239 = FACE_OUTER_BOUND ( 'NONE', #100, .T. ) ;
#241 = FILL_AREA_STYLE_COLOUR ( '', #223 ) ;
#240 = DIMENSIONAL_EXPONENTS ( 1.000000000000000000, 0.000000000000000000, 0.000000000000000000, 0.000000000000000000, 0.000000000000000000, 0.000000000000000000, 0.000000000000000000 ) ;
#242 = ORIENTED_EDGE ( 'NONE', *, *, #80, .F. ) ;
#243 = CLOSED_SHELL ( 'NONE', ( #44, #285, #271, #117 ) ) ;
#244 = AXIS2_PLACEMENT_3D ( 'NONE', #111, #303, #210 ) ;
#245 = APPLICATION_PROTOCOL_DEFINITION ( 'draft international standard', 'automotive_design', 1998, #18 ) ;
#246 = CARTESIAN_POINT ( 'NONE',  ( 0.1250000000000000278, 1.250000000000000000, 1.530808498934192125E-17 ) ) ;
#247 = FILL_AREA_STYLE_COLOUR ( '', #272 ) ;
#248 = DIMENSIONAL_EXPONENTS ( 1.000000000000000000, 0.000000000000000000, 0.000000000000000000, 0.000000000000000000, 0.000000000000000000, 0.000000000000000000, 0.000000000000000000 ) ;
#249 = PRESENTATION_STYLE_ASSIGNMENT (( #10 ) ) ;
#250 = PRESENTATION_LAYER_ASSIGNMENT (  '', '', ( #60 ) ) ;
#251 = CYLINDRICAL_SURFACE ( 'NONE', #2, 0.1250000000000000278 ) ;
#252 = ORIENTED_EDGE ( 'NONE', *, *, #167, .F. ) ;
#253 = CIRCLE ( 'NONE', #305, 0.1250000000000000000 ) ;
#254 = PLANE ( 'NONE',  #86 ) ;
#255 = PRODUCT_CONTEXT ( 'NONE', #18, 'mechanical' ) ;
#256 =( CONVERSION_BASED_UNIT ( 'INCH', #150 ) LENGTH_UNIT ( ) NAMED_UNIT ( #200 ) );
#257 = ORIENTED_EDGE ( 'NONE', *, *, #308, .F. ) ;
#258 = CIRCLE ( 'NONE', #191, 0.1250000000000000000 ) ;
#259 = PRODUCT_DEFINITION ( 'UNKNOWN', '', #56, #179 ) ;
#260 = ORIENTED_EDGE ( 'NONE', *, *, #173, .T. ) ;
#261 = CARTESIAN_POINT ( 'NONE',  ( 0.000000000000000000, 0.000000000000000000, 0.000000000000000000 ) ) ;
#262 = MANIFOLD_SOLID_BREP ( 'Revolve - Tool Body (Straight Shanked)', #39 ) ;
#263 = UNCERTAINTY_MEASURE_WITH_UNIT (LENGTH_MEASURE( 1.000000000000000082E-05 ), #112, 'distance_accuracy_value', 'NONE');
#264 = DIRECTION ( 'NONE',  ( -1.000000000000000000, 0.000000000000000000, 0.000000000000000000 ) ) ;
#265 = CIRCLE ( 'NONE', #195, 0.1250000000000000000 ) ;
#266 = FILL_AREA_STYLE ('',( #176 ) ) ;
#267 =( NAMED_UNIT ( * ) PLANE_ANGLE_UNIT ( ) SI_UNIT ( $, .RADIAN. ) );
#268 = VERTEX_POINT ( 'NONE', #237 ) ;
#269 =( NAMED_UNIT ( * ) SI_UNIT ( $, .STERADIAN. ) SOLID_ANGLE_UNIT ( ) );
#270 = PLANE ( 'NONE',  #143 ) ;
#271 = ADVANCED_FACE ( 'NONE', ( #239 ), #125, .T. ) ;
#272 = COLOUR_RGB ( '',1.000000000000000000, 0.000000000000000000, 0.000000000000000000 ) ;
#273 = VECTOR ( 'NONE', #76, 39.37007874015748143 ) ;
#274 = DIRECTION ( 'NONE',  ( 0.000000000000000000, -0.000000000000000000, 1.000000000000000000 ) ) ;
#275 = DIRECTION ( 'NONE',  ( -1.000000000000000000, 0.000000000000000000, 0.000000000000000000 ) ) ;
#276 = CARTESIAN_POINT ( 'NONE',  ( 0.000000000000000000, 0.000000000000000000, 0.000000000000000000 ) ) ;
#277 = DIRECTION ( 'NONE',  ( -0.000000000000000000, -1.000000000000000000, -0.000000000000000000 ) ) ;
#278 = DIRECTION ( 'NONE',  ( -1.000000000000000000, -3.498990854706726443E-17, 0.000000000000000000 ) ) ;
#279 = CARTESIAN_POINT ( 'NONE',  ( 0.1250000000000000278, 3.000000000000000444, 1.530808498934192125E-17 ) ) ;
#280 = SURFACE_STYLE_FILL_AREA ( #230 ) ;
#281 = CARTESIAN_POINT ( 'NONE',  ( 0.000000000000000000, 0.000000000000000000, -0.1250000000000000000 ) ) ;
#282 = MECHANICAL_DESIGN_GEOMETRIC_PRESENTATION_REPRESENTATION (  '', ( #106 ), #187 ) ;
#283 = AXIS2_PLACEMENT_3D ( 'NONE', #95, #180, #34 ) ;
#284 = FILL_AREA_STYLE ('',( #53 ) ) ;
#285 = ADVANCED_FACE ( 'NONE', ( #155 ), #63, .T. ) ;
#286 = ORIENTED_EDGE ( 'NONE', *, *, #238, .F. ) ;
#287 =( NAMED_UNIT ( * ) PLANE_ANGLE_UNIT ( ) SI_UNIT ( $, .RADIAN. ) );
#288 = DIMENSIONAL_EXPONENTS ( 1.000000000000000000, 0.000000000000000000, 0.000000000000000000, 0.000000000000000000, 0.000000000000000000, 0.000000000000000000, 0.000000000000000000 ) ;
#289 = ADVANCED_FACE ( 'NONE', ( #136 ), #251, .T. ) ;
#290 = DIMENSIONAL_EXPONENTS ( 1.000000000000000000, 0.000000000000000000, 0.000000000000000000, 0.000000000000000000, 0.000000000000000000, 0.000000000000000000, 0.000000000000000000 ) ;
#291 = DIRECTION ( 'NONE',  ( -0.000000000000000000, -1.000000000000000000, -0.000000000000000000 ) ) ;
#292 = COLOUR_RGB ( '',1.000000000000000000, 0.000000000000000000, 0.000000000000000000 ) ;
#293 = DIRECTION ( 'NONE',  ( 1.000000000000000000, 0.000000000000000000, 0.000000000000000000 ) ) ;
#294 = ORIENTED_EDGE ( 'NONE', *, *, #178, .F. ) ;
#295 = DIMENSIONAL_EXPONENTS ( 1.000000000000000000, 0.000000000000000000, 0.000000000000000000, 0.000000000000000000, 0.000000000000000000, 0.000000000000000000, 0.000000000000000000 ) ;
#296 = CARTESIAN_POINT ( 'NONE',  ( 0.000000000000000000, 1.250000000000000000, 0.000000000000000000 ) ) ;
#297 = PRODUCT ( '00195', '00195', '', ( #255 ) ) ;
#298 = CARTESIAN_POINT ( 'NONE',  ( 0.1250000000000000000, 3.000000000000000444, 0.000000000000000000 ) ) ;
#299 = FACE_OUTER_BOUND ( 'NONE', #65, .T. ) ;
#300 = VECTOR ( 'NONE', #168, 39.37007874015748143 ) ;
#301 =( CONVERSION_BASED_UNIT ( 'INCH', #163 ) LENGTH_UNIT ( ) NAMED_UNIT ( #295 ) );
#302 = EDGE_CURVE ( 'NONE', #193, #75, #162, .T. ) ;
#303 = DIRECTION ( 'NONE',  ( -3.498990854706726443E-17, 1.000000000000000000, -0.000000000000000000 ) ) ;
#304 = CARTESIAN_POINT ( 'NONE',  ( 0.000000000000000000, 0.000000000000000000, 0.000000000000000000 ) ) ;
#305 = AXIS2_PLACEMENT_3D ( 'NONE', #115, #71, #161 ) ;
#306 = PRESENTATION_LAYER_ASSIGNMENT (  '', '', ( #119 ) ) ;
#307 = DIRECTION ( 'NONE',  ( 0.000000000000000000, 0.000000000000000000, -1.000000000000000000 ) ) ;
#308 = EDGE_CURVE ( 'NONE', #57, #218, #188, .T. ) ;
#309 = DIRECTION ( 'NONE',  ( -0.000000000000000000, -1.000000000000000000, -0.000000000000000000 ) ) ;
ENDSEC;
END-ISO-10303-21;
