ISO-10303-21;
HEADER;
FILE_DESCRIPTION (( 'STEP AP214' ),
    '1' );
FILE_NAME ('59254.STEP',
    '2023-06-22T22:13:59',
    ( '' ),
    ( '' ),
    'SwSTEP 2.0',
    'SolidWorks 2023',
    '' );
FILE_SCHEMA (( 'AUTOMOTIVE_DESIGN' ));
ENDSEC;

DATA;
#1 = CARTESIAN_POINT ( 'NONE',  ( 0.000000000000000000, 0.000000000000000000, 0.000000000000000000 ) ) ;
#2 = COLOUR_RGB ( '',0.7921568627450980005, 0.8196078431372548767, 0.9333333333333333481 ) ;
#3 = DIRECTION ( 'NONE',  ( -3.498990854706726443E-17, 1.000000000000000000, -0.000000000000000000 ) ) ;
#4 = MANIFOLD_SOLID_BREP ( 'Revolve - Cutting Edge', #244 ) ;
#5 = UNCERTAINTY_MEASURE_WITH_UNIT (LENGTH_MEASURE( 1.000000000000000082E-05 ), #137, 'distance_accuracy_value', 'NONE');
#6 = ORIENTED_EDGE ( 'NONE', *, *, #301, .F. ) ;
#7 = AXIS2_PLACEMENT_3D ( 'NONE', #206, #87, #277 ) ;
#8 = DIRECTION ( 'NONE',  ( -0.000000000000000000, -1.000000000000000000, -0.000000000000000000 ) ) ;
#9 = SURFACE_SIDE_STYLE ('',( #298 ) ) ;
#10 = LENGTH_MEASURE_WITH_UNIT ( LENGTH_MEASURE( 0.02539999999999999897 ), #134 );
#11 =( GEOMETRIC_REPRESENTATION_CONTEXT ( 3 ) GLOBAL_UNCERTAINTY_ASSIGNED_CONTEXT ( ( #22 ) ) GLOBAL_UNIT_ASSIGNED_CONTEXT ( ( #104, #34, #186 ) ) REPRESENTATION_CONTEXT ( 'NONE', 'WORKASPACE' ) );
#12 = SURFACE_STYLE_USAGE ( .BOTH. , #183 ) ;
#13 = CYLINDRICAL_SURFACE ( 'NONE', #7, 0.1250000000000000278 ) ;
#14 =( LENGTH_UNIT ( ) NAMED_UNIT ( * ) SI_UNIT ( $, .METRE. ) );
#15 = AXIS2_PLACEMENT_3D ( 'NONE', #30, #155, #133 ) ;
#16 = DIRECTION ( 'NONE',  ( -3.498990854706726443E-17, 1.000000000000000000, -0.000000000000000000 ) ) ;
#17 = SURFACE_STYLE_FILL_AREA ( #44 ) ;
#18 =( NAMED_UNIT ( * ) PLANE_ANGLE_UNIT ( ) SI_UNIT ( $, .RADIAN. ) );
#19 = DIMENSIONAL_EXPONENTS ( 1.000000000000000000, 0.000000000000000000, 0.000000000000000000, 0.000000000000000000, 0.000000000000000000, 0.000000000000000000, 0.000000000000000000 ) ;
#20 = ADVANCED_FACE ( 'NONE', ( #194 ), #68, .T. ) ;
#21 = DIRECTION ( 'NONE',  ( 0.000000000000000000, -0.000000000000000000, 1.000000000000000000 ) ) ;
#22 = UNCERTAINTY_MEASURE_WITH_UNIT (LENGTH_MEASURE( 1.000000000000000082E-05 ), #104, 'distance_accuracy_value', 'NONE');
#23 = ORIENTED_EDGE ( 'NONE', *, *, #295, .T. ) ;
#24 = VERTEX_POINT ( 'NONE', #73 ) ;
#25 = AXIS2_PLACEMENT_3D ( 'NONE', #132, #80, #161 ) ;
#26 = PRESENTATION_STYLE_ASSIGNMENT (( #218 ) ) ;
#27 = EDGE_LOOP ( 'NONE', ( #49, #139 ) ) ;
#28 = PLANE ( 'NONE',  #25 ) ;
#29 = ORIENTED_EDGE ( 'NONE', *, *, #113, .T. ) ;
#30 = CARTESIAN_POINT ( 'NONE',  ( 0.000000000000000000, 1.250000000000000000, 0.000000000000000000 ) ) ;
#31 = SURFACE_STYLE_FILL_AREA ( #248 ) ;
#32 = DIRECTION ( 'NONE',  ( 1.000000000000000000, 3.498990854706726443E-17, 0.000000000000000000 ) ) ;
#33 = PLANE ( 'NONE',  #180 ) ;
#34 =( NAMED_UNIT ( * ) PLANE_ANGLE_UNIT ( ) SI_UNIT ( $, .RADIAN. ) );
#35 = DIRECTION ( 'NONE',  ( -1.000000000000000000, 0.000000000000000000, 0.000000000000000000 ) ) ;
#36 = COLOUR_RGB ( '',1.000000000000000000, 0.000000000000000000, 0.000000000000000000 ) ;
#37 = PLANE ( 'NONE',  #302 ) ;
#38 = UNCERTAINTY_MEASURE_WITH_UNIT (LENGTH_MEASURE( 1.000000000000000082E-05 ), #107, 'distance_accuracy_value', 'NONE');
#39 = PRODUCT ( '59254', '59254', '', ( #121 ) ) ;
#40 = FILL_AREA_STYLE ('',( #57 ) ) ;
#41 = STYLED_ITEM ( 'NONE', ( #256 ), #211 ) ;
#42 = STYLED_ITEM ( 'NONE', ( #309 ), #20 ) ;
#43 = DIRECTION ( 'NONE',  ( -3.498990854706726443E-17, 1.000000000000000000, -0.000000000000000000 ) ) ;
#44 = FILL_AREA_STYLE ('',( #236 ) ) ;
#45 = MECHANICAL_DESIGN_GEOMETRIC_PRESENTATION_REPRESENTATION (  '', ( #221 ), #195 ) ;
#46 =( NAMED_UNIT ( * ) SI_UNIT ( $, .STERADIAN. ) SOLID_ANGLE_UNIT ( ) );
#47 = AXIS2_PLACEMENT_3D ( 'NONE', #1, #99, #290 ) ;
#48 = VERTEX_POINT ( 'NONE', #157 ) ;
#49 = ORIENTED_EDGE ( 'NONE', *, *, #295, .F. ) ;
#50 = PRESENTATION_LAYER_ASSIGNMENT (  '', '', ( #42 ) ) ;
#51 = EDGE_LOOP ( 'NONE', ( #23, #101, #176, #201 ) ) ;
#52 = EDGE_CURVE ( 'NONE', #48, #150, #226, .T. ) ;
#53 = PRESENTATION_STYLE_ASSIGNMENT (( #196 ) ) ;
#54 = AXIS2_PLACEMENT_3D ( 'NONE', #167, #43, #145 ) ;
#55 = STYLED_ITEM ( 'NONE', ( #26 ), #4 ) ;
#56 = ADVANCED_FACE ( 'NONE', ( #245 ), #28, .T. ) ;
#57 = FILL_AREA_STYLE_COLOUR ( '', #36 ) ;
#58 = SURFACE_STYLE_USAGE ( .BOTH. , #9 ) ;
#59 = CARTESIAN_POINT ( 'NONE',  ( -0.1250000000000001388, 3.000000000000000444, 0.000000000000000000 ) ) ;
#60 = FACE_OUTER_BOUND ( 'NONE', #153, .T. ) ;
#61 = CYLINDRICAL_SURFACE ( 'NONE', #154, 0.1250000000000000278 ) ;
#62 = DIMENSIONAL_EXPONENTS ( 1.000000000000000000, 0.000000000000000000, 0.000000000000000000, 0.000000000000000000, 0.000000000000000000, 0.000000000000000000, 0.000000000000000000 ) ;
#63 = ADVANCED_FACE ( 'NONE', ( #162 ), #13, .T. ) ;
#64 = MECHANICAL_DESIGN_GEOMETRIC_PRESENTATION_REPRESENTATION (  '', ( #42 ), #224 ) ;
#65 = PRODUCT_DEFINITION_FORMATION_WITH_SPECIFIED_SOURCE ( 'ANY', '', #39, .NOT_KNOWN. ) ;
#66 = ADVANCED_FACE ( 'NONE', ( #60 ), #33, .F. ) ;
#67 = FACE_OUTER_BOUND ( 'NONE', #220, .T. ) ;
#68 = CYLINDRICAL_SURFACE ( 'NONE', #76, 0.1250000000000000278 ) ;
#69 = DIRECTION ( 'NONE',  ( 0.000000000000000000, 0.000000000000000000, 1.000000000000000000 ) ) ;
#70 = PRESENTATION_LAYER_ASSIGNMENT (  '', '', ( #41 ) ) ;
#71 =( NAMED_UNIT ( * ) PLANE_ANGLE_UNIT ( ) SI_UNIT ( $, .RADIAN. ) );
#72 = DIRECTION ( 'NONE',  ( -1.000000000000000000, 0.000000000000000000, 0.000000000000000000 ) ) ;
#73 = CARTESIAN_POINT ( 'NONE',  ( -0.1250000000000000000, 1.250000000000000000, 0.000000000000000000 ) ) ;
#74 = ORIENTED_EDGE ( 'NONE', *, *, #52, .T. ) ;
#75 = LINE ( 'NONE', #152, #93 ) ;
#76 = AXIS2_PLACEMENT_3D ( 'NONE', #148, #289, #175 ) ;
#77 = ORIENTED_EDGE ( 'NONE', *, *, #158, .F. ) ;
#78 = SURFACE_STYLE_FILL_AREA ( #198 ) ;
#79 = EDGE_CURVE ( 'NONE', #150, #48, #286, .T. ) ;
#80 = DIRECTION ( 'NONE',  ( 0.000000000000000000, -1.000000000000000000, -0.000000000000000000 ) ) ;
#81 =( NAMED_UNIT ( * ) PLANE_ANGLE_UNIT ( ) SI_UNIT ( $, .RADIAN. ) );
#82 =( CONVERSION_BASED_UNIT ( 'INCH', #234 ) LENGTH_UNIT ( ) NAMED_UNIT ( #19 ) );
#83 = LINE ( 'NONE', #143, #276 ) ;
#84 = PRESENTATION_STYLE_ASSIGNMENT (( #58 ) ) ;
#85 =( NAMED_UNIT ( * ) SI_UNIT ( $, .STERADIAN. ) SOLID_ANGLE_UNIT ( ) );
#86 = EDGE_CURVE ( 'NONE', #264, #100, #83, .T. ) ;
#87 = DIRECTION ( 'NONE',  ( -3.498990854706726443E-17, 1.000000000000000000, -0.000000000000000000 ) ) ;
#88 = COLOUR_RGB ( '',1.000000000000000000, 0.000000000000000000, 0.000000000000000000 ) ;
#89 = PRESENTATION_LAYER_ASSIGNMENT (  '', '', ( #221 ) ) ;
#90 = LENGTH_MEASURE_WITH_UNIT ( LENGTH_MEASURE( 0.02539999999999999897 ), #95 );
#91 = CARTESIAN_POINT ( 'NONE',  ( 0.000000000000000000, 1.250000000000000000, 0.000000000000000000 ) ) ;
#92 = STYLED_ITEM ( 'NONE', ( #252 ), #284 ) ;
#93 = VECTOR ( 'NONE', #103, 39.37007874015748143 ) ;
#94 = DIRECTION ( 'NONE',  ( -1.000000000000000000, 0.000000000000000000, 0.000000000000000000 ) ) ;
#95 =( LENGTH_UNIT ( ) NAMED_UNIT ( * ) SI_UNIT ( $, .METRE. ) );
#96 = CARTESIAN_POINT ( 'NONE',  ( 0.000000000000000000, 1.250000000000000000, 0.000000000000000000 ) ) ;
#97 = DIMENSIONAL_EXPONENTS ( 1.000000000000000000, 0.000000000000000000, 0.000000000000000000, 0.000000000000000000, 0.000000000000000000, 0.000000000000000000, 0.000000000000000000 ) ;
#98 = ORIENTED_EDGE ( 'NONE', *, *, #86, .F. ) ;
#99 = DIRECTION ( 'NONE',  ( -0.000000000000000000, -1.000000000000000000, -0.000000000000000000 ) ) ;
#100 = VERTEX_POINT ( 'NONE', #288 ) ;
#101 = ORIENTED_EDGE ( 'NONE', *, *, #108, .T. ) ;
#102 = CARTESIAN_POINT ( 'NONE',  ( 0.000000000000000000, 0.000000000000000000, -0.1250000000000000278 ) ) ;
#103 = DIRECTION ( 'NONE',  ( -0.000000000000000000, -1.000000000000000000, -0.000000000000000000 ) ) ;
#104 =( CONVERSION_BASED_UNIT ( 'INCH', #110 ) LENGTH_UNIT ( ) NAMED_UNIT ( #209 ) );
#105 =( GEOMETRIC_REPRESENTATION_CONTEXT ( 3 ) GLOBAL_UNCERTAINTY_ASSIGNED_CONTEXT ( ( #119 ) ) GLOBAL_UNIT_ASSIGNED_CONTEXT ( ( #240, #120, #189 ) ) REPRESENTATION_CONTEXT ( 'NONE', 'WORKASPACE' ) );
#106 = AXIS2_PLACEMENT_3D ( 'NONE', #159, #127, #292 ) ;
#107 =( CONVERSION_BASED_UNIT ( 'INCH', #10 ) LENGTH_UNIT ( ) NAMED_UNIT ( #97 ) );
#108 = EDGE_CURVE ( 'NONE', #174, #48, #151, .T. ) ;
#109 = SURFACE_STYLE_USAGE ( .BOTH. , #300 ) ;
#110 = LENGTH_MEASURE_WITH_UNIT ( LENGTH_MEASURE( 0.02539999999999999897 ), #141 );
#111 = ORIENTED_EDGE ( 'NONE', *, *, #299, .T. ) ;
#112 = CARTESIAN_POINT ( 'NONE',  ( 0.000000000000000000, 0.000000000000000000, 0.000000000000000000 ) ) ;
#113 = EDGE_CURVE ( 'NONE', #24, #207, #242, .T. ) ;
#114 = PRESENTATION_LAYER_ASSIGNMENT (  '', '', ( #55 ) ) ;
#115 = SHAPE_DEFINITION_REPRESENTATION ( #305, #170 ) ;
#116 = DIMENSIONAL_EXPONENTS ( 1.000000000000000000, 0.000000000000000000, 0.000000000000000000, 0.000000000000000000, 0.000000000000000000, 0.000000000000000000, 0.000000000000000000 ) ;
#117 = CARTESIAN_POINT ( 'NONE',  ( -6.123233995736772199E-17, 3.000000000000000444, 0.000000000000000000 ) ) ;
#118 = FILL_AREA_STYLE_COLOUR ( '', #182 ) ;
#119 = UNCERTAINTY_MEASURE_WITH_UNIT (LENGTH_MEASURE( 1.000000000000000082E-05 ), #240, 'distance_accuracy_value', 'NONE');
#120 =( NAMED_UNIT ( * ) PLANE_ANGLE_UNIT ( ) SI_UNIT ( $, .RADIAN. ) );
#121 = PRODUCT_CONTEXT ( 'NONE', #187, 'mechanical' ) ;
#122 = EDGE_LOOP ( 'NONE', ( #98, #192, #29, #77 ) ) ;
#123 =( NAMED_UNIT ( * ) SI_UNIT ( $, .STERADIAN. ) SOLID_ANGLE_UNIT ( ) );
#124 = ORIENTED_EDGE ( 'NONE', *, *, #108, .F. ) ;
#125 = AXIS2_PLACEMENT_3D ( 'NONE', #235, #69, #258 ) ;
#126 =( CONVERSION_BASED_UNIT ( 'INCH', #197 ) LENGTH_UNIT ( ) NAMED_UNIT ( #279 ) );
#127 = DIRECTION ( 'NONE',  ( -3.498990854706726443E-17, 1.000000000000000000, -0.000000000000000000 ) ) ;
#128 = ORIENTED_EDGE ( 'NONE', *, *, #135, .T. ) ;
#129 = ORIENTED_EDGE ( 'NONE', *, *, #79, .T. ) ;
#130 = SURFACE_SIDE_STYLE ('',( #31 ) ) ;
#131 = COLOUR_RGB ( '',1.000000000000000000, 0.000000000000000000, 0.000000000000000000 ) ;
#132 = CARTESIAN_POINT ( 'NONE',  ( 0.000000000000000000, 0.000000000000000000, 0.000000000000000000 ) ) ;
#133 = DIRECTION ( 'NONE',  ( 0.000000000000000000, 0.000000000000000000, -1.000000000000000000 ) ) ;
#134 =( LENGTH_UNIT ( ) NAMED_UNIT ( * ) SI_UNIT ( $, .METRE. ) );
#135 = EDGE_CURVE ( 'NONE', #174, #303, #191, .T. ) ;
#136 =( NAMED_UNIT ( * ) PLANE_ANGLE_UNIT ( ) SI_UNIT ( $, .RADIAN. ) );
#137 =( CONVERSION_BASED_UNIT ( 'INCH', #223 ) LENGTH_UNIT ( ) NAMED_UNIT ( #116 ) );
#138 = FILL_AREA_STYLE_COLOUR ( '', #2 ) ;
#139 = ORIENTED_EDGE ( 'NONE', *, *, #135, .F. ) ;
#140 = DIRECTION ( 'NONE',  ( 3.498990854706726443E-17, -1.000000000000000000, 0.000000000000000000 ) ) ;
#141 =( LENGTH_UNIT ( ) NAMED_UNIT ( * ) SI_UNIT ( $, .METRE. ) );
#142 = AXIS2_PLACEMENT_3D ( 'NONE', #117, #307, #94 ) ;
#143 = CARTESIAN_POINT ( 'NONE',  ( 0.1249999999999999584, 3.000000000000000444, 1.530808498934191817E-17 ) ) ;
#144 = APPLICATION_PROTOCOL_DEFINITION ( 'draft international standard', 'automotive_design', 1998, #187 ) ;
#145 = DIRECTION ( 'NONE',  ( -1.000000000000000000, 0.000000000000000000, 0.000000000000000000 ) ) ;
#146 = SURFACE_STYLE_USAGE ( .BOTH. , #283 ) ;
#147 = CIRCLE ( 'NONE', #291, 0.1250000000000000000 ) ;
#148 = CARTESIAN_POINT ( 'NONE',  ( 0.000000000000000000, 0.000000000000000000, 0.000000000000000000 ) ) ;
#149 = CYLINDRICAL_SURFACE ( 'NONE', #54, 0.1250000000000000278 ) ;
#150 = VERTEX_POINT ( 'NONE', #102 ) ;
#151 = LINE ( 'NONE', #163, #281 ) ;
#152 = CARTESIAN_POINT ( 'NONE',  ( 0.000000000000000000, 0.000000000000000000, -0.1250000000000000278 ) ) ;
#153 = EDGE_LOOP ( 'NONE', ( #111, #184 ) ) ;
#154 = AXIS2_PLACEMENT_3D ( 'NONE', #212, #216, #238 ) ;
#155 = DIRECTION ( 'NONE',  ( -0.000000000000000000, -1.000000000000000000, -0.000000000000000000 ) ) ;
#156 = ORIENTED_EDGE ( 'NONE', *, *, #299, .F. ) ;
#157 = CARTESIAN_POINT ( 'NONE',  ( 1.530808498934192125E-17, 0.000000000000000000, 0.1250000000000000555 ) ) ;
#158 = EDGE_CURVE ( 'NONE', #100, #207, #250, .T. ) ;
#159 = CARTESIAN_POINT ( 'NONE',  ( -6.123233995736772199E-17, 3.000000000000000444, 0.000000000000000000 ) ) ;
#160 = AXIS2_PLACEMENT_3D ( 'NONE', #96, #171, #263 ) ;
#161 = DIRECTION ( 'NONE',  ( 0.000000000000000000, 0.000000000000000000, -1.000000000000000000 ) ) ;
#162 = FACE_OUTER_BOUND ( 'NONE', #122, .T. ) ;
#163 = CARTESIAN_POINT ( 'NONE',  ( 1.530808498934191817E-17, 0.000000000000000000, 0.1250000000000000278 ) ) ;
#164 = MECHANICAL_DESIGN_GEOMETRIC_PRESENTATION_REPRESENTATION (  '', ( #185 ), #11 ) ;
#165 = FACE_OUTER_BOUND ( 'NONE', #27, .T. ) ;
#166 = SURFACE_STYLE_FILL_AREA ( #232 ) ;
#167 = CARTESIAN_POINT ( 'NONE',  ( -6.123233995736772199E-17, 3.000000000000000444, 0.000000000000000000 ) ) ;
#168 =( GEOMETRIC_REPRESENTATION_CONTEXT ( 3 ) GLOBAL_UNCERTAINTY_ASSIGNED_CONTEXT ( ( #233 ) ) GLOBAL_UNIT_ASSIGNED_CONTEXT ( ( #237, #18, #46 ) ) REPRESENTATION_CONTEXT ( 'NONE', 'WORKASPACE' ) );
#169 = COLOUR_RGB ( '',1.000000000000000000, 0.000000000000000000, 0.000000000000000000 ) ;
#170 = ADVANCED_BREP_SHAPE_REPRESENTATION ( '59254', ( #4, #211, #125 ), #168 ) ;
#171 = DIRECTION ( 'NONE',  ( -0.000000000000000000, -1.000000000000000000, -0.000000000000000000 ) ) ;
#172 = CIRCLE ( 'NONE', #142, 0.1250000000000000555 ) ;
#173 = EDGE_CURVE ( 'NONE', #303, #150, #75, .T. ) ;
#174 = VERTEX_POINT ( 'NONE', #270 ) ;
#175 = DIRECTION ( 'NONE',  ( 0.000000000000000000, 0.000000000000000000, -1.000000000000000000 ) ) ;
#176 = ORIENTED_EDGE ( 'NONE', *, *, #79, .F. ) ;
#177 = FILL_AREA_STYLE_COLOUR ( '', #131 ) ;
#178 = SURFACE_SIDE_STYLE ('',( #78 ) ) ;
#179 = DIRECTION ( 'NONE',  ( -3.498990854706726443E-17, 1.000000000000000000, 0.000000000000000000 ) ) ;
#180 = AXIS2_PLACEMENT_3D ( 'NONE', #255, #140, #32 ) ;
#181 = DIRECTION ( 'NONE',  ( 0.000000000000000000, 0.000000000000000000, -1.000000000000000000 ) ) ;
#182 = COLOUR_RGB ( '',0.7921568627450980005, 0.8196078431372548767, 0.9333333333333333481 ) ;
#183 = SURFACE_SIDE_STYLE ('',( #210 ) ) ;
#184 = ORIENTED_EDGE ( 'NONE', *, *, #158, .T. ) ;
#185 = STYLED_ITEM ( 'NONE', ( #84 ), #306 ) ;
#186 =( NAMED_UNIT ( * ) SI_UNIT ( $, .STERADIAN. ) SOLID_ANGLE_UNIT ( ) );
#187 = APPLICATION_CONTEXT ( 'automotive_design' ) ;
#188 = LENGTH_MEASURE_WITH_UNIT ( LENGTH_MEASURE( 0.02539999999999999897 ), #261 );
#189 =( NAMED_UNIT ( * ) SI_UNIT ( $, .STERADIAN. ) SOLID_ANGLE_UNIT ( ) );
#190 = ADVANCED_FACE ( 'NONE', ( #294 ), #249, .F. ) ;
#191 = CIRCLE ( 'NONE', #15, 0.1250000000000000000 ) ;
#192 = ORIENTED_EDGE ( 'NONE', *, *, #301, .T. ) ;
#193 = UNCERTAINTY_MEASURE_WITH_UNIT (LENGTH_MEASURE( 1.000000000000000082E-05 ), #126, 'distance_accuracy_value', 'NONE');
#194 = FACE_OUTER_BOUND ( 'NONE', #254, .T. ) ;
#195 =( GEOMETRIC_REPRESENTATION_CONTEXT ( 3 ) GLOBAL_UNCERTAINTY_ASSIGNED_CONTEXT ( ( #5 ) ) GLOBAL_UNIT_ASSIGNED_CONTEXT ( ( #137, #81, #228 ) ) REPRESENTATION_CONTEXT ( 'NONE', 'WORKASPACE' ) );
#196 = SURFACE_STYLE_USAGE ( .BOTH. , #130 ) ;
#197 = LENGTH_MEASURE_WITH_UNIT ( LENGTH_MEASURE( 0.02539999999999999897 ), #215 );
#198 = FILL_AREA_STYLE ('',( #118 ) ) ;
#199 = UNCERTAINTY_MEASURE_WITH_UNIT (LENGTH_MEASURE( 1.000000000000000082E-05 ), #82, 'distance_accuracy_value', 'NONE');
#200 = PRESENTATION_LAYER_ASSIGNMENT (  '', '', ( #92 ) ) ;
#201 = ORIENTED_EDGE ( 'NONE', *, *, #173, .F. ) ;
#202 = PRODUCT_DEFINITION ( 'UNKNOWN', '', #65, #257 ) ;
#203 = VECTOR ( 'NONE', #3, 39.37007874015748143 ) ;
#204 = CARTESIAN_POINT ( 'NONE',  ( 0.1250000000000000278, 1.250000000000000000, 1.530808498934192125E-17 ) ) ;
#205 = FILL_AREA_STYLE_COLOUR ( '', #88 ) ;
#206 = CARTESIAN_POINT ( 'NONE',  ( -6.123233995736772199E-17, 3.000000000000000444, 0.000000000000000000 ) ) ;
#207 = VERTEX_POINT ( 'NONE', #59 ) ;
#208 = AXIS2_PLACEMENT_3D ( 'NONE', #278, #280, #35 ) ;
#209 = DIMENSIONAL_EXPONENTS ( 1.000000000000000000, 0.000000000000000000, 0.000000000000000000, 0.000000000000000000, 0.000000000000000000, 0.000000000000000000, 0.000000000000000000 ) ;
#210 = SURFACE_STYLE_FILL_AREA ( #40 ) ;
#211 = MANIFOLD_SOLID_BREP ( 'Revolve - Tool Body (Straight Shanked)', #269 ) ;
#212 = CARTESIAN_POINT ( 'NONE',  ( 0.000000000000000000, 0.000000000000000000, 0.000000000000000000 ) ) ;
#213 =( GEOMETRIC_REPRESENTATION_CONTEXT ( 3 ) GLOBAL_UNCERTAINTY_ASSIGNED_CONTEXT ( ( #38 ) ) GLOBAL_UNIT_ASSIGNED_CONTEXT ( ( #107, #136, #85 ) ) REPRESENTATION_CONTEXT ( 'NONE', 'WORKASPACE' ) );
#214 = APPLICATION_PROTOCOL_DEFINITION ( 'draft international standard', 'automotive_design', 1998, #251 ) ;
#215 =( LENGTH_UNIT ( ) NAMED_UNIT ( * ) SI_UNIT ( $, .METRE. ) );
#216 = DIRECTION ( 'NONE',  ( -0.000000000000000000, -1.000000000000000000, -0.000000000000000000 ) ) ;
#217 = ORIENTED_EDGE ( 'NONE', *, *, #113, .F. ) ;
#218 = SURFACE_STYLE_USAGE ( .BOTH. , #178 ) ;
#219 = ORIENTED_EDGE ( 'NONE', *, *, #86, .T. ) ;
#220 = EDGE_LOOP ( 'NONE', ( #268, #219, #156, #217 ) ) ;
#221 = STYLED_ITEM ( 'NONE', ( #53 ), #56 ) ;
#222 = CARTESIAN_POINT ( 'NONE',  ( 7.651835625825817976E-35, 1.250000000000000000, 0.000000000000000000 ) ) ;
#223 = LENGTH_MEASURE_WITH_UNIT ( LENGTH_MEASURE( 0.02539999999999999897 ), #225 );
#224 =( GEOMETRIC_REPRESENTATION_CONTEXT ( 3 ) GLOBAL_UNCERTAINTY_ASSIGNED_CONTEXT ( ( #193 ) ) GLOBAL_UNIT_ASSIGNED_CONTEXT ( ( #126, #71, #123 ) ) REPRESENTATION_CONTEXT ( 'NONE', 'WORKASPACE' ) );
#225 =( LENGTH_UNIT ( ) NAMED_UNIT ( * ) SI_UNIT ( $, .METRE. ) );
#226 = CIRCLE ( 'NONE', #47, 0.1250000000000000278 ) ;
#227 =( NAMED_UNIT ( * ) SI_UNIT ( $, .STERADIAN. ) SOLID_ANGLE_UNIT ( ) );
#228 =( NAMED_UNIT ( * ) SI_UNIT ( $, .STERADIAN. ) SOLID_ANGLE_UNIT ( ) );
#229 =( NAMED_UNIT ( * ) PLANE_ANGLE_UNIT ( ) SI_UNIT ( $, .RADIAN. ) );
#230 = ORIENTED_EDGE ( 'NONE', *, *, #173, .T. ) ;
#231 = EDGE_CURVE ( 'NONE', #24, #264, #296, .T. ) ;
#232 = FILL_AREA_STYLE ('',( #138 ) ) ;
#233 = UNCERTAINTY_MEASURE_WITH_UNIT (LENGTH_MEASURE( 1.000000000000000082E-05 ), #237, 'distance_accuracy_value', 'NONE');
#234 = LENGTH_MEASURE_WITH_UNIT ( LENGTH_MEASURE( 0.02539999999999999897 ), #14 );
#235 = CARTESIAN_POINT ( 'NONE',  ( 0.000000000000000000, 0.000000000000000000, 0.000000000000000000 ) ) ;
#236 = FILL_AREA_STYLE_COLOUR ( '', #169 ) ;
#237 =( CONVERSION_BASED_UNIT ( 'INCH', #188 ) LENGTH_UNIT ( ) NAMED_UNIT ( #241 ) );
#238 = DIRECTION ( 'NONE',  ( 0.000000000000000000, 0.000000000000000000, -1.000000000000000000 ) ) ;
#239 = PRESENTATION_LAYER_ASSIGNMENT (  '', '', ( #185 ) ) ;
#240 =( CONVERSION_BASED_UNIT ( 'INCH', #90 ) LENGTH_UNIT ( ) NAMED_UNIT ( #62 ) );
#241 = DIMENSIONAL_EXPONENTS ( 1.000000000000000000, 0.000000000000000000, 0.000000000000000000, 0.000000000000000000, 0.000000000000000000, 0.000000000000000000, 0.000000000000000000 ) ;
#242 = LINE ( 'NONE', #287, #203 ) ;
#243 = PRODUCT_RELATED_PRODUCT_CATEGORY ( 'part', '', ( #39 ) ) ;
#244 = CLOSED_SHELL ( 'NONE', ( #284, #306, #20, #56 ) ) ;
#245 = FACE_OUTER_BOUND ( 'NONE', #246, .T. ) ;
#246 = EDGE_LOOP ( 'NONE', ( #129, #74 ) ) ;
#247 = CARTESIAN_POINT ( 'NONE',  ( 0.000000000000000000, 1.250000000000000000, -0.1250000000000000000 ) ) ;
#248 = FILL_AREA_STYLE ('',( #177 ) ) ;
#249 = PLANE ( 'NONE',  #308 ) ;
#250 = CIRCLE ( 'NONE', #106, 0.1250000000000000555 ) ;
#251 = APPLICATION_CONTEXT ( 'automotive_design' ) ;
#252 = PRESENTATION_STYLE_ASSIGNMENT (( #12 ) ) ;
#253 = CIRCLE ( 'NONE', #160, 0.1250000000000000000 ) ;
#254 = EDGE_LOOP ( 'NONE', ( #124, #128, #230, #271 ) ) ;
#255 = CARTESIAN_POINT ( 'NONE',  ( 0.1250000000000000000, 3.000000000000000444, 0.000000000000000000 ) ) ;
#256 = PRESENTATION_STYLE_ASSIGNMENT (( #109 ) ) ;
#257 = PRODUCT_DEFINITION_CONTEXT ( 'detailed design', #251, 'design' ) ;
#258 = DIRECTION ( 'NONE',  ( 1.000000000000000000, 0.000000000000000000, 0.000000000000000000 ) ) ;
#259 = AXIS2_PLACEMENT_3D ( 'NONE', #112, #8, #181 ) ;
#260 = DIRECTION ( 'NONE',  ( -3.498990854706726443E-17, 1.000000000000000000, -0.000000000000000000 ) ) ;
#261 =( LENGTH_UNIT ( ) NAMED_UNIT ( * ) SI_UNIT ( $, .METRE. ) );
#262 = MECHANICAL_DESIGN_GEOMETRIC_PRESENTATION_REPRESENTATION (  '', ( #41 ), #267 ) ;
#263 = DIRECTION ( 'NONE',  ( 0.000000000000000000, 0.000000000000000000, -1.000000000000000000 ) ) ;
#264 = VERTEX_POINT ( 'NONE', #204 ) ;
#265 = EDGE_LOOP ( 'NONE', ( #293, #6 ) ) ;
#266 = MECHANICAL_DESIGN_GEOMETRIC_PRESENTATION_REPRESENTATION (  '', ( #92 ), #213 ) ;
#267 =( GEOMETRIC_REPRESENTATION_CONTEXT ( 3 ) GLOBAL_UNCERTAINTY_ASSIGNED_CONTEXT ( ( #199 ) ) GLOBAL_UNIT_ASSIGNED_CONTEXT ( ( #82, #229, #227 ) ) REPRESENTATION_CONTEXT ( 'NONE', 'WORKASPACE' ) );
#268 = ORIENTED_EDGE ( 'NONE', *, *, #231, .T. ) ;
#269 = CLOSED_SHELL ( 'NONE', ( #297, #190, #63, #66 ) ) ;
#270 = CARTESIAN_POINT ( 'NONE',  ( 1.530808498934191817E-17, 1.250000000000000000, 0.1250000000000000000 ) ) ;
#271 = ORIENTED_EDGE ( 'NONE', *, *, #52, .F. ) ;
#272 = FILL_AREA_STYLE ('',( #205 ) ) ;
#273 = FACE_OUTER_BOUND ( 'NONE', #51, .T. ) ;
#274 = DIRECTION ( 'NONE',  ( -1.000000000000000000, -3.498990854706726443E-17, 0.000000000000000000 ) ) ;
#275 = DIRECTION ( 'NONE',  ( -0.000000000000000000, -1.000000000000000000, -0.000000000000000000 ) ) ;
#276 = VECTOR ( 'NONE', #16, 39.37007874015748143 ) ;
#277 = DIRECTION ( 'NONE',  ( -1.000000000000000000, 0.000000000000000000, 0.000000000000000000 ) ) ;
#278 = CARTESIAN_POINT ( 'NONE',  ( 0.000000000000000000, 1.250000000000000000, 0.000000000000000000 ) ) ;
#279 = DIMENSIONAL_EXPONENTS ( 1.000000000000000000, 0.000000000000000000, 0.000000000000000000, 0.000000000000000000, 0.000000000000000000, 0.000000000000000000, 0.000000000000000000 ) ;
#280 = DIRECTION ( 'NONE',  ( -3.498990854706726443E-17, 1.000000000000000000, -0.000000000000000000 ) ) ;
#281 = VECTOR ( 'NONE', #275, 39.37007874015748143 ) ;
#282 = DIRECTION ( 'NONE',  ( 0.000000000000000000, 1.000000000000000000, 0.000000000000000000 ) ) ;
#283 = SURFACE_SIDE_STYLE ('',( #17 ) ) ;
#284 = ADVANCED_FACE ( 'NONE', ( #273 ), #61, .T. ) ;
#285 = CARTESIAN_POINT ( 'NONE',  ( 0.000000000000000000, 1.250000000000000000, 0.000000000000000000 ) ) ;
#286 = CIRCLE ( 'NONE', #259, 0.1250000000000000278 ) ;
#287 = CARTESIAN_POINT ( 'NONE',  ( -0.1250000000000001110, 3.000000000000000444, 0.000000000000000000 ) ) ;
#288 = CARTESIAN_POINT ( 'NONE',  ( 0.1250000000000000278, 3.000000000000000444, 1.530808498934192125E-17 ) ) ;
#289 = DIRECTION ( 'NONE',  ( -0.000000000000000000, -1.000000000000000000, -0.000000000000000000 ) ) ;
#290 = DIRECTION ( 'NONE',  ( 0.000000000000000000, 0.000000000000000000, -1.000000000000000000 ) ) ;
#291 = AXIS2_PLACEMENT_3D ( 'NONE', #91, #260, #72 ) ;
#292 = DIRECTION ( 'NONE',  ( -1.000000000000000000, 0.000000000000000000, 0.000000000000000000 ) ) ;
#293 = ORIENTED_EDGE ( 'NONE', *, *, #231, .F. ) ;
#294 = FACE_OUTER_BOUND ( 'NONE', #265, .T. ) ;
#295 = EDGE_CURVE ( 'NONE', #303, #174, #253, .T. ) ;
#296 = CIRCLE ( 'NONE', #208, 0.1250000000000000000 ) ;
#297 = ADVANCED_FACE ( 'NONE', ( #67 ), #149, .T. ) ;
#298 = SURFACE_STYLE_FILL_AREA ( #272 ) ;
#299 = EDGE_CURVE ( 'NONE', #207, #100, #172, .T. ) ;
#300 = SURFACE_SIDE_STYLE ('',( #166 ) ) ;
#301 = EDGE_CURVE ( 'NONE', #264, #24, #147, .T. ) ;
#302 = AXIS2_PLACEMENT_3D ( 'NONE', #285, #282, #21 ) ;
#303 = VERTEX_POINT ( 'NONE', #247 ) ;
#304 = MECHANICAL_DESIGN_GEOMETRIC_PRESENTATION_REPRESENTATION (  '', ( #55 ), #105 ) ;
#305 = PRODUCT_DEFINITION_SHAPE ( 'NONE', 'NONE',  #202 ) ;
#306 = ADVANCED_FACE ( 'NONE', ( #165 ), #37, .T. ) ;
#307 = DIRECTION ( 'NONE',  ( -3.498990854706726443E-17, 1.000000000000000000, -0.000000000000000000 ) ) ;
#308 = AXIS2_PLACEMENT_3D ( 'NONE', #222, #179, #274 ) ;
#309 = PRESENTATION_STYLE_ASSIGNMENT (( #146 ) ) ;
ENDSEC;
END-ISO-10303-21;
