ISO-10303-21;
HEADER;
FILE_DESCRIPTION (( 'STEP AP214' ),
    '1' );
FILE_NAME ('Micro_BMRM-020-2X.STEP',
    '2021-09-03T14:35:34',
    ( '' ),
    ( '' ),
    'SwSTEP 2.0',
    'SolidWorks 2020',
    '' );
FILE_SCHEMA (( 'AUTOMOTIVE_DESIGN' ));
ENDSEC;

DATA;
#1 = DIRECTION ( 'NONE',  ( -1.000000000000000000, 0.0000000000000000000, 0.0000000000000000000 ) ) ;
#2 = CARTESIAN_POINT ( 'NONE',  ( 0.06374000000000018540, 8.724383797125754882E-18, 1.968503999999999809 ) ) ;
#3 = ORIENTED_EDGE ( 'NONE', *, *, #118, .T. ) ;
#4 = AXIS2_PLACEMENT_3D ( 'NONE', #283, #95, #172 ) ;
#5 = PRODUCT_DEFINITION_FORMATION_WITH_SPECIFIED_SOURCE ( 'ANY', '', #24, .NOT_KNOWN. ) ;
#6 = DIRECTION ( 'NONE',  ( 0.0000000000000000000, 1.000000000000000000, 0.0000000000000000000 ) ) ;
#7 = ORIENTED_EDGE ( 'NONE', *, *, #156, .F. ) ;
#8 =( LENGTH_UNIT ( ) NAMED_UNIT ( * ) SI_UNIT ( $, .METRE. ) );
#9 = EDGE_LOOP ( 'NONE', ( #275, #204, #182, #34 ) ) ;
#10 = DIRECTION ( 'NONE',  ( -1.224646799147353207E-16, -0.0000000000000000000, -1.000000000000000000 ) ) ;
#11 = ORIENTED_EDGE ( 'NONE', *, *, #136, .T. ) ;
#12 = VECTOR ( 'NONE', #139, 39.37007874015748143 ) ;
#13 = ORIENTED_EDGE ( 'NONE', *, *, #67, .T. ) ;
#14 =( CONVERSION_BASED_UNIT ( 'INCH', #246 ) LENGTH_UNIT ( ) NAMED_UNIT ( #179 ) );
#15 = ORIENTED_EDGE ( 'NONE', *, *, #142, .T. ) ;
#16 = AXIS2_PLACEMENT_3D ( 'NONE', #167, #187, #267 ) ;
#17 = EDGE_LOOP ( 'NONE', ( #269, #305, #288, #214 ) ) ;
#18 =( GEOMETRIC_REPRESENTATION_CONTEXT ( 3 ) GLOBAL_UNCERTAINTY_ASSIGNED_CONTEXT ( ( #148 ) ) GLOBAL_UNIT_ASSIGNED_CONTEXT ( ( #14, #294, #158 ) ) REPRESENTATION_CONTEXT ( 'NONE', 'WORKASPACE' ) );
#19 = CARTESIAN_POINT ( 'NONE',  ( 0.0000000000000000000, 0.0000000000000000000, 1.968503999999999809 ) ) ;
#20 = MANIFOLD_SOLID_BREP ( 'Fillet1', #90 ) ;
#21 = DIRECTION ( 'NONE',  ( -0.0000000000000000000, -0.0000000000000000000, -1.000000000000000000 ) ) ;
#22 = CARTESIAN_POINT ( 'NONE',  ( 2.892860668945878169E-17, 0.0000000000000000000, 0.2362200000000000133 ) ) ;
#23 = PRODUCT_DEFINITION ( 'UNKNOWN', '', #5, #52 ) ;
#24 = PRODUCT ( 'Micro_BMRM-020-2X', 'Micro_BMRM-020-2X', '', ( #213 ) ) ;
#25 = DIRECTION ( 'NONE',  ( 0.0000000000000000000, 0.0000000000000000000, 1.000000000000000000 ) ) ;
#26 = CARTESIAN_POINT ( 'NONE',  ( -0.06374000000000018540, 0.0000000000000000000, 1.968503999999999809 ) ) ;
#27 = DIRECTION ( 'NONE',  ( 1.224646799147353207E-16, 0.0000000000000000000, 1.000000000000000000 ) ) ;
#28 = AXIS2_PLACEMENT_3D ( 'NONE', #320, #27, #119 ) ;
#29 = SURFACE_STYLE_FILL_AREA ( #184 ) ;
#30 = UNCERTAINTY_MEASURE_WITH_UNIT (LENGTH_MEASURE( 1.000000000000000082E-05 ), #263, 'distance_accuracy_value', 'NONE');
#31 = DIRECTION ( 'NONE',  ( -1.224646799147353207E-16, -0.0000000000000000000, -1.000000000000000000 ) ) ;
#32 = ORIENTED_EDGE ( 'NONE', *, *, #319, .F. ) ;
#33 = DIRECTION ( 'NONE',  ( 1.000000000000000000, 0.0000000000000000000, 0.0000000000000000000 ) ) ;
#34 = ORIENTED_EDGE ( 'NONE', *, *, #99, .F. ) ;
#35 = STYLED_ITEM ( 'NONE', ( #80 ), #47 ) ;
#36 = CYLINDRICAL_SURFACE ( 'NONE', #230, 0.03933062999999999837 ) ;
#37 = ORIENTED_EDGE ( 'NONE', *, *, #79, .F. ) ;
#38 = ORIENTED_EDGE ( 'NONE', *, *, #205, .T. ) ;
#39 = EDGE_LOOP ( 'NONE', ( #101, #259, #3, #185 ) ) ;
#40 = APPLICATION_PROTOCOL_DEFINITION ( 'draft international standard', 'automotive_design', 1998, #116 ) ;
#41 = ORIENTED_EDGE ( 'NONE', *, *, #208, .T. ) ;
#42 = CYLINDRICAL_SURFACE ( 'NONE', #195, 0.07874000000000000443 ) ;
#43 = SURFACE_STYLE_FILL_AREA ( #240 ) ;
#44 = ADVANCED_FACE ( 'NONE', ( #113 ), #108, .T. ) ;
#45 = ORIENTED_EDGE ( 'NONE', *, *, #323, .F. ) ;
#46 = CYLINDRICAL_SURFACE ( 'NONE', #272, 0.07874000000000000443 ) ;
#47 = ADVANCED_BREP_SHAPE_REPRESENTATION ( 'Micro_BMRM-020-2X', ( #20, #279 ), #266 ) ;
#48 = FACE_OUTER_BOUND ( 'NONE', #157, .T. ) ;
#49 = CIRCLE ( 'NONE', #166, 0.03933062999999999837 ) ;
#50 = LINE ( 'NONE', #303, #12 ) ;
#51 = CARTESIAN_POINT ( 'NONE',  ( 0.0000000000000000000, 0.0000000000000000000, 1.968503999999999809 ) ) ;
#52 = PRODUCT_DEFINITION_CONTEXT ( 'detailed design', #116, 'design' ) ;
#53 = DIRECTION ( 'NONE',  ( 0.1736481776669314414, 0.0000000000000000000, 0.9848077530122077983 ) ) ;
#54 = CIRCLE ( 'NONE', #238, 0.07874000000000000443 ) ;
#55 = EDGE_CURVE ( 'NONE', #228, #111, #243, .T. ) ;
#56 = DIRECTION ( 'NONE',  ( 1.000000000000000000, 0.0000000000000000000, 0.0000000000000000000 ) ) ;
#57 = DIRECTION ( 'NONE',  ( -1.000000000000000000, 0.0000000000000000000, 1.224646799147352961E-16 ) ) ;
#58 = VERTEX_POINT ( 'NONE', #270 ) ;
#59 =( CONVERSION_BASED_UNIT ( 'INCH', #289 ) LENGTH_UNIT ( ) NAMED_UNIT ( #251 ) );
#60 = EDGE_LOOP ( 'NONE', ( #45, #11, #63, #262 ) ) ;
#61 = VECTOR ( 'NONE', #53, 39.37007874015748143 ) ;
#62 = EDGE_LOOP ( 'NONE', ( #264, #178, #202 ) ) ;
#63 = ORIENTED_EDGE ( 'NONE', *, *, #129, .F. ) ;
#64 = DIRECTION ( 'NONE',  ( -0.1736481776669312194, 2.126576849575783625E-17, 0.9848077530122077983 ) ) ;
#65 = CIRCLE ( 'NONE', #174, 0.06374000000000018540 ) ;
#66 = LENGTH_MEASURE_WITH_UNIT ( LENGTH_MEASURE( 0.02539999999999999897 ), #175 );
#67 = EDGE_CURVE ( 'NONE', #111, #84, #114, .T. ) ;
#68 = CARTESIAN_POINT ( 'NONE',  ( -0.03933062999999997061, 4.816613013794885432E-18, 0.2362200000000000133 ) ) ;
#69 = EDGE_LOOP ( 'NONE', ( #127, #13, #41, #87 ) ) ;
#70 = CARTESIAN_POINT ( 'NONE',  ( -0.03933062999999999837, 0.0000000000000000000, 4.816613013794885432E-18 ) ) ;
#71 = AXIS2_PLACEMENT_3D ( 'NONE', #189, #245, #91 ) ;
#72 = DIRECTION ( 'NONE',  ( -0.7071067811865502373, 0.0000000000000000000, -0.7071067811865446862 ) ) ;
#73 = DIRECTION ( 'NONE',  ( 1.000000000000000000, 0.0000000000000000000, -0.0000000000000000000 ) ) ;
#74 = VECTOR ( 'NONE', #164, 39.37007874015748143 ) ;
#75 = CARTESIAN_POINT ( 'NONE',  ( 0.06374000000000018540, 7.805898697765251255E-18, 1.968503999999999809 ) ) ;
#76 = CARTESIAN_POINT ( 'NONE',  ( 0.03933063000000001919, 0.0000000000000000000, 0.2362200000000000133 ) ) ;
#77 = ADVANCED_FACE ( 'NONE', ( #297 ), #42, .T. ) ;
#78 = DIRECTION ( 'NONE',  ( 0.0000000000000000000, -1.000000000000000000, 0.0000000000000000000 ) ) ;
#79 = EDGE_CURVE ( 'NONE', #286, #236, #121, .T. ) ;
#80 = PRESENTATION_STYLE_ASSIGNMENT (( #225 ) ) ;
#81 = AXIS2_PLACEMENT_3D ( 'NONE', #254, #180, #100 ) ;
#82 = SURFACE_SIDE_STYLE ('',( #29 ) ) ;
#83 = CARTESIAN_POINT ( 'NONE',  ( 4.816613013794885432E-18, 0.0000000000000000000, 0.03933062999999999837 ) ) ;
#84 = VERTEX_POINT ( 'NONE', #92 ) ;
#85 = ORIENTED_EDGE ( 'NONE', *, *, #55, .F. ) ;
#86 = VECTOR ( 'NONE', #171, 39.37007874015748854 ) ;
#87 = ORIENTED_EDGE ( 'NONE', *, *, #205, .F. ) ;
#88 = DIRECTION ( 'NONE',  ( 1.224646799147353207E-16, 0.0000000000000000000, 1.000000000000000000 ) ) ;
#89 = PRODUCT_RELATED_PRODUCT_CATEGORY ( 'part', '', ( #24 ) ) ;
#90 = CLOSED_SHELL ( 'NONE', ( #265, #44, #186, #253, #77, #165, #226, #194, #216, #268, #241 ) ) ;
#91 = DIRECTION ( 'NONE',  ( -1.000000000000000000, 0.0000000000000000000, 1.224646799147352961E-16 ) ) ;
#92 = CARTESIAN_POINT ( 'NONE',  ( -0.07873999999999994892, 0.0000000000000000000, 0.4597216436035863052 ) ) ;
#93 = CIRCLE ( 'NONE', #81, 0.07874000000000000443 ) ;
#94 = FACE_OUTER_BOUND ( 'NONE', #69, .T. ) ;
#95 = DIRECTION ( 'NONE',  ( 0.0000000000000000000, 0.0000000000000000000, 1.000000000000000000 ) ) ;
#96 = CIRCLE ( 'NONE', #215, 0.07874000000000000443 ) ;
#97 = DIRECTION ( 'NONE',  ( 0.0000000000000000000, 0.0000000000000000000, -1.000000000000000000 ) ) ;
#98 = CARTESIAN_POINT ( 'NONE',  ( -0.03933062999999997061, 7.229740955140570430E-18, 0.2362200000000000133 ) ) ;
#99 = EDGE_CURVE ( 'NONE', #111, #286, #218, .T. ) ;
#100 = DIRECTION ( 'NONE',  ( 1.000000000000000000, 0.0000000000000000000, 0.0000000000000000000 ) ) ;
#101 = ORIENTED_EDGE ( 'NONE', *, *, #136, .F. ) ;
#102 = FACE_OUTER_BOUND ( 'NONE', #17, .T. ) ;
#103 = EDGE_LOOP ( 'NONE', ( #176, #312, #209, #32 ) ) ;
#104 = CARTESIAN_POINT ( 'NONE',  ( -0.03933062999999998449, 0.0000000000000000000, 0.03933063000000000531 ) ) ;
#105 = VERTEX_POINT ( 'NONE', #193 ) ;
#106 = CONICAL_SURFACE ( 'NONE', #28, 0.03933062999999999837, 0.1745329251994339470 ) ;
#107 = CARTESIAN_POINT ( 'NONE',  ( 0.0000000000000000000, 0.0000000000000000000, 0.0000000000000000000 ) ) ;
#108 = CYLINDRICAL_SURFACE ( 'NONE', #71, 0.03933062999999999837 ) ;
#109 = EDGE_CURVE ( 'NONE', #58, #286, #223, .T. ) ;
#110 =( NAMED_UNIT ( * ) SI_UNIT ( $, .STERADIAN. ) SOLID_ANGLE_UNIT ( ) );
#111 = VERTEX_POINT ( 'NONE', #98 ) ;
#112 = CIRCLE ( 'NONE', #4, 0.06374000000000018540 ) ;
#113 = FACE_OUTER_BOUND ( 'NONE', #9, .T. ) ;
#114 = LINE ( 'NONE', #68, #229 ) ;
#115 = CARTESIAN_POINT ( 'NONE',  ( 0.0000000000000000000, 0.0000000000000000000, 1.953504000000000129 ) ) ;
#116 = APPLICATION_CONTEXT ( 'automotive_design' ) ;
#117 = CARTESIAN_POINT ( 'NONE',  ( 0.0000000000000000000, 0.0000000000000000000, 1.968503999999999809 ) ) ;
#118 = EDGE_CURVE ( 'NONE', #131, #105, #304, .T. ) ;
#119 = DIRECTION ( 'NONE',  ( 1.000000000000000000, 0.0000000000000000000, 0.0000000000000000000 ) ) ;
#120 = LINE ( 'NONE', #173, #257 ) ;
#121 = CIRCLE ( 'NONE', #140, 0.03933062999999999837 ) ;
#122 = LINE ( 'NONE', #210, #211 ) ;
#123 = PRESENTATION_LAYER_ASSIGNMENT (  '', '', ( #160 ) ) ;
#124 = FACE_OUTER_BOUND ( 'NONE', #62, .T. ) ;
#125 = FILL_AREA_STYLE_COLOUR ( '', #159 ) ;
#126 = CONICAL_SURFACE ( 'NONE', #325, 0.03933062999999999837, 0.1745329251994339470 ) ;
#127 = ORIENTED_EDGE ( 'NONE', *, *, #234, .F. ) ;
#128 = COLOUR_RGB ( '',0.7921568627450980005, 0.8196078431372548767, 0.9333333333333333481 ) ;
#129 = EDGE_CURVE ( 'NONE', #105, #239, #291, .T. ) ;
#130 = DIRECTION ( 'NONE',  ( -1.000000000000000000, 0.0000000000000000000, 2.170579261049422102E-16 ) ) ;
#131 = VERTEX_POINT ( 'NONE', #26 ) ;
#132 = ORIENTED_EDGE ( 'NONE', *, *, #208, .F. ) ;
#133 = CIRCLE ( 'NONE', #318, 0.03933062999999999837 ) ;
#134 = ORIENTED_EDGE ( 'NONE', *, *, #323, .T. ) ;
#135 = PRESENTATION_STYLE_ASSIGNMENT (( #138 ) ) ;
#136 = EDGE_CURVE ( 'NONE', #316, #239, #280, .T. ) ;
#137 = SURFACE_SIDE_STYLE ('',( #43 ) ) ;
#138 = SURFACE_STYLE_USAGE ( .BOTH. , #137 ) ;
#139 = DIRECTION ( 'NONE',  ( -0.0000000000000000000, -0.0000000000000000000, -1.000000000000000000 ) ) ;
#140 = AXIS2_PLACEMENT_3D ( 'NONE', #217, #88, #315 ) ;
#141 = DIRECTION ( 'NONE',  ( 1.000000000000000000, 0.0000000000000000000, 0.0000000000000000000 ) ) ;
#142 = EDGE_CURVE ( 'NONE', #58, #236, #284, .T. ) ;
#143 = CARTESIAN_POINT ( 'NONE',  ( 2.892860668945878169E-17, 0.0000000000000000000, 0.2362200000000000133 ) ) ;
#144 = EDGE_CURVE ( 'NONE', #239, #155, #50, .T. ) ;
#145 = CARTESIAN_POINT ( 'NONE',  ( 0.07874000000000000443, 9.642868896486258509E-18, 1.953504000000000129 ) ) ;
#146 = AXIS2_PLACEMENT_3D ( 'NONE', #285, #292, #287 ) ;
#147 = SPHERICAL_SURFACE ( 'NONE', #295, 0.03933062999999999837 ) ;
#148 = UNCERTAINTY_MEASURE_WITH_UNIT (LENGTH_MEASURE( 1.000000000000000082E-05 ), #14, 'distance_accuracy_value', 'NONE');
#149 =( NAMED_UNIT ( * ) PLANE_ANGLE_UNIT ( ) SI_UNIT ( $, .RADIAN. ) );
#150 = FACE_OUTER_BOUND ( 'NONE', #60, .T. ) ;
#151 = CONICAL_SURFACE ( 'NONE', #313, 0.06374000000000018540, 0.7853981633974522758 ) ;
#152 = ORIENTED_EDGE ( 'NONE', *, *, #109, .F. ) ;
#153 = SPHERICAL_SURFACE ( 'NONE', #181, 0.03933062999999999837 ) ;
#154 = PRODUCT_DEFINITION_SHAPE ( 'NONE', 'NONE',  #23 ) ;
#155 = VERTEX_POINT ( 'NONE', #322 ) ;
#156 = EDGE_CURVE ( 'NONE', #105, #84, #120, .T. ) ;
#157 = EDGE_LOOP ( 'NONE', ( #207, #134 ) ) ;
#158 =( NAMED_UNIT ( * ) SI_UNIT ( $, .STERADIAN. ) SOLID_ANGLE_UNIT ( ) );
#159 = COLOUR_RGB ( '',0.7921568627450980005, 0.8196078431372548767, 0.9333333333333333481 ) ;
#160 = STYLED_ITEM ( 'NONE', ( #135 ), #20 ) ;
#161 =( NAMED_UNIT ( * ) PLANE_ANGLE_UNIT ( ) SI_UNIT ( $, .RADIAN. ) );
#162 = APPLICATION_CONTEXT ( 'automotive_design' ) ;
#163 = FILL_AREA_STYLE_COLOUR ( '', #128 ) ;
#164 = DIRECTION ( 'NONE',  ( -1.224646799147353207E-16, -0.0000000000000000000, -1.000000000000000000 ) ) ;
#165 = ADVANCED_FACE ( 'NONE', ( #196 ), #46, .T. ) ;
#166 = AXIS2_PLACEMENT_3D ( 'NONE', #83, #258, #130 ) ;
#167 = CARTESIAN_POINT ( 'NONE',  ( 4.816613013794885432E-18, 0.0000000000000000000, 0.03933062999999999837 ) ) ;
#168 = PLANE ( 'NONE',  #299 ) ;
#169 = DIRECTION ( 'NONE',  ( -1.224646799147353207E-16, -0.0000000000000000000, -1.000000000000000000 ) ) ;
#170 = UNCERTAINTY_MEASURE_WITH_UNIT (LENGTH_MEASURE( 1.000000000000000082E-05 ), #59, 'distance_accuracy_value', 'NONE');
#171 = DIRECTION ( 'NONE',  ( 0.7071067811865502373, 8.659560562354966138E-17, -0.7071067811865446862 ) ) ;
#172 = DIRECTION ( 'NONE',  ( 1.000000000000000000, 0.0000000000000000000, 0.0000000000000000000 ) ) ;
#173 = CARTESIAN_POINT ( 'NONE',  ( -0.07874000000000000443, 0.0000000000000000000, 1.968503999999999809 ) ) ;
#174 = AXIS2_PLACEMENT_3D ( 'NONE', #261, #206, #307 ) ;
#175 =( LENGTH_UNIT ( ) NAMED_UNIT ( * ) SI_UNIT ( $, .METRE. ) );
#176 = ORIENTED_EDGE ( 'NONE', *, *, #144, .F. ) ;
#177 = ORIENTED_EDGE ( 'NONE', *, *, #144, .T. ) ;
#178 = ORIENTED_EDGE ( 'NONE', *, *, #109, .T. ) ;
#179 = DIMENSIONAL_EXPONENTS ( 1.000000000000000000, 0.0000000000000000000, 0.0000000000000000000, 0.0000000000000000000, 0.0000000000000000000, 0.0000000000000000000, 0.0000000000000000000 ) ;
#180 = DIRECTION ( 'NONE',  ( 0.0000000000000000000, 0.0000000000000000000, -1.000000000000000000 ) ) ;
#181 = AXIS2_PLACEMENT_3D ( 'NONE', #231, #6, #56 ) ;
#182 = ORIENTED_EDGE ( 'NONE', *, *, #274, .T. ) ;
#183 = EDGE_CURVE ( 'NONE', #131, #316, #112, .T. ) ;
#184 = FILL_AREA_STYLE ('',( #125 ) ) ;
#185 = ORIENTED_EDGE ( 'NONE', *, *, #321, .F. ) ;
#186 = ADVANCED_FACE ( 'NONE', ( #94 ), #126, .T. ) ;
#187 = DIRECTION ( 'NONE',  ( 1.224646799147353207E-16, 1.000000000000000000, -0.0000000000000000000 ) ) ;
#188 = DIRECTION ( 'NONE',  ( 0.0000000000000000000, 0.0000000000000000000, 1.000000000000000000 ) ) ;
#189 = CARTESIAN_POINT ( 'NONE',  ( 0.0000000000000000000, 0.0000000000000000000, 0.0000000000000000000 ) ) ;
#190 = CONICAL_SURFACE ( 'NONE', #146, 0.06374000000000018540, 0.7853981633974522758 ) ;
#191 = DIRECTION ( 'NONE',  ( -1.000000000000000000, 0.0000000000000000000, 0.0000000000000000000 ) ) ;
#192 =( LENGTH_UNIT ( ) NAMED_UNIT ( * ) SI_UNIT ( $, .METRE. ) );
#193 = CARTESIAN_POINT ( 'NONE',  ( -0.07874000000000000443, 0.0000000000000000000, 1.953504000000000129 ) ) ;
#194 = ADVANCED_FACE ( 'NONE', ( #250 ), #151, .T. ) ;
#195 = AXIS2_PLACEMENT_3D ( 'NONE', #19, #311, #242 ) ;
#196 = FACE_OUTER_BOUND ( 'NONE', #103, .T. ) ;
#197 = DIRECTION ( 'NONE',  ( -1.000000000000000000, 0.0000000000000000000, 0.0000000000000000000 ) ) ;
#198 = DIRECTION ( 'NONE',  ( 1.224646799147353207E-16, 0.0000000000000000000, 1.000000000000000000 ) ) ;
#199 = AXIS2_PLACEMENT_3D ( 'NONE', #115, #97, #221 ) ;
#200 = CARTESIAN_POINT ( 'NONE',  ( 4.816613013794885432E-18, 0.0000000000000000000, 0.03933062999999999837 ) ) ;
#201 = CARTESIAN_POINT ( 'NONE',  ( -0.06374000000000018540, 0.0000000000000000000, 1.968503999999999809 ) ) ;
#202 = ORIENTED_EDGE ( 'NONE', *, *, #274, .F. ) ;
#203 = AXIS2_PLACEMENT_3D ( 'NONE', #200, #78, #302 ) ;
#204 = ORIENTED_EDGE ( 'NONE', *, *, #244, .T. ) ;
#205 = EDGE_CURVE ( 'NONE', #228, #155, #220, .T. ) ;
#206 = DIRECTION ( 'NONE',  ( 0.0000000000000000000, 0.0000000000000000000, 1.000000000000000000 ) ) ;
#207 = ORIENTED_EDGE ( 'NONE', *, *, #183, .T. ) ;
#208 = EDGE_CURVE ( 'NONE', #84, #155, #96, .T. ) ;
#209 = ORIENTED_EDGE ( 'NONE', *, *, #156, .T. ) ;
#210 = CARTESIAN_POINT ( 'NONE',  ( 0.03933062999999999837, 4.816613013794885432E-18, -4.816613013794885432E-18 ) ) ;
#211 = VECTOR ( 'NONE', #227, 39.37007874015748143 ) ;
#212 = ORIENTED_EDGE ( 'NONE', *, *, #319, .T. ) ;
#213 = PRODUCT_CONTEXT ( 'NONE', #162, 'mechanical' ) ;
#214 = ORIENTED_EDGE ( 'NONE', *, *, #79, .T. ) ;
#215 = AXIS2_PLACEMENT_3D ( 'NONE', #300, #301, #141 ) ;
#216 = ADVANCED_FACE ( 'NONE', ( #282 ), #106, .T. ) ;
#217 = CARTESIAN_POINT ( 'NONE',  ( 4.816613013794885432E-18, 0.0000000000000000000, 0.03933062999999999837 ) ) ;
#218 = LINE ( 'NONE', #70, #74 ) ;
#219 = CARTESIAN_POINT ( 'NONE',  ( 4.816613013794885432E-18, 0.0000000000000000000, 0.03933062999999999837 ) ) ;
#220 = LINE ( 'NONE', #76, #61 ) ;
#221 = DIRECTION ( 'NONE',  ( 1.000000000000000000, 0.0000000000000000000, 0.0000000000000000000 ) ) ;
#222 = DIRECTION ( 'NONE',  ( -0.0000000000000000000, -0.0000000000000000000, -1.000000000000000000 ) ) ;
#223 = CIRCLE ( 'NONE', #16, 0.03933062999999999837 ) ;
#224 = CARTESIAN_POINT ( 'NONE',  ( 0.0000000000000000000, 0.0000000000000000000, 1.968503999999999809 ) ) ;
#225 = SURFACE_STYLE_USAGE ( .BOTH. , #82 ) ;
#226 = ADVANCED_FACE ( 'NONE', ( #48 ), #168, .T. ) ;
#227 = DIRECTION ( 'NONE',  ( -1.224646799147353207E-16, -0.0000000000000000000, -1.000000000000000000 ) ) ;
#228 = VERTEX_POINT ( 'NONE', #276 ) ;
#229 = VECTOR ( 'NONE', #64, 39.37007874015748143 ) ;
#230 = AXIS2_PLACEMENT_3D ( 'NONE', #255, #10, #57 ) ;
#231 = CARTESIAN_POINT ( 'NONE',  ( 4.816613013794885432E-18, 0.0000000000000000000, 0.03933062999999999837 ) ) ;
#232 = CARTESIAN_POINT ( 'NONE',  ( 5.629966393378922948E-17, 0.0000000000000000000, 0.4597216436035863052 ) ) ;
#233 = EDGE_LOOP ( 'NONE', ( #152, #15, #37 ) ) ;
#234 = EDGE_CURVE ( 'NONE', #111, #228, #133, .T. ) ;
#235 = APPLICATION_PROTOCOL_DEFINITION ( 'draft international standard', 'automotive_design', 1998, #162 ) ;
#236 = VERTEX_POINT ( 'NONE', #277 ) ;
#237 = SHAPE_DEFINITION_REPRESENTATION ( #154, #47 ) ;
#238 = AXIS2_PLACEMENT_3D ( 'NONE', #232, #31, #310 ) ;
#239 = VERTEX_POINT ( 'NONE', #145 ) ;
#240 = FILL_AREA_STYLE ('',( #163 ) ) ;
#241 = ADVANCED_FACE ( 'NONE', ( #252 ), #147, .T. ) ;
#242 = DIRECTION ( 'NONE',  ( -1.000000000000000000, 0.0000000000000000000, 0.0000000000000000000 ) ) ;
#243 = CIRCLE ( 'NONE', #306, 0.03933062999999999837 ) ;
#244 = EDGE_CURVE ( 'NONE', #228, #236, #122, .T. ) ;
#245 = DIRECTION ( 'NONE',  ( -1.224646799147353207E-16, -0.0000000000000000000, -1.000000000000000000 ) ) ;
#246 = LENGTH_MEASURE_WITH_UNIT ( LENGTH_MEASURE( 0.02539999999999999897 ), #192 );
#247 = DIRECTION ( 'NONE',  ( 1.000000000000000000, 0.0000000000000000000, 0.0000000000000000000 ) ) ;
#248 = PRESENTATION_LAYER_ASSIGNMENT (  '', '', ( #35 ) ) ;
#249 = DIRECTION ( 'NONE',  ( 0.0000000000000000000, 0.0000000000000000000, -1.000000000000000000 ) ) ;
#250 = FACE_OUTER_BOUND ( 'NONE', #39, .T. ) ;
#251 = DIMENSIONAL_EXPONENTS ( 1.000000000000000000, 0.0000000000000000000, 0.0000000000000000000, 0.0000000000000000000, 0.0000000000000000000, 0.0000000000000000000, 0.0000000000000000000 ) ;
#252 = FACE_OUTER_BOUND ( 'NONE', #233, .T. ) ;
#253 = ADVANCED_FACE ( 'NONE', ( #150 ), #190, .T. ) ;
#254 = CARTESIAN_POINT ( 'NONE',  ( 0.0000000000000000000, 0.0000000000000000000, 1.953504000000000129 ) ) ;
#255 = CARTESIAN_POINT ( 'NONE',  ( 0.0000000000000000000, 0.0000000000000000000, 0.0000000000000000000 ) ) ;
#256 = EDGE_LOOP ( 'NONE', ( #298, #177, #132, #7 ) ) ;
#257 = VECTOR ( 'NONE', #222, 39.37007874015748143 ) ;
#258 = DIRECTION ( 'NONE',  ( 1.224646799147353207E-16, 0.0000000000000000000, 1.000000000000000000 ) ) ;
#259 = ORIENTED_EDGE ( 'NONE', *, *, #183, .F. ) ;
#260 = MECHANICAL_DESIGN_GEOMETRIC_PRESENTATION_REPRESENTATION (  '', ( #160 ), #18 ) ;
#261 = CARTESIAN_POINT ( 'NONE',  ( 0.0000000000000000000, 0.0000000000000000000, 1.968503999999999809 ) ) ;
#262 = ORIENTED_EDGE ( 'NONE', *, *, #118, .F. ) ;
#263 =( CONVERSION_BASED_UNIT ( 'INCH', #66 ) LENGTH_UNIT ( ) NAMED_UNIT ( #281 ) );
#264 = ORIENTED_EDGE ( 'NONE', *, *, #142, .F. ) ;
#265 = ADVANCED_FACE ( 'NONE', ( #124 ), #153, .T. ) ;
#266 =( GEOMETRIC_REPRESENTATION_CONTEXT ( 3 ) GLOBAL_UNCERTAINTY_ASSIGNED_CONTEXT ( ( #170 ) ) GLOBAL_UNIT_ASSIGNED_CONTEXT ( ( #59, #149, #293 ) ) REPRESENTATION_CONTEXT ( 'NONE', 'WORKASPACE' ) );
#267 = DIRECTION ( 'NONE',  ( -1.000000000000000000, 1.224646799147352961E-16, 0.0000000000000000000 ) ) ;
#268 = ADVANCED_FACE ( 'NONE', ( #102 ), #36, .T. ) ;
#269 = ORIENTED_EDGE ( 'NONE', *, *, #244, .F. ) ;
#270 = CARTESIAN_POINT ( 'NONE',  ( 7.224919520692328148E-18, 0.0000000000000000000, 0.0000000000000000000 ) ) ;
#271 = CARTESIAN_POINT ( 'NONE',  ( 2.892860668945878169E-17, 0.0000000000000000000, 0.2362200000000000133 ) ) ;
#272 = AXIS2_PLACEMENT_3D ( 'NONE', #224, #21, #197 ) ;
#273 =( GEOMETRIC_REPRESENTATION_CONTEXT ( 3 ) GLOBAL_UNCERTAINTY_ASSIGNED_CONTEXT ( ( #30 ) ) GLOBAL_UNIT_ASSIGNED_CONTEXT ( ( #263, #161, #110 ) ) REPRESENTATION_CONTEXT ( 'NONE', 'WORKASPACE' ) );
#274 = EDGE_CURVE ( 'NONE', #236, #286, #49, .T. ) ;
#275 = ORIENTED_EDGE ( 'NONE', *, *, #234, .T. ) ;
#276 = CARTESIAN_POINT ( 'NONE',  ( 0.03933063000000001919, 0.0000000000000000000, 0.2362200000000000133 ) ) ;
#277 = CARTESIAN_POINT ( 'NONE',  ( 0.03933063000000000531, 4.816613013794885432E-18, 0.03933062999999998449 ) ) ;
#278 = MECHANICAL_DESIGN_GEOMETRIC_PRESENTATION_REPRESENTATION (  '', ( #35 ), #273 ) ;
#279 = AXIS2_PLACEMENT_3D ( 'NONE', #107, #188, #314 ) ;
#280 = LINE ( 'NONE', #75, #86 ) ;
#281 = DIMENSIONAL_EXPONENTS ( 1.000000000000000000, 0.0000000000000000000, 0.0000000000000000000, 0.0000000000000000000, 0.0000000000000000000, 0.0000000000000000000, 0.0000000000000000000 ) ;
#282 = FACE_OUTER_BOUND ( 'NONE', #308, .T. ) ;
#283 = CARTESIAN_POINT ( 'NONE',  ( 0.0000000000000000000, 0.0000000000000000000, 1.968503999999999809 ) ) ;
#284 = CIRCLE ( 'NONE', #203, 0.03933062999999999837 ) ;
#285 = CARTESIAN_POINT ( 'NONE',  ( 0.0000000000000000000, 0.0000000000000000000, 1.968503999999999809 ) ) ;
#286 = VERTEX_POINT ( 'NONE', #104 ) ;
#287 = DIRECTION ( 'NONE',  ( -1.000000000000000000, 0.0000000000000000000, 0.0000000000000000000 ) ) ;
#288 = ORIENTED_EDGE ( 'NONE', *, *, #99, .T. ) ;
#289 = LENGTH_MEASURE_WITH_UNIT ( LENGTH_MEASURE( 0.02539999999999999897 ), #8 );
#290 = ORIENTED_EDGE ( 'NONE', *, *, #67, .F. ) ;
#291 = CIRCLE ( 'NONE', #199, 0.07874000000000000443 ) ;
#292 = DIRECTION ( 'NONE',  ( 0.0000000000000000000, 0.0000000000000000000, -1.000000000000000000 ) ) ;
#293 =( NAMED_UNIT ( * ) SI_UNIT ( $, .STERADIAN. ) SOLID_ANGLE_UNIT ( ) );
#294 =( NAMED_UNIT ( * ) PLANE_ANGLE_UNIT ( ) SI_UNIT ( $, .RADIAN. ) );
#295 = AXIS2_PLACEMENT_3D ( 'NONE', #219, #317, #33 ) ;
#296 = DIRECTION ( 'NONE',  ( -1.224646799147353207E-16, -0.0000000000000000000, -1.000000000000000000 ) ) ;
#297 = FACE_OUTER_BOUND ( 'NONE', #256, .T. ) ;
#298 = ORIENTED_EDGE ( 'NONE', *, *, #129, .T. ) ;
#299 = AXIS2_PLACEMENT_3D ( 'NONE', #51, #25, #73 ) ;
#300 = CARTESIAN_POINT ( 'NONE',  ( 5.629966393378922948E-17, 0.0000000000000000000, 0.4597216436035863052 ) ) ;
#301 = DIRECTION ( 'NONE',  ( -1.224646799147353207E-16, -0.0000000000000000000, -1.000000000000000000 ) ) ;
#302 = DIRECTION ( 'NONE',  ( 0.0000000000000000000, 0.0000000000000000000, -1.000000000000000000 ) ) ;
#303 = CARTESIAN_POINT ( 'NONE',  ( 0.07874000000000000443, 9.642868896486258509E-18, 1.968503999999999809 ) ) ;
#304 = LINE ( 'NONE', #201, #309 ) ;
#305 = ORIENTED_EDGE ( 'NONE', *, *, #55, .T. ) ;
#306 = AXIS2_PLACEMENT_3D ( 'NONE', #271, #296, #191 ) ;
#307 = DIRECTION ( 'NONE',  ( 1.000000000000000000, 0.0000000000000000000, 0.0000000000000000000 ) ) ;
#308 = EDGE_LOOP ( 'NONE', ( #290, #85, #38, #212 ) ) ;
#309 = VECTOR ( 'NONE', #72, 39.37007874015748854 ) ;
#310 = DIRECTION ( 'NONE',  ( 1.000000000000000000, 0.0000000000000000000, 0.0000000000000000000 ) ) ;
#311 = DIRECTION ( 'NONE',  ( -0.0000000000000000000, -0.0000000000000000000, -1.000000000000000000 ) ) ;
#312 = ORIENTED_EDGE ( 'NONE', *, *, #321, .T. ) ;
#313 = AXIS2_PLACEMENT_3D ( 'NONE', #117, #249, #324 ) ;
#314 = DIRECTION ( 'NONE',  ( 1.000000000000000000, 0.0000000000000000000, 0.0000000000000000000 ) ) ;
#315 = DIRECTION ( 'NONE',  ( -1.000000000000000000, 0.0000000000000000000, 2.170579261049422102E-16 ) ) ;
#316 = VERTEX_POINT ( 'NONE', #2 ) ;
#317 = DIRECTION ( 'NONE',  ( 0.0000000000000000000, 1.000000000000000000, 0.0000000000000000000 ) ) ;
#318 = AXIS2_PLACEMENT_3D ( 'NONE', #22, #169, #1 ) ;
#319 = EDGE_CURVE ( 'NONE', #155, #84, #54, .T. ) ;
#320 = CARTESIAN_POINT ( 'NONE',  ( 2.892860668945878169E-17, 0.0000000000000000000, 0.2362200000000000133 ) ) ;
#321 = EDGE_CURVE ( 'NONE', #239, #105, #93, .T. ) ;
#322 = CARTESIAN_POINT ( 'NONE',  ( 0.07874000000000004607, 9.642868896486264672E-18, 0.4597216436035863052 ) ) ;
#323 = EDGE_CURVE ( 'NONE', #316, #131, #65, .T. ) ;
#324 = DIRECTION ( 'NONE',  ( -1.000000000000000000, 0.0000000000000000000, 0.0000000000000000000 ) ) ;
#325 = AXIS2_PLACEMENT_3D ( 'NONE', #143, #198, #247 ) ;
ENDSEC;
END-ISO-10303-21;
