ISO-10303-21;
HEADER;
FILE_DESCRIPTION (( 'STEP AP214' ),
    '1' );
FILE_NAME ('59253.STEP',
    '2023-06-22T22:12:25',
    ( '' ),
    ( '' ),
    'SwSTEP 2.0',
    'SolidWorks 2023',
    '' );
FILE_SCHEMA (( 'AUTOMOTIVE_DESIGN' ));
ENDSEC;

DATA;
#1 = AXIS2_PLACEMENT_3D ( 'NONE', #229, #57, #151 ) ;
#2 = ADVANCED_FACE ( 'NONE', ( #19 ), #162, .F. ) ;
#3 = LENGTH_MEASURE_WITH_UNIT ( LENGTH_MEASURE( 0.02539999999999999897 ), #148 );
#4 = EDGE_LOOP ( 'NONE', ( #73, #124 ) ) ;
#5 = MECHANICAL_DESIGN_GEOMETRIC_PRESENTATION_REPRESENTATION (  '', ( #172 ), #143 ) ;
#6 = VERTEX_POINT ( 'NONE', #84 ) ;
#7 =( CONVERSION_BASED_UNIT ( 'INCH', #220 ) LENGTH_UNIT ( ) NAMED_UNIT ( #126 ) );
#8 = SURFACE_SIDE_STYLE ('',( #99 ) ) ;
#9 = FILL_AREA_STYLE ('',( #79 ) ) ;
#10 = DIRECTION ( 'NONE',  ( 1.000000000000000000, 3.061616997868386099E-17, 0.000000000000000000 ) ) ;
#11 = LENGTH_MEASURE_WITH_UNIT ( LENGTH_MEASURE( 0.02539999999999999897 ), #81 );
#12 = CARTESIAN_POINT ( 'NONE',  ( 0.000000000000000000, 1.000000000000000000, -0.1250000000000000000 ) ) ;
#13 = STYLED_ITEM ( 'NONE', ( #135 ), #303 ) ;
#14 = SURFACE_SIDE_STYLE ('',( #153 ) ) ;
#15 = CARTESIAN_POINT ( 'NONE',  ( -6.123233995736772199E-17, 3.000000000000000444, 0.000000000000000000 ) ) ;
#16 = DIRECTION ( 'NONE',  ( -3.061616997868386099E-17, 1.000000000000000000, -0.000000000000000000 ) ) ;
#17 = DIMENSIONAL_EXPONENTS ( 1.000000000000000000, 0.000000000000000000, 0.000000000000000000, 0.000000000000000000, 0.000000000000000000, 0.000000000000000000, 0.000000000000000000 ) ;
#18 = COLOUR_RGB ( '',1.000000000000000000, 0.000000000000000000, 0.000000000000000000 ) ;
#19 = FACE_OUTER_BOUND ( 'NONE', #4, .T. ) ;
#20 = DIRECTION ( 'NONE',  ( -0.000000000000000000, -1.000000000000000000, -0.000000000000000000 ) ) ;
#21 = COLOUR_RGB ( '',1.000000000000000000, 0.000000000000000000, 0.000000000000000000 ) ;
#22 = STYLED_ITEM ( 'NONE', ( #254 ), #196 ) ;
#23 = EDGE_LOOP ( 'NONE', ( #30, #271, #171, #260 ) ) ;
#24 = ORIENTED_EDGE ( 'NONE', *, *, #140, .F. ) ;
#25 = PRESENTATION_LAYER_ASSIGNMENT (  '', '', ( #172 ) ) ;
#26 = EDGE_LOOP ( 'NONE', ( #223, #182 ) ) ;
#27 = ADVANCED_FACE ( 'NONE', ( #139 ), #204, .T. ) ;
#28 = CARTESIAN_POINT ( 'NONE',  ( 0.000000000000000000, 0.000000000000000000, -0.1250000000000000278 ) ) ;
#29 =( GEOMETRIC_REPRESENTATION_CONTEXT ( 3 ) GLOBAL_UNCERTAINTY_ASSIGNED_CONTEXT ( ( #288 ) ) GLOBAL_UNIT_ASSIGNED_CONTEXT ( ( #240, #104, #80 ) ) REPRESENTATION_CONTEXT ( 'NONE', 'WORKASPACE' ) );
#30 = ORIENTED_EDGE ( 'NONE', *, *, #226, .F. ) ;
#31 = CARTESIAN_POINT ( 'NONE',  ( 0.000000000000000000, 0.000000000000000000, -0.1250000000000000278 ) ) ;
#32 = FILL_AREA_STYLE ('',( #82 ) ) ;
#33 = PRODUCT_CONTEXT ( 'NONE', #221, 'mechanical' ) ;
#34 = UNCERTAINTY_MEASURE_WITH_UNIT (LENGTH_MEASURE( 1.000000000000000082E-05 ), #264, 'distance_accuracy_value', 'NONE');
#35 =( NAMED_UNIT ( * ) PLANE_ANGLE_UNIT ( ) SI_UNIT ( $, .RADIAN. ) );
#36 = PRESENTATION_LAYER_ASSIGNMENT (  '', '', ( #192 ) ) ;
#37 = LENGTH_MEASURE_WITH_UNIT ( LENGTH_MEASURE( 0.02539999999999999897 ), #41 );
#38 = DIRECTION ( 'NONE',  ( 0.000000000000000000, 0.000000000000000000, 1.000000000000000000 ) ) ;
#39 = CYLINDRICAL_SURFACE ( 'NONE', #232, 0.1250000000000000278 ) ;
#40 = AXIS2_PLACEMENT_3D ( 'NONE', #70, #165, #168 ) ;
#41 =( LENGTH_UNIT ( ) NAMED_UNIT ( * ) SI_UNIT ( $, .METRE. ) );
#42 = CYLINDRICAL_SURFACE ( 'NONE', #218, 0.1250000000000000278 ) ;
#43 = FACE_OUTER_BOUND ( 'NONE', #293, .T. ) ;
#44 = CLOSED_SHELL ( 'NONE', ( #111, #106, #289, #2 ) ) ;
#45 = AXIS2_PLACEMENT_3D ( 'NONE', #113, #16, #87 ) ;
#46 = FACE_OUTER_BOUND ( 'NONE', #26, .T. ) ;
#47 = PLANE ( 'NONE',  #67 ) ;
#48 = VERTEX_POINT ( 'NONE', #12 ) ;
#49 =( NAMED_UNIT ( * ) SI_UNIT ( $, .STERADIAN. ) SOLID_ANGLE_UNIT ( ) );
#50 = ORIENTED_EDGE ( 'NONE', *, *, #173, .F. ) ;
#51 = CIRCLE ( 'NONE', #45, 0.1250000000000000555 ) ;
#52 = ORIENTED_EDGE ( 'NONE', *, *, #115, .T. ) ;
#53 = LINE ( 'NONE', #28, #150 ) ;
#54 = SURFACE_SIDE_STYLE ('',( #195 ) ) ;
#55 = CLOSED_SHELL ( 'NONE', ( #196, #145, #27, #101 ) ) ;
#56 = SURFACE_SIDE_STYLE ('',( #205 ) ) ;
#57 = DIRECTION ( 'NONE',  ( -0.000000000000000000, -1.000000000000000000, -0.000000000000000000 ) ) ;
#58 = ORIENTED_EDGE ( 'NONE', *, *, #189, .T. ) ;
#59 = CARTESIAN_POINT ( 'NONE',  ( -0.1250000000000001110, 3.000000000000000444, 0.000000000000000000 ) ) ;
#60 = ORIENTED_EDGE ( 'NONE', *, *, #226, .T. ) ;
#61 = SURFACE_SIDE_STYLE ('',( #306 ) ) ;
#62 = STYLED_ITEM ( 'NONE', ( #215 ), #145 ) ;
#63 = MECHANICAL_DESIGN_GEOMETRIC_PRESENTATION_REPRESENTATION (  '', ( #78 ), #164 ) ;
#64 = UNCERTAINTY_MEASURE_WITH_UNIT (LENGTH_MEASURE( 1.000000000000000082E-05 ), #102, 'distance_accuracy_value', 'NONE');
#65 = EDGE_CURVE ( 'NONE', #282, #48, #137, .T. ) ;
#66 = VERTEX_POINT ( 'NONE', #235 ) ;
#67 = AXIS2_PLACEMENT_3D ( 'NONE', #191, #68, #190 ) ;
#68 = DIRECTION ( 'NONE',  ( -3.061616997868386099E-17, 1.000000000000000000, 0.000000000000000000 ) ) ;
#69 = CARTESIAN_POINT ( 'NONE',  ( 0.000000000000000000, 1.000000000000000000, 0.000000000000000000 ) ) ;
#70 = CARTESIAN_POINT ( 'NONE',  ( 7.582401355855259480E-33, 1.000000000000000000, 0.000000000000000000 ) ) ;
#71 = SHAPE_DEFINITION_REPRESENTATION ( #241, #93 ) ;
#72 = SURFACE_SIDE_STYLE ('',( #117 ) ) ;
#73 = ORIENTED_EDGE ( 'NONE', *, *, #279, .T. ) ;
#74 =( NAMED_UNIT ( * ) PLANE_ANGLE_UNIT ( ) SI_UNIT ( $, .RADIAN. ) );
#75 = ORIENTED_EDGE ( 'NONE', *, *, #261, .F. ) ;
#76 = CIRCLE ( 'NONE', #1, 0.1250000000000000278 ) ;
#77 = LINE ( 'NONE', #175, #138 ) ;
#78 = STYLED_ITEM ( 'NONE', ( #253 ), #202 ) ;
#79 = FILL_AREA_STYLE_COLOUR ( '', #18 ) ;
#80 =( NAMED_UNIT ( * ) SI_UNIT ( $, .STERADIAN. ) SOLID_ANGLE_UNIT ( ) );
#81 =( LENGTH_UNIT ( ) NAMED_UNIT ( * ) SI_UNIT ( $, .METRE. ) );
#82 = FILL_AREA_STYLE_COLOUR ( '', #21 ) ;
#83 =( GEOMETRIC_REPRESENTATION_CONTEXT ( 3 ) GLOBAL_UNCERTAINTY_ASSIGNED_CONTEXT ( ( #105 ) ) GLOBAL_UNIT_ASSIGNED_CONTEXT ( ( #262, #110, #285 ) ) REPRESENTATION_CONTEXT ( 'NONE', 'WORKASPACE' ) );
#84 = CARTESIAN_POINT ( 'NONE',  ( 0.1250000000000000278, 1.000000000000000000, 1.530808498934192125E-17 ) ) ;
#85 = DIRECTION ( 'NONE',  ( -0.000000000000000000, -1.000000000000000000, -0.000000000000000000 ) ) ;
#86 = PRODUCT_DEFINITION ( 'UNKNOWN', '', #132, #239 ) ;
#87 = DIRECTION ( 'NONE',  ( -1.000000000000000000, 0.000000000000000000, 0.000000000000000000 ) ) ;
#88 = AXIS2_PLACEMENT_3D ( 'NONE', #155, #89, #283 ) ;
#89 = DIRECTION ( 'NONE',  ( -0.000000000000000000, -1.000000000000000000, -0.000000000000000000 ) ) ;
#90 = EDGE_CURVE ( 'NONE', #6, #128, #119, .T. ) ;
#91 = SURFACE_STYLE_USAGE ( .BOTH. , #56 ) ;
#92 = PLANE ( 'NONE',  #131 ) ;
#93 = ADVANCED_BREP_SHAPE_REPRESENTATION ( '59253', ( #303, #202, #198 ), #266 ) ;
#94 = AXIS2_PLACEMENT_3D ( 'NONE', #222, #179, #177 ) ;
#95 = CARTESIAN_POINT ( 'NONE',  ( -6.123233995736772199E-17, 3.000000000000000444, 0.000000000000000000 ) ) ;
#96 = AXIS2_PLACEMENT_3D ( 'NONE', #302, #85, #133 ) ;
#97 = CIRCLE ( 'NONE', #88, 0.1250000000000000278 ) ;
#98 = ORIENTED_EDGE ( 'NONE', *, *, #90, .T. ) ;
#99 = SURFACE_STYLE_FILL_AREA ( #9 ) ;
#100 = ORIENTED_EDGE ( 'NONE', *, *, #189, .F. ) ;
#101 = ADVANCED_FACE ( 'NONE', ( #298 ), #109, .T. ) ;
#102 =( CONVERSION_BASED_UNIT ( 'INCH', #11 ) LENGTH_UNIT ( ) NAMED_UNIT ( #17 ) );
#103 = DIRECTION ( 'NONE',  ( -0.000000000000000000, -1.000000000000000000, -0.000000000000000000 ) ) ;
#104 =( NAMED_UNIT ( * ) PLANE_ANGLE_UNIT ( ) SI_UNIT ( $, .RADIAN. ) );
#105 = UNCERTAINTY_MEASURE_WITH_UNIT (LENGTH_MEASURE( 1.000000000000000082E-05 ), #262, 'distance_accuracy_value', 'NONE');
#106 = ADVANCED_FACE ( 'NONE', ( #46 ), #47, .F. ) ;
#107 = PRESENTATION_LAYER_ASSIGNMENT (  '', '', ( #22 ) ) ;
#108 = CARTESIAN_POINT ( 'NONE',  ( 0.000000000000000000, 0.000000000000000000, 0.000000000000000000 ) ) ;
#109 = PLANE ( 'NONE',  #251 ) ;
#110 =( NAMED_UNIT ( * ) PLANE_ANGLE_UNIT ( ) SI_UNIT ( $, .RADIAN. ) );
#111 = ADVANCED_FACE ( 'NONE', ( #144 ), #42, .T. ) ;
#112 = COLOUR_RGB ( '',1.000000000000000000, 0.000000000000000000, 0.000000000000000000 ) ;
#113 = CARTESIAN_POINT ( 'NONE',  ( -6.123233995736772199E-17, 3.000000000000000444, 0.000000000000000000 ) ) ;
#114 = EDGE_LOOP ( 'NONE', ( #121, #60, #50, #230 ) ) ;
#115 = EDGE_CURVE ( 'NONE', #128, #6, #225, .T. ) ;
#116 = CARTESIAN_POINT ( 'NONE',  ( -0.1250000000000001388, 3.000000000000000444, 0.000000000000000000 ) ) ;
#117 = SURFACE_STYLE_FILL_AREA ( #167 ) ;
#118 = ORIENTED_EDGE ( 'NONE', *, *, #173, .T. ) ;
#119 = CIRCLE ( 'NONE', #307, 0.1250000000000000000 ) ;
#120 = SURFACE_STYLE_USAGE ( .BOTH. , #54 ) ;
#121 = ORIENTED_EDGE ( 'NONE', *, *, #140, .T. ) ;
#122 = ORIENTED_EDGE ( 'NONE', *, *, #279, .F. ) ;
#123 = DIRECTION ( 'NONE',  ( -0.000000000000000000, -1.000000000000000000, -0.000000000000000000 ) ) ;
#124 = ORIENTED_EDGE ( 'NONE', *, *, #299, .T. ) ;
#125 =( LENGTH_UNIT ( ) NAMED_UNIT ( * ) SI_UNIT ( $, .METRE. ) );
#126 = DIMENSIONAL_EXPONENTS ( 1.000000000000000000, 0.000000000000000000, 0.000000000000000000, 0.000000000000000000, 0.000000000000000000, 0.000000000000000000, 0.000000000000000000 ) ;
#127 = DIRECTION ( 'NONE',  ( -3.061616997868386099E-17, 1.000000000000000000, -0.000000000000000000 ) ) ;
#128 = VERTEX_POINT ( 'NONE', #217 ) ;
#129 = DIRECTION ( 'NONE',  ( -1.000000000000000000, 0.000000000000000000, 0.000000000000000000 ) ) ;
#130 = VERTEX_POINT ( 'NONE', #116 ) ;
#131 = AXIS2_PLACEMENT_3D ( 'NONE', #142, #141, #244 ) ;
#132 = PRODUCT_DEFINITION_FORMATION_WITH_SPECIFIED_SOURCE ( 'ANY', '', #270, .NOT_KNOWN. ) ;
#133 = DIRECTION ( 'NONE',  ( 0.000000000000000000, 0.000000000000000000, -1.000000000000000000 ) ) ;
#134 = LENGTH_MEASURE_WITH_UNIT ( LENGTH_MEASURE( 0.02539999999999999897 ), #231 );
#135 = PRESENTATION_STYLE_ASSIGNMENT (( #233 ) ) ;
#136 = DIRECTION ( 'NONE',  ( -3.061616997868386099E-17, 1.000000000000000000, -0.000000000000000000 ) ) ;
#137 = CIRCLE ( 'NONE', #243, 0.1250000000000000000 ) ;
#138 = VECTOR ( 'NONE', #273, 39.37007874015748143 ) ;
#139 = FACE_OUTER_BOUND ( 'NONE', #23, .T. ) ;
#140 = EDGE_CURVE ( 'NONE', #48, #282, #300, .T. ) ;
#141 = DIRECTION ( 'NONE',  ( 0.000000000000000000, 1.000000000000000000, 0.000000000000000000 ) ) ;
#142 = CARTESIAN_POINT ( 'NONE',  ( 0.000000000000000000, 1.000000000000000000, 0.000000000000000000 ) ) ;
#143 =( GEOMETRIC_REPRESENTATION_CONTEXT ( 3 ) GLOBAL_UNCERTAINTY_ASSIGNED_CONTEXT ( ( #157 ) ) GLOBAL_UNIT_ASSIGNED_CONTEXT ( ( #212, #74, #49 ) ) REPRESENTATION_CONTEXT ( 'NONE', 'WORKASPACE' ) );
#144 = FACE_OUTER_BOUND ( 'NONE', #180, .T. ) ;
#145 = ADVANCED_FACE ( 'NONE', ( #43 ), #92, .T. ) ;
#146 = ORIENTED_EDGE ( 'NONE', *, *, #261, .T. ) ;
#147 = VERTEX_POINT ( 'NONE', #31 ) ;
#148 =( LENGTH_UNIT ( ) NAMED_UNIT ( * ) SI_UNIT ( $, .METRE. ) );
#149 = MECHANICAL_DESIGN_GEOMETRIC_PRESENTATION_REPRESENTATION (  '', ( #62 ), #213 ) ;
#150 = VECTOR ( 'NONE', #123, 39.37007874015748143 ) ;
#151 = DIRECTION ( 'NONE',  ( 0.000000000000000000, 0.000000000000000000, -1.000000000000000000 ) ) ;
#152 = CARTESIAN_POINT ( 'NONE',  ( 0.1249999999999999584, 3.000000000000000444, 1.530808498934191817E-17 ) ) ;
#153 = SURFACE_STYLE_FILL_AREA ( #267 ) ;
#154 = AXIS2_PLACEMENT_3D ( 'NONE', #296, #178, #10 ) ;
#155 = CARTESIAN_POINT ( 'NONE',  ( 0.000000000000000000, 0.000000000000000000, 0.000000000000000000 ) ) ;
#156 = LINE ( 'NONE', #152, #245 ) ;
#157 = UNCERTAINTY_MEASURE_WITH_UNIT (LENGTH_MEASURE( 1.000000000000000082E-05 ), #212, 'distance_accuracy_value', 'NONE');
#158 = EDGE_LOOP ( 'NONE', ( #100, #98, #146, #248 ) ) ;
#159 = FILL_AREA_STYLE_COLOUR ( '', #112 ) ;
#160 = DIRECTION ( 'NONE',  ( -1.000000000000000000, 0.000000000000000000, 0.000000000000000000 ) ) ;
#161 = APPLICATION_PROTOCOL_DEFINITION ( 'draft international standard', 'automotive_design', 1998, #221 ) ;
#162 = PLANE ( 'NONE',  #154 ) ;
#163 = COLOUR_RGB ( '',1.000000000000000000, 0.000000000000000000, 0.000000000000000000 ) ;
#164 =( GEOMETRIC_REPRESENTATION_CONTEXT ( 3 ) GLOBAL_UNCERTAINTY_ASSIGNED_CONTEXT ( ( #211 ) ) GLOBAL_UNIT_ASSIGNED_CONTEXT ( ( #7, #292, #294 ) ) REPRESENTATION_CONTEXT ( 'NONE', 'WORKASPACE' ) );
#165 = DIRECTION ( 'NONE',  ( -3.061616997868386099E-17, 1.000000000000000000, -0.000000000000000000 ) ) ;
#166 = APPLICATION_PROTOCOL_DEFINITION ( 'draft international standard', 'automotive_design', 1998, #290 ) ;
#167 = FILL_AREA_STYLE ('',( #242 ) ) ;
#168 = DIRECTION ( 'NONE',  ( -1.000000000000000000, 0.000000000000000000, 0.000000000000000000 ) ) ;
#169 =( CONVERSION_BASED_UNIT ( 'INCH', #3 ) LENGTH_UNIT ( ) NAMED_UNIT ( #309 ) );
#170 = DIRECTION ( 'NONE',  ( 0.000000000000000000, 0.000000000000000000, -1.000000000000000000 ) ) ;
#171 = ORIENTED_EDGE ( 'NONE', *, *, #234, .T. ) ;
#172 = STYLED_ITEM ( 'NONE', ( #301 ), #101 ) ;
#173 = EDGE_CURVE ( 'NONE', #147, #66, #76, .T. ) ;
#174 = AXIS2_PLACEMENT_3D ( 'NONE', #15, #136, #129 ) ;
#175 = CARTESIAN_POINT ( 'NONE',  ( 1.530808498934191817E-17, 0.000000000000000000, 0.1250000000000000278 ) ) ;
#176 = CYLINDRICAL_SURFACE ( 'NONE', #94, 0.1250000000000000278 ) ;
#177 = DIRECTION ( 'NONE',  ( 0.000000000000000000, 0.000000000000000000, -1.000000000000000000 ) ) ;
#178 = DIRECTION ( 'NONE',  ( 3.061616997868386099E-17, -1.000000000000000000, 0.000000000000000000 ) ) ;
#179 = DIRECTION ( 'NONE',  ( -0.000000000000000000, -1.000000000000000000, -0.000000000000000000 ) ) ;
#180 = EDGE_LOOP ( 'NONE', ( #52, #58, #122, #75 ) ) ;
#181 = CARTESIAN_POINT ( 'NONE',  ( -6.123233995736772199E-17, 3.000000000000000444, 0.000000000000000000 ) ) ;
#182 = ORIENTED_EDGE ( 'NONE', *, *, #90, .F. ) ;
#183 = AXIS2_PLACEMENT_3D ( 'NONE', #69, #20, #170 ) ;
#184 = DIRECTION ( 'NONE',  ( -3.061616997868386099E-17, 1.000000000000000000, -0.000000000000000000 ) ) ;
#185 = DIMENSIONAL_EXPONENTS ( 1.000000000000000000, 0.000000000000000000, 0.000000000000000000, 0.000000000000000000, 0.000000000000000000, 0.000000000000000000, 0.000000000000000000 ) ;
#186 = FILL_AREA_STYLE ('',( #281 ) ) ;
#187 = DIRECTION ( 'NONE',  ( 0.000000000000000000, -1.000000000000000000, -0.000000000000000000 ) ) ;
#188 = SURFACE_STYLE_USAGE ( .BOTH. , #72 ) ;
#189 = EDGE_CURVE ( 'NONE', #6, #216, #156, .T. ) ;
#190 = DIRECTION ( 'NONE',  ( -1.000000000000000000, -3.061616997868386099E-17, 0.000000000000000000 ) ) ;
#191 = CARTESIAN_POINT ( 'NONE',  ( 5.858436651022893041E-35, 1.000000000000000000, 0.000000000000000000 ) ) ;
#192 = STYLED_ITEM ( 'NONE', ( #286 ), #27 ) ;
#193 = COLOUR_RGB ( '',0.7921568627450980005, 0.8196078431372548767, 0.9333333333333333481 ) ;
#194 = ORIENTED_EDGE ( 'NONE', *, *, #255, .T. ) ;
#195 = SURFACE_STYLE_FILL_AREA ( #274 ) ;
#196 = ADVANCED_FACE ( 'NONE', ( #224 ), #176, .T. ) ;
#197 = CARTESIAN_POINT ( 'NONE',  ( 0.1250000000000000278, 3.000000000000000444, 1.530808498934192125E-17 ) ) ;
#198 = AXIS2_PLACEMENT_3D ( 'NONE', #108, #38, #304 ) ;
#199 = ORIENTED_EDGE ( 'NONE', *, *, #65, .F. ) ;
#200 = DIMENSIONAL_EXPONENTS ( 1.000000000000000000, 0.000000000000000000, 0.000000000000000000, 0.000000000000000000, 0.000000000000000000, 0.000000000000000000, 0.000000000000000000 ) ;
#201 = DIRECTION ( 'NONE',  ( -1.000000000000000000, 0.000000000000000000, 0.000000000000000000 ) ) ;
#202 = MANIFOLD_SOLID_BREP ( 'Revolve - Tool Body (Straight Shanked)', #44 ) ;
#203 =( NAMED_UNIT ( * ) SI_UNIT ( $, .STERADIAN. ) SOLID_ANGLE_UNIT ( ) );
#204 = CYLINDRICAL_SURFACE ( 'NONE', #96, 0.1250000000000000278 ) ;
#205 = SURFACE_STYLE_FILL_AREA ( #32 ) ;
#206 = CARTESIAN_POINT ( 'NONE',  ( 1.530808498934191817E-17, 1.000000000000000000, 0.1250000000000000000 ) ) ;
#207 = DIMENSIONAL_EXPONENTS ( 1.000000000000000000, 0.000000000000000000, 0.000000000000000000, 0.000000000000000000, 0.000000000000000000, 0.000000000000000000, 0.000000000000000000 ) ;
#208 = UNCERTAINTY_MEASURE_WITH_UNIT (LENGTH_MEASURE( 1.000000000000000082E-05 ), #169, 'distance_accuracy_value', 'NONE');
#209 = LINE ( 'NONE', #59, #277 ) ;
#210 =( NAMED_UNIT ( * ) SI_UNIT ( $, .STERADIAN. ) SOLID_ANGLE_UNIT ( ) );
#211 = UNCERTAINTY_MEASURE_WITH_UNIT (LENGTH_MEASURE( 1.000000000000000082E-05 ), #7, 'distance_accuracy_value', 'NONE');
#212 =( CONVERSION_BASED_UNIT ( 'INCH', #247 ) LENGTH_UNIT ( ) NAMED_UNIT ( #185 ) );
#213 =( GEOMETRIC_REPRESENTATION_CONTEXT ( 3 ) GLOBAL_UNCERTAINTY_ASSIGNED_CONTEXT ( ( #208 ) ) GLOBAL_UNIT_ASSIGNED_CONTEXT ( ( #169, #250, #210 ) ) REPRESENTATION_CONTEXT ( 'NONE', 'WORKASPACE' ) );
#214 =( LENGTH_UNIT ( ) NAMED_UNIT ( * ) SI_UNIT ( $, .METRE. ) );
#215 = PRESENTATION_STYLE_ASSIGNMENT (( #188 ) ) ;
#216 = VERTEX_POINT ( 'NONE', #197 ) ;
#217 = CARTESIAN_POINT ( 'NONE',  ( -0.1250000000000000000, 1.000000000000000000, 0.000000000000000000 ) ) ;
#218 = AXIS2_PLACEMENT_3D ( 'NONE', #95, #246, #291 ) ;
#219 = PRESENTATION_LAYER_ASSIGNMENT (  '', '', ( #78 ) ) ;
#220 = LENGTH_MEASURE_WITH_UNIT ( LENGTH_MEASURE( 0.02539999999999999897 ), #125 );
#221 = APPLICATION_CONTEXT ( 'automotive_design' ) ;
#222 = CARTESIAN_POINT ( 'NONE',  ( 0.000000000000000000, 0.000000000000000000, 0.000000000000000000 ) ) ;
#223 = ORIENTED_EDGE ( 'NONE', *, *, #115, .F. ) ;
#224 = FACE_OUTER_BOUND ( 'NONE', #114, .T. ) ;
#225 = CIRCLE ( 'NONE', #40, 0.1250000000000000000 ) ;
#226 = EDGE_CURVE ( 'NONE', #282, #66, #77, .T. ) ;
#227 = MECHANICAL_DESIGN_GEOMETRIC_PRESENTATION_REPRESENTATION (  '', ( #13 ), #83 ) ;
#228 = DIRECTION ( 'NONE',  ( -3.061616997868386099E-17, 1.000000000000000000, -0.000000000000000000 ) ) ;
#229 = CARTESIAN_POINT ( 'NONE',  ( 0.000000000000000000, 0.000000000000000000, 0.000000000000000000 ) ) ;
#230 = ORIENTED_EDGE ( 'NONE', *, *, #234, .F. ) ;
#231 =( LENGTH_UNIT ( ) NAMED_UNIT ( * ) SI_UNIT ( $, .METRE. ) );
#232 = AXIS2_PLACEMENT_3D ( 'NONE', #181, #238, #160 ) ;
#233 = SURFACE_STYLE_USAGE ( .BOTH. , #61 ) ;
#234 = EDGE_CURVE ( 'NONE', #48, #147, #53, .T. ) ;
#235 = CARTESIAN_POINT ( 'NONE',  ( 1.530808498934192125E-17, 0.000000000000000000, 0.1250000000000000555 ) ) ;
#236 = FACE_OUTER_BOUND ( 'NONE', #158, .T. ) ;
#237 = MECHANICAL_DESIGN_GEOMETRIC_PRESENTATION_REPRESENTATION (  '', ( #192 ), #29 ) ;
#238 = DIRECTION ( 'NONE',  ( -3.061616997868386099E-17, 1.000000000000000000, -0.000000000000000000 ) ) ;
#239 = PRODUCT_DEFINITION_CONTEXT ( 'detailed design', #290, 'design' ) ;
#240 =( CONVERSION_BASED_UNIT ( 'INCH', #37 ) LENGTH_UNIT ( ) NAMED_UNIT ( #200 ) );
#241 = PRODUCT_DEFINITION_SHAPE ( 'NONE', 'NONE',  #86 ) ;
#242 = FILL_AREA_STYLE_COLOUR ( '', #163 ) ;
#243 = AXIS2_PLACEMENT_3D ( 'NONE', #258, #103, #257 ) ;
#244 = DIRECTION ( 'NONE',  ( 0.000000000000000000, -0.000000000000000000, 1.000000000000000000 ) ) ;
#245 = VECTOR ( 'NONE', #127, 39.37007874015748143 ) ;
#246 = DIRECTION ( 'NONE',  ( -3.061616997868386099E-17, 1.000000000000000000, -0.000000000000000000 ) ) ;
#247 = LENGTH_MEASURE_WITH_UNIT ( LENGTH_MEASURE( 0.02539999999999999897 ), #214 );
#248 = ORIENTED_EDGE ( 'NONE', *, *, #299, .F. ) ;
#249 = PRODUCT_RELATED_PRODUCT_CATEGORY ( 'part', '', ( #270 ) ) ;
#250 =( NAMED_UNIT ( * ) PLANE_ANGLE_UNIT ( ) SI_UNIT ( $, .RADIAN. ) );
#251 = AXIS2_PLACEMENT_3D ( 'NONE', #268, #187, #269 ) ;
#252 = CIRCLE ( 'NONE', #174, 0.1250000000000000555 ) ;
#253 = PRESENTATION_STYLE_ASSIGNMENT (( #120 ) ) ;
#254 = PRESENTATION_STYLE_ASSIGNMENT (( #259 ) ) ;
#255 = EDGE_CURVE ( 'NONE', #66, #147, #97, .T. ) ;
#256 =( NAMED_UNIT ( * ) PLANE_ANGLE_UNIT ( ) SI_UNIT ( $, .RADIAN. ) );
#257 = DIRECTION ( 'NONE',  ( 0.000000000000000000, 0.000000000000000000, -1.000000000000000000 ) ) ;
#258 = CARTESIAN_POINT ( 'NONE',  ( 0.000000000000000000, 1.000000000000000000, 0.000000000000000000 ) ) ;
#259 = SURFACE_STYLE_USAGE ( .BOTH. , #8 ) ;
#260 = ORIENTED_EDGE ( 'NONE', *, *, #255, .F. ) ;
#261 = EDGE_CURVE ( 'NONE', #128, #130, #209, .T. ) ;
#262 =( CONVERSION_BASED_UNIT ( 'INCH', #308 ) LENGTH_UNIT ( ) NAMED_UNIT ( #207 ) );
#263 = MECHANICAL_DESIGN_GEOMETRIC_PRESENTATION_REPRESENTATION (  '', ( #22 ), #284 ) ;
#264 =( CONVERSION_BASED_UNIT ( 'INCH', #134 ) LENGTH_UNIT ( ) NAMED_UNIT ( #280 ) );
#265 =( LENGTH_UNIT ( ) NAMED_UNIT ( * ) SI_UNIT ( $, .METRE. ) );
#266 =( GEOMETRIC_REPRESENTATION_CONTEXT ( 3 ) GLOBAL_UNCERTAINTY_ASSIGNED_CONTEXT ( ( #34 ) ) GLOBAL_UNIT_ASSIGNED_CONTEXT ( ( #264, #35, #203 ) ) REPRESENTATION_CONTEXT ( 'NONE', 'WORKASPACE' ) );
#267 = FILL_AREA_STYLE ('',( #159 ) ) ;
#268 = CARTESIAN_POINT ( 'NONE',  ( 0.000000000000000000, 0.000000000000000000, 0.000000000000000000 ) ) ;
#269 = DIRECTION ( 'NONE',  ( 0.000000000000000000, 0.000000000000000000, -1.000000000000000000 ) ) ;
#270 = PRODUCT ( '59253', '59253', '', ( #33 ) ) ;
#271 = ORIENTED_EDGE ( 'NONE', *, *, #65, .T. ) ;
#272 = PRESENTATION_LAYER_ASSIGNMENT (  '', '', ( #13 ) ) ;
#273 = DIRECTION ( 'NONE',  ( -0.000000000000000000, -1.000000000000000000, -0.000000000000000000 ) ) ;
#274 = FILL_AREA_STYLE ('',( #275 ) ) ;
#275 = FILL_AREA_STYLE_COLOUR ( '', #295 ) ;
#276 = EDGE_LOOP ( 'NONE', ( #118, #194 ) ) ;
#277 = VECTOR ( 'NONE', #184, 39.37007874015748143 ) ;
#278 = SURFACE_STYLE_USAGE ( .BOTH. , #14 ) ;
#279 = EDGE_CURVE ( 'NONE', #130, #216, #51, .T. ) ;
#280 = DIMENSIONAL_EXPONENTS ( 1.000000000000000000, 0.000000000000000000, 0.000000000000000000, 0.000000000000000000, 0.000000000000000000, 0.000000000000000000, 0.000000000000000000 ) ;
#281 = FILL_AREA_STYLE_COLOUR ( '', #193 ) ;
#282 = VERTEX_POINT ( 'NONE', #206 ) ;
#283 = DIRECTION ( 'NONE',  ( 0.000000000000000000, 0.000000000000000000, -1.000000000000000000 ) ) ;
#284 =( GEOMETRIC_REPRESENTATION_CONTEXT ( 3 ) GLOBAL_UNCERTAINTY_ASSIGNED_CONTEXT ( ( #64 ) ) GLOBAL_UNIT_ASSIGNED_CONTEXT ( ( #102, #256, #297 ) ) REPRESENTATION_CONTEXT ( 'NONE', 'WORKASPACE' ) );
#285 =( NAMED_UNIT ( * ) SI_UNIT ( $, .STERADIAN. ) SOLID_ANGLE_UNIT ( ) );
#286 = PRESENTATION_STYLE_ASSIGNMENT (( #278 ) ) ;
#287 = PRESENTATION_LAYER_ASSIGNMENT (  '', '', ( #62 ) ) ;
#288 = UNCERTAINTY_MEASURE_WITH_UNIT (LENGTH_MEASURE( 1.000000000000000082E-05 ), #240, 'distance_accuracy_value', 'NONE');
#289 = ADVANCED_FACE ( 'NONE', ( #236 ), #39, .T. ) ;
#290 = APPLICATION_CONTEXT ( 'automotive_design' ) ;
#291 = DIRECTION ( 'NONE',  ( -1.000000000000000000, 0.000000000000000000, 0.000000000000000000 ) ) ;
#292 =( NAMED_UNIT ( * ) PLANE_ANGLE_UNIT ( ) SI_UNIT ( $, .RADIAN. ) );
#293 = EDGE_LOOP ( 'NONE', ( #24, #199 ) ) ;
#294 =( NAMED_UNIT ( * ) SI_UNIT ( $, .STERADIAN. ) SOLID_ANGLE_UNIT ( ) );
#295 = COLOUR_RGB ( '',0.7921568627450980005, 0.8196078431372548767, 0.9333333333333333481 ) ;
#296 = CARTESIAN_POINT ( 'NONE',  ( 0.1250000000000000000, 3.000000000000000444, 0.000000000000000000 ) ) ;
#297 =( NAMED_UNIT ( * ) SI_UNIT ( $, .STERADIAN. ) SOLID_ANGLE_UNIT ( ) );
#298 = FACE_OUTER_BOUND ( 'NONE', #276, .T. ) ;
#299 = EDGE_CURVE ( 'NONE', #216, #130, #252, .T. ) ;
#300 = CIRCLE ( 'NONE', #183, 0.1250000000000000000 ) ;
#301 = PRESENTATION_STYLE_ASSIGNMENT (( #91 ) ) ;
#302 = CARTESIAN_POINT ( 'NONE',  ( 0.000000000000000000, 0.000000000000000000, 0.000000000000000000 ) ) ;
#303 = MANIFOLD_SOLID_BREP ( 'Revolve - Cutting Edge', #55 ) ;
#304 = DIRECTION ( 'NONE',  ( 1.000000000000000000, 0.000000000000000000, 0.000000000000000000 ) ) ;
#305 = CARTESIAN_POINT ( 'NONE',  ( 7.582401355855259480E-33, 1.000000000000000000, 0.000000000000000000 ) ) ;
#306 = SURFACE_STYLE_FILL_AREA ( #186 ) ;
#307 = AXIS2_PLACEMENT_3D ( 'NONE', #305, #228, #201 ) ;
#308 = LENGTH_MEASURE_WITH_UNIT ( LENGTH_MEASURE( 0.02539999999999999897 ), #265 );
#309 = DIMENSIONAL_EXPONENTS ( 1.000000000000000000, 0.000000000000000000, 0.000000000000000000, 0.000000000000000000, 0.000000000000000000, 0.000000000000000000, 0.000000000000000000 ) ;
ENDSEC;
END-ISO-10303-21;
