ISO-10303-21;
HEADER;
FILE_DESCRIPTION (( 'STEP AP214' ),
    '1' );
FILE_NAME ('Micro_SEM-062-02.STEP',
    '2021-09-02T00:45:37',
    ( '' ),
    ( '' ),
    'SwSTEP 2.0',
    'SolidWorks 2020',
    '' );
FILE_SCHEMA (( 'AUTOMOTIVE_DESIGN' ));
ENDSEC;

DATA;
#1 = ORIENTED_EDGE ( 'NONE', *, *, #91, .F. ) ;
#2 = VERTEX_POINT ( 'NONE', #181 ) ;
#3 = AXIS2_PLACEMENT_3D ( 'NONE', #85, #152, #43 ) ;
#4 = DIRECTION ( 'NONE',  ( 1.000000000000000000, 0.0000000000000000000, 0.0000000000000000000 ) ) ;
#5 = ADVANCED_FACE ( 'NONE', ( #252 ), #185, .T. ) ;
#6 = CARTESIAN_POINT ( 'NONE',  ( 4.682062571497488738E-34, 0.0000000000000000000, 3.823194226088144458E-18 ) ) ;
#7 = DIRECTION ( 'NONE',  ( -1.000000000000000000, 0.0000000000000000000, 1.224646799147353700E-16 ) ) ;
#8 = VECTOR ( 'NONE', #26, 39.37007874015748143 ) ;
#9 = VECTOR ( 'NONE', #191, 39.37007874015747433 ) ;
#10 = DIRECTION ( 'NONE',  ( -1.224646799147353454E-16, -0.0000000000000000000, -1.000000000000000000 ) ) ;
#11 = DIRECTION ( 'NONE',  ( 0.0000000000000000000, 0.0000000000000000000, 1.000000000000000000 ) ) ;
#12 = EDGE_CURVE ( 'NONE', #183, #68, #166, .T. ) ;
#13 =( LENGTH_UNIT ( ) NAMED_UNIT ( * ) SI_UNIT ( $, .METRE. ) );
#14 = DIRECTION ( 'NONE',  ( 0.0000000000000000000, 0.0000000000000000000, 1.000000000000000000 ) ) ;
#15 = AXIS2_PLACEMENT_3D ( 'NONE', #99, #32, #55 ) ;
#16 = CARTESIAN_POINT ( 'NONE',  ( 0.06250000000000000000, 7.654042494670956004E-18, 1.500000000000000222 ) ) ;
#17 = DIMENSIONAL_EXPONENTS ( 1.000000000000000000, 0.0000000000000000000, 0.0000000000000000000, 0.0000000000000000000, 0.0000000000000000000, 0.0000000000000000000, 0.0000000000000000000 ) ;
#18 = ORIENTED_EDGE ( 'NONE', *, *, #190, .F. ) ;
#19 = FACE_OUTER_BOUND ( 'NONE', #292, .T. ) ;
#20 = LINE ( 'NONE', #128, #298 ) ;
#21 = CARTESIAN_POINT ( 'NONE',  ( 0.0000000000000000000, 0.0000000000000000000, 1.485000000000000764 ) ) ;
#22 = ORIENTED_EDGE ( 'NONE', *, *, #223, .F. ) ;
#23 = ORIENTED_EDGE ( 'NONE', *, *, #87, .T. ) ;
#24 =( GEOMETRIC_REPRESENTATION_CONTEXT ( 3 ) GLOBAL_UNCERTAINTY_ASSIGNED_CONTEXT ( ( #182 ) ) GLOBAL_UNIT_ASSIGNED_CONTEXT ( ( #83, #218, #64 ) ) REPRESENTATION_CONTEXT ( 'NONE', 'WORKASPACE' ) );
#25 = CARTESIAN_POINT ( 'NONE',  ( 0.0000000000000000000, 0.0000000000000000000, 1.500000000000000222 ) ) ;
#26 = DIRECTION ( 'NONE',  ( -0.0000000000000000000, -0.0000000000000000000, -1.000000000000000000 ) ) ;
#27 = PRESENTATION_STYLE_ASSIGNMENT (( #53 ) ) ;
#28 = AXIS2_PLACEMENT_3D ( 'NONE', #78, #74, #168 ) ;
#29 = CARTESIAN_POINT ( 'NONE',  ( 1.530808498934191817E-17, 0.0000000000000000000, 0.1250000000000000000 ) ) ;
#30 =( CONVERSION_BASED_UNIT ( 'INCH', #233 ) LENGTH_UNIT ( ) NAMED_UNIT ( #17 ) );
#31 = CARTESIAN_POINT ( 'NONE',  ( -0.04750000000000064587, 0.0000000000000000000, 1.500000000000000222 ) ) ;
#32 = DIRECTION ( 'NONE',  ( -1.224646799147353454E-16, -0.0000000000000000000, -1.000000000000000000 ) ) ;
#33 = AXIS2_PLACEMENT_3D ( 'NONE', #237, #260, #173 ) ;
#34 = CARTESIAN_POINT ( 'NONE',  ( 1.530808498934191817E-17, 0.0000000000000000000, 0.1250000000000000000 ) ) ;
#35 = ADVANCED_FACE ( 'NONE', ( #95 ), #186, .T. ) ;
#36 = CYLINDRICAL_SURFACE ( 'NONE', #208, 0.03121875000000000691 ) ;
#37 = SHAPE_DEFINITION_REPRESENTATION ( #162, #44 ) ;
#38 = LENGTH_MEASURE_WITH_UNIT ( LENGTH_MEASURE( 0.02539999999999999897 ), #75 );
#39 = EDGE_LOOP ( 'NONE', ( #179, #227, #22, #51 ) ) ;
#40 =( LENGTH_UNIT ( ) NAMED_UNIT ( * ) SI_UNIT ( $, .METRE. ) );
#41 = PRODUCT_DEFINITION ( 'UNKNOWN', '', #271, #169 ) ;
#42 = AXIS2_PLACEMENT_3D ( 'NONE', #25, #118, #93 ) ;
#43 = DIRECTION ( 'NONE',  ( -1.000000000000000000, 0.0000000000000000000, 1.224646799147353207E-16 ) ) ;
#44 = ADVANCED_BREP_SHAPE_REPRESENTATION ( 'Micro_SEM-062-02', ( #209, #33 ), #176 ) ;
#45 = CARTESIAN_POINT ( 'NONE',  ( 1.530808498934191817E-17, 0.0000000000000000000, 0.1250000000000000000 ) ) ;
#46 = AXIS2_PLACEMENT_3D ( 'NONE', #104, #221, #246 ) ;
#47 = ORIENTED_EDGE ( 'NONE', *, *, #106, .F. ) ;
#48 = ORIENTED_EDGE ( 'NONE', *, *, #50, .T. ) ;
#49 = EDGE_LOOP ( 'NONE', ( #115, #248, #206, #275 ) ) ;
#50 = EDGE_CURVE ( 'NONE', #137, #183, #200, .T. ) ;
#51 = ORIENTED_EDGE ( 'NONE', *, *, #151, .F. ) ;
#52 = VERTEX_POINT ( 'NONE', #231 ) ;
#53 = SURFACE_STYLE_USAGE ( .BOTH. , #149 ) ;
#54 = DIRECTION ( 'NONE',  ( 0.7071067811865456854, 8.659560562354911904E-17, -0.7071067811865493491 ) ) ;
#55 = DIRECTION ( 'NONE',  ( 1.000000000000000000, 0.0000000000000000000, 0.0000000000000000000 ) ) ;
#56 = DIRECTION ( 'NONE',  ( -1.000000000000000000, 0.0000000000000000000, 0.0000000000000000000 ) ) ;
#57 = PRESENTATION_STYLE_ASSIGNMENT (( #194 ) ) ;
#58 = SURFACE_STYLE_FILL_AREA ( #262 ) ;
#59 = AXIS2_PLACEMENT_3D ( 'NONE', #21, #114, #201 ) ;
#60 = APPLICATION_PROTOCOL_DEFINITION ( 'draft international standard', 'automotive_design', 1998, #89 ) ;
#61 = FACE_OUTER_BOUND ( 'NONE', #119, .T. ) ;
#62 = EDGE_CURVE ( 'NONE', #2, #68, #134, .T. ) ;
#63 = AXIS2_PLACEMENT_3D ( 'NONE', #294, #108, #288 ) ;
#64 =( NAMED_UNIT ( * ) SI_UNIT ( $, .STERADIAN. ) SOLID_ANGLE_UNIT ( ) );
#65 = ADVANCED_FACE ( 'NONE', ( #145 ), #222, .T. ) ;
#66 = PRESENTATION_LAYER_ASSIGNMENT (  '', '', ( #94 ) ) ;
#67 = ORIENTED_EDGE ( 'NONE', *, *, #259, .T. ) ;
#68 = VERTEX_POINT ( 'NONE', #101 ) ;
#69 = VERTEX_POINT ( 'NONE', #211 ) ;
#70 = AXIS2_PLACEMENT_3D ( 'NONE', #34, #10, #167 ) ;
#71 = EDGE_LOOP ( 'NONE', ( #226, #18, #135, #90 ) ) ;
#72 =( GEOMETRIC_REPRESENTATION_CONTEXT ( 3 ) GLOBAL_UNCERTAINTY_ASSIGNED_CONTEXT ( ( #282 ) ) GLOBAL_UNIT_ASSIGNED_CONTEXT ( ( #98, #242, #79 ) ) REPRESENTATION_CONTEXT ( 'NONE', 'WORKASPACE' ) );
#73 = DIRECTION ( 'NONE',  ( 0.1736481776669314137, 0.0000000000000000000, 0.9848077530122077983 ) ) ;
#74 = DIRECTION ( 'NONE',  ( 0.0000000000000000000, 0.0000000000000000000, -1.000000000000000000 ) ) ;
#75 =( LENGTH_UNIT ( ) NAMED_UNIT ( * ) SI_UNIT ( $, .METRE. ) );
#76 = CARTESIAN_POINT ( 'NONE',  ( 0.04750000000000064587, 5.817072295950006528E-18, 1.500000000000000222 ) ) ;
#77 = DIMENSIONAL_EXPONENTS ( 1.000000000000000000, 0.0000000000000000000, 0.0000000000000000000, 0.0000000000000000000, 0.0000000000000000000, 0.0000000000000000000, 0.0000000000000000000 ) ;
#78 = CARTESIAN_POINT ( 'NONE',  ( 0.0000000000000000000, 0.0000000000000000000, 1.500000000000000222 ) ) ;
#79 =( NAMED_UNIT ( * ) SI_UNIT ( $, .STERADIAN. ) SOLID_ANGLE_UNIT ( ) );
#80 = DIRECTION ( 'NONE',  ( 1.000000000000000000, 0.0000000000000000000, -0.0000000000000000000 ) ) ;
#81 = CIRCLE ( 'NONE', #150, 0.03121874999999999997 ) ;
#82 = FILL_AREA_STYLE ('',( #265 ) ) ;
#83 =( CONVERSION_BASED_UNIT ( 'INCH', #38 ) LENGTH_UNIT ( ) NAMED_UNIT ( #77 ) );
#84 = ORIENTED_EDGE ( 'NONE', *, *, #250, .T. ) ;
#85 = CARTESIAN_POINT ( 'NONE',  ( 0.0000000000000000000, 0.0000000000000000000, 0.0000000000000000000 ) ) ;
#86 = CIRCLE ( 'NONE', #70, 0.03121875000000000691 ) ;
#87 = EDGE_CURVE ( 'NONE', #92, #163, #116, .T. ) ;
#88 = EDGE_LOOP ( 'NONE', ( #1, #297, #84, #136 ) ) ;
#89 = APPLICATION_CONTEXT ( 'automotive_design' ) ;
#90 = ORIENTED_EDGE ( 'NONE', *, *, #50, .F. ) ;
#91 = EDGE_CURVE ( 'NONE', #180, #299, #121, .T. ) ;
#92 = VERTEX_POINT ( 'NONE', #193 ) ;
#93 = DIRECTION ( 'NONE',  ( -1.000000000000000000, 0.0000000000000000000, 0.0000000000000000000 ) ) ;
#94 = STYLED_ITEM ( 'NONE', ( #27 ), #209 ) ;
#95 = FACE_OUTER_BOUND ( 'NONE', #161, .T. ) ;
#96 = CARTESIAN_POINT ( 'NONE',  ( 0.0000000000000000000, 0.0000000000000000000, 1.500000000000000222 ) ) ;
#97 = CARTESIAN_POINT ( 'NONE',  ( 0.03121875000000002426, 0.0000000000000000000, 0.1250000000000000000 ) ) ;
#98 =( CONVERSION_BASED_UNIT ( 'INCH', #287 ) LENGTH_UNIT ( ) NAMED_UNIT ( #154 ) );
#99 = CARTESIAN_POINT ( 'NONE',  ( 3.703390512866948185E-17, 0.0000000000000000000, 0.3024047844199154178 ) ) ;
#100 = CIRCLE ( 'NONE', #15, 0.06250000000000000000 ) ;
#101 = CARTESIAN_POINT ( 'NONE',  ( -0.06249999999999996531, 0.0000000000000000000, 0.3024047844199154178 ) ) ;
#102 = DIRECTION ( 'NONE',  ( 0.0000000000000000000, 0.0000000000000000000, 1.000000000000000000 ) ) ;
#103 = SURFACE_STYLE_FILL_AREA ( #82 ) ;
#104 = CARTESIAN_POINT ( 'NONE',  ( 0.0000000000000000000, 0.0000000000000000000, 1.485000000000000764 ) ) ;
#105 = CIRCLE ( 'NONE', #253, 0.03121875000000000691 ) ;
#106 = EDGE_CURVE ( 'NONE', #52, #68, #261, .T. ) ;
#107 = CARTESIAN_POINT ( 'NONE',  ( 4.682062571497488738E-34, 0.0000000000000000000, 3.823194226088144458E-18 ) ) ;
#108 = DIRECTION ( 'NONE',  ( -0.0000000000000000000, -0.0000000000000000000, -1.000000000000000000 ) ) ;
#109 = EDGE_LOOP ( 'NONE', ( #47, #140, #220, #251 ) ) ;
#110 = FACE_OUTER_BOUND ( 'NONE', #88, .T. ) ;
#111 = PRESENTATION_LAYER_ASSIGNMENT (  '', '', ( #199 ) ) ;
#112 = EDGE_CURVE ( 'NONE', #92, #137, #258, .T. ) ;
#113 = VECTOR ( 'NONE', #257, 39.37007874015748143 ) ;
#114 = DIRECTION ( 'NONE',  ( 0.0000000000000000000, 0.0000000000000000000, -1.000000000000000000 ) ) ;
#115 = ORIENTED_EDGE ( 'NONE', *, *, #120, .F. ) ;
#116 = CIRCLE ( 'NONE', #144, 0.04750000000000064587 ) ;
#117 = ORIENTED_EDGE ( 'NONE', *, *, #133, .F. ) ;
#118 = DIRECTION ( 'NONE',  ( 0.0000000000000000000, 0.0000000000000000000, -1.000000000000000000 ) ) ;
#119 = EDGE_LOOP ( 'NONE', ( #296, #139, #117, #202 ) ) ;
#120 = EDGE_CURVE ( 'NONE', #52, #180, #86, .T. ) ;
#121 = LINE ( 'NONE', #232, #113 ) ;
#122 = DIRECTION ( 'NONE',  ( -1.224646799147353454E-16, -0.0000000000000000000, -1.000000000000000000 ) ) ;
#123 = PLANE ( 'NONE',  #124 ) ;
#124 = AXIS2_PLACEMENT_3D ( 'NONE', #132, #14, #80 ) ;
#125 = DIRECTION ( 'NONE',  ( 1.000000000000000000, 0.0000000000000000000, -0.0000000000000000000 ) ) ;
#126 = DIRECTION ( 'NONE',  ( -1.224646799147353454E-16, -0.0000000000000000000, -1.000000000000000000 ) ) ;
#127 = EDGE_CURVE ( 'NONE', #180, #52, #105, .T. ) ;
#128 = CARTESIAN_POINT ( 'NONE',  ( -0.03121875000000000691, 0.0000000000000000000, 3.823194226088144458E-18 ) ) ;
#129 = EDGE_LOOP ( 'NONE', ( #272, #23 ) ) ;
#130 = VECTOR ( 'NONE', #73, 39.37007874015748143 ) ;
#131 = DIRECTION ( 'NONE',  ( -0.0000000000000000000, -0.0000000000000000000, -1.000000000000000000 ) ) ;
#132 = CARTESIAN_POINT ( 'NONE',  ( 0.0000000000000000000, 0.0000000000000000000, 1.500000000000000222 ) ) ;
#133 = EDGE_CURVE ( 'NONE', #69, #299, #159, .T. ) ;
#134 = CIRCLE ( 'NONE', #138, 0.06250000000000000000 ) ;
#135 = ORIENTED_EDGE ( 'NONE', *, *, #151, .T. ) ;
#136 = ORIENTED_EDGE ( 'NONE', *, *, #273, .F. ) ;
#137 = VERTEX_POINT ( 'NONE', #143 ) ;
#138 = AXIS2_PLACEMENT_3D ( 'NONE', #146, #286, #4 ) ;
#139 = ORIENTED_EDGE ( 'NONE', *, *, #91, .T. ) ;
#140 = ORIENTED_EDGE ( 'NONE', *, *, #127, .F. ) ;
#141 = ADVANCED_FACE ( 'NONE', ( #192 ), #216, .F. ) ;
#142 =( NAMED_UNIT ( * ) SI_UNIT ( $, .STERADIAN. ) SOLID_ANGLE_UNIT ( ) );
#143 = CARTESIAN_POINT ( 'NONE',  ( 0.06250000000000000000, 7.654042494670956004E-18, 1.485000000000000764 ) ) ;
#144 = AXIS2_PLACEMENT_3D ( 'NONE', #96, #214, #210 ) ;
#145 = FACE_OUTER_BOUND ( 'NONE', #39, .T. ) ;
#146 = CARTESIAN_POINT ( 'NONE',  ( 3.703390512866948185E-17, 0.0000000000000000000, 0.3024047844199154178 ) ) ;
#147 = LINE ( 'NONE', #171, #274 ) ;
#148 = PRODUCT_CONTEXT ( 'NONE', #255, 'mechanical' ) ;
#149 = SURFACE_SIDE_STYLE ('',( #58 ) ) ;
#150 = AXIS2_PLACEMENT_3D ( 'NONE', #107, #266, #219 ) ;
#151 = EDGE_CURVE ( 'NONE', #163, #183, #147, .T. ) ;
#152 = DIRECTION ( 'NONE',  ( -1.224646799147353454E-16, -0.0000000000000000000, -1.000000000000000000 ) ) ;
#153 = CARTESIAN_POINT ( 'NONE',  ( 0.0000000000000000000, 0.0000000000000000000, 0.0000000000000000000 ) ) ;
#154 = DIMENSIONAL_EXPONENTS ( 1.000000000000000000, 0.0000000000000000000, 0.0000000000000000000, 0.0000000000000000000, 0.0000000000000000000, 0.0000000000000000000, 0.0000000000000000000 ) ;
#155 = AXIS2_PLACEMENT_3D ( 'NONE', #234, #11, #125 ) ;
#156 = FACE_OUTER_BOUND ( 'NONE', #129, .T. ) ;
#157 = DIRECTION ( 'NONE',  ( -0.0000000000000000000, -0.0000000000000000000, -1.000000000000000000 ) ) ;
#158 = UNCERTAINTY_MEASURE_WITH_UNIT (LENGTH_MEASURE( 1.000000000000000082E-05 ), #30, 'distance_accuracy_value', 'NONE');
#159 = CIRCLE ( 'NONE', #195, 0.03121874999999999997 ) ;
#160 = ORIENTED_EDGE ( 'NONE', *, *, #12, .T. ) ;
#161 = EDGE_LOOP ( 'NONE', ( #207, #67, #229, #267 ) ) ;
#162 = PRODUCT_DEFINITION_SHAPE ( 'NONE', 'NONE',  #41 ) ;
#163 = VERTEX_POINT ( 'NONE', #31 ) ;
#164 = AXIS2_PLACEMENT_3D ( 'NONE', #45, #291, #268 ) ;
#165 = PRODUCT ( 'Micro_SEM-062-02', 'Micro_SEM-062-02', '', ( #148 ) ) ;
#166 = LINE ( 'NONE', #230, #8 ) ;
#167 = DIRECTION ( 'NONE',  ( -1.000000000000000000, 0.0000000000000000000, 0.0000000000000000000 ) ) ;
#168 = DIRECTION ( 'NONE',  ( -1.000000000000000000, 0.0000000000000000000, 0.0000000000000000000 ) ) ;
#169 = PRODUCT_DEFINITION_CONTEXT ( 'detailed design', #89, 'design' ) ;
#170 = VECTOR ( 'NONE', #131, 39.37007874015748143 ) ;
#171 = CARTESIAN_POINT ( 'NONE',  ( -0.04750000000000064587, 0.0000000000000000000, 1.500000000000000222 ) ) ;
#172 = DIRECTION ( 'NONE',  ( 1.000000000000000000, 0.0000000000000000000, 0.0000000000000000000 ) ) ;
#173 = DIRECTION ( 'NONE',  ( 1.000000000000000000, 0.0000000000000000000, 0.0000000000000000000 ) ) ;
#174 = CARTESIAN_POINT ( 'NONE',  ( 0.03121874999999999997, 3.823194226088143687E-18, -4.739000847409537175E-34 ) ) ;
#175 = AXIS2_PLACEMENT_3D ( 'NONE', #189, #102, #172 ) ;
#176 =( GEOMETRIC_REPRESENTATION_CONTEXT ( 3 ) GLOBAL_UNCERTAINTY_ASSIGNED_CONTEXT ( ( #158 ) ) GLOBAL_UNIT_ASSIGNED_CONTEXT ( ( #30, #247, #142 ) ) REPRESENTATION_CONTEXT ( 'NONE', 'WORKASPACE' ) );
#177 = LINE ( 'NONE', #16, #170 ) ;
#178 = CYLINDRICAL_SURFACE ( 'NONE', #3, 0.03121875000000000691 ) ;
#179 = ORIENTED_EDGE ( 'NONE', *, *, #87, .F. ) ;
#180 = VERTEX_POINT ( 'NONE', #97 ) ;
#181 = CARTESIAN_POINT ( 'NONE',  ( 0.06250000000000002776, 7.654042494670959086E-18, 0.3024047844199154178 ) ) ;
#182 = UNCERTAINTY_MEASURE_WITH_UNIT (LENGTH_MEASURE( 1.000000000000000082E-05 ), #83, 'distance_accuracy_value', 'NONE');
#183 = VERTEX_POINT ( 'NONE', #236 ) ;
#184 = MECHANICAL_DESIGN_GEOMETRIC_PRESENTATION_REPRESENTATION (  '', ( #199 ), #72 ) ;
#185 = CONICAL_SURFACE ( 'NONE', #42, 0.04750000000000064587, 0.7853981633974457255 ) ;
#186 = CYLINDRICAL_SURFACE ( 'NONE', #228, 0.06250000000000000000 ) ;
#187 = DIRECTION ( 'NONE',  ( -1.224646799147353454E-16, -0.0000000000000000000, -1.000000000000000000 ) ) ;
#188 = APPLICATION_PROTOCOL_DEFINITION ( 'draft international standard', 'automotive_design', 1998, #255 ) ;
#189 = CARTESIAN_POINT ( 'NONE',  ( 0.0000000000000000000, 0.0000000000000000000, 1.500000000000000222 ) ) ;
#190 = EDGE_CURVE ( 'NONE', #163, #92, #238, .T. ) ;
#191 = DIRECTION ( 'NONE',  ( -0.1736481776669312194, 2.126576849575783625E-17, 0.9848077530122080203 ) ) ;
#192 = FACE_OUTER_BOUND ( 'NONE', #254, .T. ) ;
#193 = CARTESIAN_POINT ( 'NONE',  ( 0.04750000000000064587, 6.735557395310482421E-18, 1.500000000000000222 ) ) ;
#194 = SURFACE_STYLE_USAGE ( .BOTH. , #240 ) ;
#195 = AXIS2_PLACEMENT_3D ( 'NONE', #6, #187, #7 ) ;
#196 = FACE_OUTER_BOUND ( 'NONE', #49, .T. ) ;
#197 = EDGE_CURVE ( 'NONE', #68, #2, #100, .T. ) ;
#198 = CARTESIAN_POINT ( 'NONE',  ( 1.530808498934191817E-17, 0.0000000000000000000, 0.1250000000000000000 ) ) ;
#199 = STYLED_ITEM ( 'NONE', ( #57 ), #44 ) ;
#200 = CIRCLE ( 'NONE', #59, 0.06250000000000000000 ) ;
#201 = DIRECTION ( 'NONE',  ( 1.000000000000000000, 0.0000000000000000000, 0.0000000000000000000 ) ) ;
#202 = ORIENTED_EDGE ( 'NONE', *, *, #250, .F. ) ;
#203 = CONICAL_SURFACE ( 'NONE', #164, 0.03121875000000000691, 0.1745329251994339192 ) ;
#204 = ORIENTED_EDGE ( 'NONE', *, *, #62, .F. ) ;
#205 = EDGE_CURVE ( 'NONE', #180, #2, #285, .T. ) ;
#206 = ORIENTED_EDGE ( 'NONE', *, *, #197, .T. ) ;
#207 = ORIENTED_EDGE ( 'NONE', *, *, #223, .T. ) ;
#208 = AXIS2_PLACEMENT_3D ( 'NONE', #153, #126, #269 ) ;
#209 = MANIFOLD_SOLID_BREP ( 'Cut-Revolve1', #225 ) ;
#210 = DIRECTION ( 'NONE',  ( 1.000000000000000000, 0.0000000000000000000, 0.0000000000000000000 ) ) ;
#211 = CARTESIAN_POINT ( 'NONE',  ( -0.03121874999999999997, 0.0000000000000000000, 7.646388452176288915E-18 ) ) ;
#212 = COLOUR_RGB ( '',0.7921568627450980005, 0.8196078431372548767, 0.9333333333333333481 ) ;
#213 = VECTOR ( 'NONE', #54, 39.37007874015748143 ) ;
#214 = DIRECTION ( 'NONE',  ( 0.0000000000000000000, 0.0000000000000000000, 1.000000000000000000 ) ) ;
#215 = ADVANCED_FACE ( 'NONE', ( #156 ), #123, .T. ) ;
#216 = PLANE ( 'NONE',  #155 ) ;
#217 = ADVANCED_FACE ( 'NONE', ( #61 ), #178, .T. ) ;
#218 =( NAMED_UNIT ( * ) PLANE_ANGLE_UNIT ( ) SI_UNIT ( $, .RADIAN. ) );
#219 = DIRECTION ( 'NONE',  ( -1.000000000000000000, 0.0000000000000000000, 1.224646799147353700E-16 ) ) ;
#220 = ORIENTED_EDGE ( 'NONE', *, *, #205, .T. ) ;
#221 = DIRECTION ( 'NONE',  ( 0.0000000000000000000, 0.0000000000000000000, -1.000000000000000000 ) ) ;
#222 = CONICAL_SURFACE ( 'NONE', #28, 0.04750000000000064587, 0.7853981633974457255 ) ;
#223 = EDGE_CURVE ( 'NONE', #183, #137, #278, .T. ) ;
#224 = DIRECTION ( 'NONE',  ( -1.000000000000000000, 0.0000000000000000000, 0.0000000000000000000 ) ) ;
#225 = CLOSED_SHELL ( 'NONE', ( #217, #279, #65, #35, #290, #215, #5, #235, #270, #141 ) ) ;
#226 = ORIENTED_EDGE ( 'NONE', *, *, #112, .F. ) ;
#227 = ORIENTED_EDGE ( 'NONE', *, *, #112, .T. ) ;
#228 = AXIS2_PLACEMENT_3D ( 'NONE', #280, #157, #224 ) ;
#229 = ORIENTED_EDGE ( 'NONE', *, *, #197, .F. ) ;
#230 = CARTESIAN_POINT ( 'NONE',  ( -0.06250000000000000000, 0.0000000000000000000, 1.500000000000000222 ) ) ;
#231 = CARTESIAN_POINT ( 'NONE',  ( -0.03121874999999998956, 5.738618360379551386E-18, 0.1250000000000000000 ) ) ;
#232 = CARTESIAN_POINT ( 'NONE',  ( 0.03121875000000000691, 3.823194226088144458E-18, -3.823194226088144458E-18 ) ) ;
#233 = LENGTH_MEASURE_WITH_UNIT ( LENGTH_MEASURE( 0.02539999999999999897 ), #40 );
#234 = CARTESIAN_POINT ( 'NONE',  ( 0.0000000000000000000, 0.0000000000000000000, 0.0000000000000000000 ) ) ;
#235 = ADVANCED_FACE ( 'NONE', ( #293 ), #203, .T. ) ;
#236 = CARTESIAN_POINT ( 'NONE',  ( -0.06250000000000000000, 0.0000000000000000000, 1.485000000000000764 ) ) ;
#237 = CARTESIAN_POINT ( 'NONE',  ( 0.0000000000000000000, 0.0000000000000000000, 0.0000000000000000000 ) ) ;
#238 = CIRCLE ( 'NONE', #175, 0.04750000000000064587 ) ;
#239 = CARTESIAN_POINT ( 'NONE',  ( -0.03121874999999998956, 3.823194226088144458E-18, 0.1250000000000000000 ) ) ;
#240 = SURFACE_SIDE_STYLE ('',( #103 ) ) ;
#241 = CYLINDRICAL_SURFACE ( 'NONE', #63, 0.06250000000000000000 ) ;
#242 =( NAMED_UNIT ( * ) PLANE_ANGLE_UNIT ( ) SI_UNIT ( $, .RADIAN. ) );
#243 = DIRECTION ( 'NONE',  ( -1.224646799147353454E-16, -0.0000000000000000000, -1.000000000000000000 ) ) ;
#244 = DIRECTION ( 'NONE',  ( 1.000000000000000000, 0.0000000000000000000, 0.0000000000000000000 ) ) ;
#245 = CONICAL_SURFACE ( 'NONE', #289, 0.03121875000000000691, 0.1745329251994339192 ) ;
#246 = DIRECTION ( 'NONE',  ( 1.000000000000000000, 0.0000000000000000000, 0.0000000000000000000 ) ) ;
#247 =( NAMED_UNIT ( * ) PLANE_ANGLE_UNIT ( ) SI_UNIT ( $, .RADIAN. ) );
#248 = ORIENTED_EDGE ( 'NONE', *, *, #106, .T. ) ;
#249 = ORIENTED_EDGE ( 'NONE', *, *, #259, .F. ) ;
#250 = EDGE_CURVE ( 'NONE', #52, #69, #20, .T. ) ;
#251 = ORIENTED_EDGE ( 'NONE', *, *, #62, .T. ) ;
#252 = FACE_OUTER_BOUND ( 'NONE', #71, .T. ) ;
#253 = AXIS2_PLACEMENT_3D ( 'NONE', #29, #122, #56 ) ;
#254 = EDGE_LOOP ( 'NONE', ( #276, #277 ) ) ;
#255 = APPLICATION_CONTEXT ( 'automotive_design' ) ;
#256 = CARTESIAN_POINT ( 'NONE',  ( 0.03121875000000002426, 0.0000000000000000000, 0.1250000000000000000 ) ) ;
#257 = DIRECTION ( 'NONE',  ( -1.224646799147353454E-16, -0.0000000000000000000, -1.000000000000000000 ) ) ;
#258 = LINE ( 'NONE', #76, #213 ) ;
#259 = EDGE_CURVE ( 'NONE', #137, #2, #177, .T. ) ;
#260 = DIRECTION ( 'NONE',  ( 0.0000000000000000000, 0.0000000000000000000, 1.000000000000000000 ) ) ;
#261 = LINE ( 'NONE', #239, #9 ) ;
#262 = FILL_AREA_STYLE ('',( #283 ) ) ;
#263 = MECHANICAL_DESIGN_GEOMETRIC_PRESENTATION_REPRESENTATION (  '', ( #94 ), #24 ) ;
#264 = DIRECTION ( 'NONE',  ( 1.224646799147353454E-16, 0.0000000000000000000, 1.000000000000000000 ) ) ;
#265 = FILL_AREA_STYLE_COLOUR ( '', #212 ) ;
#266 = DIRECTION ( 'NONE',  ( -1.224646799147353454E-16, -0.0000000000000000000, -1.000000000000000000 ) ) ;
#267 = ORIENTED_EDGE ( 'NONE', *, *, #12, .F. ) ;
#268 = DIRECTION ( 'NONE',  ( 1.000000000000000000, 0.0000000000000000000, 0.0000000000000000000 ) ) ;
#269 = DIRECTION ( 'NONE',  ( -1.000000000000000000, 0.0000000000000000000, 1.224646799147353207E-16 ) ) ;
#270 = ADVANCED_FACE ( 'NONE', ( #110 ), #36, .T. ) ;
#271 = PRODUCT_DEFINITION_FORMATION_WITH_SPECIFIED_SOURCE ( 'ANY', '', #165, .NOT_KNOWN. ) ;
#272 = ORIENTED_EDGE ( 'NONE', *, *, #190, .T. ) ;
#273 = EDGE_CURVE ( 'NONE', #299, #69, #81, .T. ) ;
#274 = VECTOR ( 'NONE', #281, 39.37007874015748143 ) ;
#275 = ORIENTED_EDGE ( 'NONE', *, *, #205, .F. ) ;
#276 = ORIENTED_EDGE ( 'NONE', *, *, #133, .T. ) ;
#277 = ORIENTED_EDGE ( 'NONE', *, *, #273, .T. ) ;
#278 = CIRCLE ( 'NONE', #46, 0.06250000000000000000 ) ;
#279 = ADVANCED_FACE ( 'NONE', ( #196 ), #245, .T. ) ;
#280 = CARTESIAN_POINT ( 'NONE',  ( 0.0000000000000000000, 0.0000000000000000000, 1.500000000000000222 ) ) ;
#281 = DIRECTION ( 'NONE',  ( -0.7071067811865456854, 0.0000000000000000000, -0.7071067811865493491 ) ) ;
#282 = UNCERTAINTY_MEASURE_WITH_UNIT (LENGTH_MEASURE( 1.000000000000000082E-05 ), #98, 'distance_accuracy_value', 'NONE');
#283 = FILL_AREA_STYLE_COLOUR ( '', #295 ) ;
#284 = PRODUCT_RELATED_PRODUCT_CATEGORY ( 'part', '', ( #165 ) ) ;
#285 = LINE ( 'NONE', #256, #130 ) ;
#286 = DIRECTION ( 'NONE',  ( -1.224646799147353454E-16, -0.0000000000000000000, -1.000000000000000000 ) ) ;
#287 = LENGTH_MEASURE_WITH_UNIT ( LENGTH_MEASURE( 0.02539999999999999897 ), #13 );
#288 = DIRECTION ( 'NONE',  ( -1.000000000000000000, 0.0000000000000000000, 0.0000000000000000000 ) ) ;
#289 = AXIS2_PLACEMENT_3D ( 'NONE', #198, #264, #244 ) ;
#290 = ADVANCED_FACE ( 'NONE', ( #19 ), #241, .T. ) ;
#291 = DIRECTION ( 'NONE',  ( 1.224646799147353454E-16, 0.0000000000000000000, 1.000000000000000000 ) ) ;
#292 = EDGE_LOOP ( 'NONE', ( #249, #48, #160, #204 ) ) ;
#293 = FACE_OUTER_BOUND ( 'NONE', #109, .T. ) ;
#294 = CARTESIAN_POINT ( 'NONE',  ( 0.0000000000000000000, 0.0000000000000000000, 1.500000000000000222 ) ) ;
#295 = COLOUR_RGB ( '',0.7921568627450980005, 0.8196078431372548767, 0.9333333333333333481 ) ;
#296 = ORIENTED_EDGE ( 'NONE', *, *, #120, .T. ) ;
#297 = ORIENTED_EDGE ( 'NONE', *, *, #127, .T. ) ;
#298 = VECTOR ( 'NONE', #243, 39.37007874015748143 ) ;
#299 = VERTEX_POINT ( 'NONE', #174 ) ;
ENDSEC;
END-ISO-10303-21;
