ISO-10303-21;
HEADER;
FILE_DESCRIPTION (( 'STEP AP214' ),
    '1' );
FILE_NAME ('03165.STEP',
    '2023-06-22T14:59:57',
    ( '' ),
    ( '' ),
    'SwSTEP 2.0',
    'SolidWorks 2023',
    '' );
FILE_SCHEMA (( 'AUTOMOTIVE_DESIGN' ));
ENDSEC;

DATA;
#1 = PRODUCT ( '03165', '03165', '', ( #155 ) ) ;
#2 = AXIS2_PLACEMENT_3D ( 'NONE', #3, #139, #53 ) ;
#3 = CARTESIAN_POINT ( 'NONE',  ( 0.000000000000000000, 0.000000000000000000, 0.000000000000000000 ) ) ;
#4 = VERTEX_POINT ( 'NONE', #257 ) ;
#5 =( NAMED_UNIT ( * ) SI_UNIT ( $, .STERADIAN. ) SOLID_ANGLE_UNIT ( ) );
#6 = STYLED_ITEM ( 'NONE', ( #212 ), #94 ) ;
#7 =( GEOMETRIC_REPRESENTATION_CONTEXT ( 3 ) GLOBAL_UNCERTAINTY_ASSIGNED_CONTEXT ( ( #265 ) ) GLOBAL_UNIT_ASSIGNED_CONTEXT ( ( #293, #60, #145 ) ) REPRESENTATION_CONTEXT ( 'NONE', 'WORKASPACE' ) );
#8 = DIRECTION ( 'NONE',  ( -1.000000000000000000, 0.000000000000000000, 0.000000000000000000 ) ) ;
#9 = FACE_OUTER_BOUND ( 'NONE', #115, .T. ) ;
#10 = DIRECTION ( 'NONE',  ( 0.000000000000000000, 0.000000000000000000, -1.000000000000000000 ) ) ;
#11 = VERTEX_POINT ( 'NONE', #200 ) ;
#12 = APPLICATION_CONTEXT ( 'automotive_design' ) ;
#13 = SURFACE_SIDE_STYLE ('',( #240 ) ) ;
#14 = SURFACE_STYLE_USAGE ( .BOTH. , #304 ) ;
#15 = MANIFOLD_SOLID_BREP ( 'Revolve - Tool Body (Straight Shanked)', #306 ) ;
#16 = CARTESIAN_POINT ( 'NONE',  ( -7.582401355855259480E-33, 0.7499999999999998890, 0.000000000000000000 ) ) ;
#17 = CARTESIAN_POINT ( 'NONE',  ( 0.000000000000000000, 0.000000000000000000, -0.1250000000000000000 ) ) ;
#18 = FILL_AREA_STYLE_COLOUR ( '', #45 ) ;
#19 = FACE_OUTER_BOUND ( 'NONE', #198, .T. ) ;
#20 = DIMENSIONAL_EXPONENTS ( 1.000000000000000000, 0.000000000000000000, 0.000000000000000000, 0.000000000000000000, 0.000000000000000000, 0.000000000000000000, 0.000000000000000000 ) ;
#21 = DIRECTION ( 'NONE',  ( -3.498990854706722745E-17, 1.000000000000000000, -0.000000000000000000 ) ) ;
#22 = ORIENTED_EDGE ( 'NONE', *, *, #149, .T. ) ;
#23 =( GEOMETRIC_REPRESENTATION_CONTEXT ( 3 ) GLOBAL_UNCERTAINTY_ASSIGNED_CONTEXT ( ( #252 ) ) GLOBAL_UNIT_ASSIGNED_CONTEXT ( ( #179, #254, #307 ) ) REPRESENTATION_CONTEXT ( 'NONE', 'WORKASPACE' ) );
#24 = LENGTH_MEASURE_WITH_UNIT ( LENGTH_MEASURE( 0.02539999999999999897 ), #65 );
#25 = DIRECTION ( 'NONE',  ( 0.000000000000000000, 1.000000000000000000, 0.000000000000000000 ) ) ;
#26 = EDGE_CURVE ( 'NONE', #133, #119, #29, .T. ) ;
#27 = AXIS2_PLACEMENT_3D ( 'NONE', #69, #205, #300 ) ;
#28 = DIRECTION ( 'NONE',  ( 0.000000000000000000, 0.000000000000000000, -1.000000000000000000 ) ) ;
#29 = CIRCLE ( 'NONE', #58, 0.1250000000000000000 ) ;
#30 =( LENGTH_UNIT ( ) NAMED_UNIT ( * ) SI_UNIT ( $, .METRE. ) );
#31 = FACE_OUTER_BOUND ( 'NONE', #97, .T. ) ;
#32 = PRESENTATION_LAYER_ASSIGNMENT (  '', '', ( #98 ) ) ;
#33 = ORIENTED_EDGE ( 'NONE', *, *, #70, .T. ) ;
#34 = PLANE ( 'NONE',  #263 ) ;
#35 = ADVANCED_FACE ( 'NONE', ( #206 ), #303, .T. ) ;
#36 = LENGTH_MEASURE_WITH_UNIT ( LENGTH_MEASURE( 0.02539999999999999897 ), #138 );
#37 = FILL_AREA_STYLE_COLOUR ( '', #181 ) ;
#38 = UNCERTAINTY_MEASURE_WITH_UNIT (LENGTH_MEASURE( 1.000000000000000082E-05 ), #268, 'distance_accuracy_value', 'NONE');
#39 = CARTESIAN_POINT ( 'NONE',  ( 1.530808498934191509E-17, 0.000000000000000000, 0.1250000000000000000 ) ) ;
#40 = ORIENTED_EDGE ( 'NONE', *, *, #42, .F. ) ;
#41 = CARTESIAN_POINT ( 'NONE',  ( 0.000000000000000000, 0.7500000000000001110, 0.000000000000000000 ) ) ;
#42 = EDGE_CURVE ( 'NONE', #11, #164, #62, .T. ) ;
#43 = ORIENTED_EDGE ( 'NONE', *, *, #309, .F. ) ;
#44 = DIRECTION ( 'NONE',  ( -3.498990854706722745E-17, 1.000000000000000000, -0.000000000000000000 ) ) ;
#45 = COLOUR_RGB ( '',1.000000000000000000, 0.000000000000000000, 0.000000000000000000 ) ;
#46 = EDGE_CURVE ( 'NONE', #11, #190, #244, .T. ) ;
#47 = DIRECTION ( 'NONE',  ( 0.000000000000000000, 0.000000000000000000, -1.000000000000000000 ) ) ;
#48 = ADVANCED_FACE ( 'NONE', ( #9 ), #34, .F. ) ;
#49 = EDGE_LOOP ( 'NONE', ( #56, #194, #242, #55 ) ) ;
#50 = ORIENTED_EDGE ( 'NONE', *, *, #213, .F. ) ;
#51 = FILL_AREA_STYLE ('',( #267 ) ) ;
#52 = VECTOR ( 'NONE', #157, 39.37007874015748143 ) ;
#53 = DIRECTION ( 'NONE',  ( 0.000000000000000000, 0.000000000000000000, -1.000000000000000000 ) ) ;
#54 = CARTESIAN_POINT ( 'NONE',  ( -0.1250000000000001110, 2.500000000000000000, 0.000000000000000000 ) ) ;
#55 = ORIENTED_EDGE ( 'NONE', *, *, #149, .F. ) ;
#56 = ORIENTED_EDGE ( 'NONE', *, *, #283, .T. ) ;
#57 = PLANE ( 'NONE',  #124 ) ;
#58 = AXIS2_PLACEMENT_3D ( 'NONE', #204, #297, #249 ) ;
#59 = AXIS2_PLACEMENT_3D ( 'NONE', #180, #281, #71 ) ;
#60 =( NAMED_UNIT ( * ) PLANE_ANGLE_UNIT ( ) SI_UNIT ( $, .RADIAN. ) );
#61 =( NAMED_UNIT ( * ) PLANE_ANGLE_UNIT ( ) SI_UNIT ( $, .RADIAN. ) );
#62 = LINE ( 'NONE', #288, #210 ) ;
#63 = DIRECTION ( 'NONE',  ( -0.000000000000000000, -1.000000000000000000, -0.000000000000000000 ) ) ;
#64 = ORIENTED_EDGE ( 'NONE', *, *, #218, .T. ) ;
#65 =( LENGTH_UNIT ( ) NAMED_UNIT ( * ) SI_UNIT ( $, .METRE. ) );
#66 = STYLED_ITEM ( 'NONE', ( #284 ), #185 ) ;
#67 =( LENGTH_UNIT ( ) NAMED_UNIT ( * ) SI_UNIT ( $, .METRE. ) );
#68 = COLOUR_RGB ( '',1.000000000000000000, 0.000000000000000000, 0.000000000000000000 ) ;
#69 = CARTESIAN_POINT ( 'NONE',  ( -6.123233995736766036E-17, 2.500000000000000000, 0.000000000000000000 ) ) ;
#70 = EDGE_CURVE ( 'NONE', #119, #133, #166, .T. ) ;
#71 = DIRECTION ( 'NONE',  ( 1.000000000000000000, 0.000000000000000000, 0.000000000000000000 ) ) ;
#72 = DIMENSIONAL_EXPONENTS ( 1.000000000000000000, 0.000000000000000000, 0.000000000000000000, 0.000000000000000000, 0.000000000000000000, 0.000000000000000000, 0.000000000000000000 ) ;
#73 = LINE ( 'NONE', #39, #52 ) ;
#74 =( GEOMETRIC_REPRESENTATION_CONTEXT ( 3 ) GLOBAL_UNCERTAINTY_ASSIGNED_CONTEXT ( ( #38 ) ) GLOBAL_UNIT_ASSIGNED_CONTEXT ( ( #268, #176, #117 ) ) REPRESENTATION_CONTEXT ( 'NONE', 'WORKASPACE' ) );
#75 = UNCERTAINTY_MEASURE_WITH_UNIT (LENGTH_MEASURE( 1.000000000000000082E-05 ), #156, 'distance_accuracy_value', 'NONE');
#76 = MECHANICAL_DESIGN_GEOMETRIC_PRESENTATION_REPRESENTATION (  '', ( #98 ), #87 ) ;
#77 = PRESENTATION_LAYER_ASSIGNMENT (  '', '', ( #99 ) ) ;
#78 = EDGE_CURVE ( 'NONE', #4, #259, #135, .T. ) ;
#79 = CARTESIAN_POINT ( 'NONE',  ( 0.000000000000000000, 0.000000000000000000, 0.000000000000000000 ) ) ;
#80 = UNCERTAINTY_MEASURE_WITH_UNIT (LENGTH_MEASURE( 1.000000000000000082E-05 ), #165, 'distance_accuracy_value', 'NONE');
#81 = PRESENTATION_STYLE_ASSIGNMENT (( #100 ) ) ;
#82 = AXIS2_PLACEMENT_3D ( 'NONE', #250, #44, #126 ) ;
#83 = MECHANICAL_DESIGN_GEOMETRIC_PRESENTATION_REPRESENTATION (  '', ( #99 ), #74 ) ;
#84 = UNCERTAINTY_MEASURE_WITH_UNIT (LENGTH_MEASURE( 1.000000000000000082E-05 ), #278, 'distance_accuracy_value', 'NONE');
#85 = PLANE ( 'NONE',  #175 ) ;
#86 = CARTESIAN_POINT ( 'NONE',  ( 0.000000000000000000, 0.000000000000000000, 0.000000000000000000 ) ) ;
#87 =( GEOMETRIC_REPRESENTATION_CONTEXT ( 3 ) GLOBAL_UNCERTAINTY_ASSIGNED_CONTEXT ( ( #75 ) ) GLOBAL_UNIT_ASSIGNED_CONTEXT ( ( #156, #148, #121 ) ) REPRESENTATION_CONTEXT ( 'NONE', 'WORKASPACE' ) );
#88 = SURFACE_SIDE_STYLE ('',( #251 ) ) ;
#89 = CARTESIAN_POINT ( 'NONE',  ( -0.1250000000000001110, 2.500000000000000000, 0.000000000000000000 ) ) ;
#90 = PRESENTATION_STYLE_ASSIGNMENT (( #282 ) ) ;
#91 = APPLICATION_CONTEXT ( 'automotive_design' ) ;
#92 = CIRCLE ( 'NONE', #237, 0.1250000000000000555 ) ;
#93 = SURFACE_SIDE_STYLE ('',( #308 ) ) ;
#94 = ADVANCED_FACE ( 'NONE', ( #132 ), #57, .T. ) ;
#95 = APPLICATION_PROTOCOL_DEFINITION ( 'draft international standard', 'automotive_design', 1998, #91 ) ;
#96 = CIRCLE ( 'NONE', #144, 0.1250000000000000278 ) ;
#97 = EDGE_LOOP ( 'NONE', ( #64, #271 ) ) ;
#98 = STYLED_ITEM ( 'NONE', ( #277 ), #15 ) ;
#99 = STYLED_ITEM ( 'NONE', ( #81 ), #286 ) ;
#100 = SURFACE_STYLE_USAGE ( .BOTH. , #13 ) ;
#101 = DIRECTION ( 'NONE',  ( -0.000000000000000000, -1.000000000000000000, -0.000000000000000000 ) ) ;
#102 = PRESENTATION_LAYER_ASSIGNMENT (  '', '', ( #131 ) ) ;
#103 = DIRECTION ( 'NONE',  ( -3.498990854706722745E-17, 1.000000000000000000, -0.000000000000000000 ) ) ;
#104 = CYLINDRICAL_SURFACE ( 'NONE', #27, 0.1250000000000000278 ) ;
#105 = CARTESIAN_POINT ( 'NONE',  ( 0.1250000000000000000, 2.500000000000000000, 1.530808498934192125E-17 ) ) ;
#106 = FACE_OUTER_BOUND ( 'NONE', #291, .T. ) ;
#107 = MECHANICAL_DESIGN_GEOMETRIC_PRESENTATION_REPRESENTATION (  '', ( #131 ), #129 ) ;
#108 =( LENGTH_UNIT ( ) NAMED_UNIT ( * ) SI_UNIT ( $, .METRE. ) );
#109 = PRESENTATION_LAYER_ASSIGNMENT (  '', '', ( #211 ) ) ;
#110 = FILL_AREA_STYLE_COLOUR ( '', #195 ) ;
#111 = EDGE_CURVE ( 'NONE', #4, #119, #73, .T. ) ;
#112 = DIRECTION ( 'NONE',  ( -0.000000000000000000, -1.000000000000000000, -0.000000000000000000 ) ) ;
#113 = AXIS2_PLACEMENT_3D ( 'NONE', #86, #170, #28 ) ;
#114 = FILL_AREA_STYLE_COLOUR ( '', #68 ) ;
#115 = EDGE_LOOP ( 'NONE', ( #264, #289 ) ) ;
#116 = DIRECTION ( 'NONE',  ( -3.498990854706722745E-17, 1.000000000000000000, -0.000000000000000000 ) ) ;
#117 =( NAMED_UNIT ( * ) SI_UNIT ( $, .STERADIAN. ) SOLID_ANGLE_UNIT ( ) );
#118 = LENGTH_MEASURE_WITH_UNIT ( LENGTH_MEASURE( 0.02539999999999999897 ), #261 );
#119 = VERTEX_POINT ( 'NONE', #233 ) ;
#120 = DIRECTION ( 'NONE',  ( -3.498990854706722745E-17, 1.000000000000000000, -0.000000000000000000 ) ) ;
#121 =( NAMED_UNIT ( * ) SI_UNIT ( $, .STERADIAN. ) SOLID_ANGLE_UNIT ( ) );
#122 =( NAMED_UNIT ( * ) SI_UNIT ( $, .STERADIAN. ) SOLID_ANGLE_UNIT ( ) );
#123 = LINE ( 'NONE', #232, #154 ) ;
#124 = AXIS2_PLACEMENT_3D ( 'NONE', #41, #25, #258 ) ;
#125 = COLOUR_RGB ( '',0.7921568627450980005, 0.8196078431372548767, 0.9333333333333333481 ) ;
#126 = DIRECTION ( 'NONE',  ( -1.000000000000000000, 0.000000000000000000, 0.000000000000000000 ) ) ;
#127 = DIMENSIONAL_EXPONENTS ( 1.000000000000000000, 0.000000000000000000, 0.000000000000000000, 0.000000000000000000, 0.000000000000000000, 0.000000000000000000, 0.000000000000000000 ) ;
#128 = CYLINDRICAL_SURFACE ( 'NONE', #2, 0.1250000000000000000 ) ;
#129 =( GEOMETRIC_REPRESENTATION_CONTEXT ( 3 ) GLOBAL_UNCERTAINTY_ASSIGNED_CONTEXT ( ( #183 ) ) GLOBAL_UNIT_ASSIGNED_CONTEXT ( ( #279, #61, #122 ) ) REPRESENTATION_CONTEXT ( 'NONE', 'WORKASPACE' ) );
#130 = ADVANCED_FACE ( 'NONE', ( #106 ), #177, .T. ) ;
#131 = STYLED_ITEM ( 'NONE', ( #90 ), #35 ) ;
#132 = FACE_OUTER_BOUND ( 'NONE', #169, .T. ) ;
#133 = VERTEX_POINT ( 'NONE', #17 ) ;
#134 = ORIENTED_EDGE ( 'NONE', *, *, #256, .T. ) ;
#135 = CIRCLE ( 'NONE', #280, 0.1250000000000000278 ) ;
#136 = SURFACE_STYLE_USAGE ( .BOTH. , #294 ) ;
#137 = SURFACE_STYLE_FILL_AREA ( #51 ) ;
#138 =( LENGTH_UNIT ( ) NAMED_UNIT ( * ) SI_UNIT ( $, .METRE. ) );
#139 = DIRECTION ( 'NONE',  ( -0.000000000000000000, -1.000000000000000000, -0.000000000000000000 ) ) ;
#140 = ORIENTED_EDGE ( 'NONE', *, *, #218, .F. ) ;
#141 = DIMENSIONAL_EXPONENTS ( 1.000000000000000000, 0.000000000000000000, 0.000000000000000000, 0.000000000000000000, 0.000000000000000000, 0.000000000000000000, 0.000000000000000000 ) ;
#142 = DIRECTION ( 'NONE',  ( -3.498990854706722745E-17, 1.000000000000000000, -0.000000000000000000 ) ) ;
#143 = COLOUR_RGB ( '',1.000000000000000000, 0.000000000000000000, 0.000000000000000000 ) ;
#144 = AXIS2_PLACEMENT_3D ( 'NONE', #270, #222, #219 ) ;
#145 =( NAMED_UNIT ( * ) SI_UNIT ( $, .STERADIAN. ) SOLID_ANGLE_UNIT ( ) );
#146 = SURFACE_STYLE_FILL_AREA ( #172 ) ;
#147 = FILL_AREA_STYLE ('',( #236 ) ) ;
#148 =( NAMED_UNIT ( * ) PLANE_ANGLE_UNIT ( ) SI_UNIT ( $, .RADIAN. ) );
#149 = EDGE_CURVE ( 'NONE', #259, #133, #123, .T. ) ;
#150 = LENGTH_MEASURE_WITH_UNIT ( LENGTH_MEASURE( 0.02539999999999999897 ), #153 );
#151 =( NAMED_UNIT ( * ) PLANE_ANGLE_UNIT ( ) SI_UNIT ( $, .RADIAN. ) );
#152 = ORIENTED_EDGE ( 'NONE', *, *, #111, .F. ) ;
#153 =( LENGTH_UNIT ( ) NAMED_UNIT ( * ) SI_UNIT ( $, .METRE. ) );
#154 = VECTOR ( 'NONE', #63, 39.37007874015748143 ) ;
#155 = PRODUCT_CONTEXT ( 'NONE', #12, 'mechanical' ) ;
#156 =( CONVERSION_BASED_UNIT ( 'INCH', #208 ) LENGTH_UNIT ( ) NAMED_UNIT ( #305 ) );
#157 = DIRECTION ( 'NONE',  ( -0.000000000000000000, -1.000000000000000000, -0.000000000000000000 ) ) ;
#158 = ADVANCED_FACE ( 'NONE', ( #260 ), #104, .T. ) ;
#159 = AXIS2_PLACEMENT_3D ( 'NONE', #292, #191, #290 ) ;
#160 = MECHANICAL_DESIGN_GEOMETRIC_PRESENTATION_REPRESENTATION (  '', ( #211 ), #7 ) ;
#161 = SHAPE_DEFINITION_REPRESENTATION ( #262, #162 ) ;
#162 = ADVANCED_BREP_SHAPE_REPRESENTATION ( '03165', ( #221, #15, #59 ), #188 ) ;
#163 = ORIENTED_EDGE ( 'NONE', *, *, #70, .F. ) ;
#164 = VERTEX_POINT ( 'NONE', #105 ) ;
#165 =( CONVERSION_BASED_UNIT ( 'INCH', #118 ) LENGTH_UNIT ( ) NAMED_UNIT ( #20 ) );
#166 = CIRCLE ( 'NONE', #113, 0.1250000000000000000 ) ;
#167 = CARTESIAN_POINT ( 'NONE',  ( -6.123233995736766036E-17, 2.500000000000000000, 0.000000000000000000 ) ) ;
#168 = CARTESIAN_POINT ( 'NONE',  ( 0.000000000000000000, 0.000000000000000000, 0.000000000000000000 ) ) ;
#169 = EDGE_LOOP ( 'NONE', ( #197, #238 ) ) ;
#170 = DIRECTION ( 'NONE',  ( -0.000000000000000000, -1.000000000000000000, -0.000000000000000000 ) ) ;
#171 = FILL_AREA_STYLE ('',( #114 ) ) ;
#172 = FILL_AREA_STYLE ('',( #37 ) ) ;
#173 = CARTESIAN_POINT ( 'NONE',  ( 0.000000000000000000, 0.7500000000000001110, 0.000000000000000000 ) ) ;
#174 = CIRCLE ( 'NONE', #245, 0.1250000000000000555 ) ;
#175 = AXIS2_PLACEMENT_3D ( 'NONE', #168, #272, #10 ) ;
#176 =( NAMED_UNIT ( * ) PLANE_ANGLE_UNIT ( ) SI_UNIT ( $, .RADIAN. ) );
#177 = CYLINDRICAL_SURFACE ( 'NONE', #82, 0.1250000000000000278 ) ;
#178 = APPLICATION_PROTOCOL_DEFINITION ( 'draft international standard', 'automotive_design', 1998, #12 ) ;
#179 =( CONVERSION_BASED_UNIT ( 'INCH', #150 ) LENGTH_UNIT ( ) NAMED_UNIT ( #302 ) );
#180 = CARTESIAN_POINT ( 'NONE',  ( 0.000000000000000000, 0.000000000000000000, 0.000000000000000000 ) ) ;
#181 = COLOUR_RGB ( '',0.7921568627450980005, 0.8196078431372548767, 0.9333333333333333481 ) ;
#182 = CIRCLE ( 'NONE', #214, 0.1250000000000000278 ) ;
#183 = UNCERTAINTY_MEASURE_WITH_UNIT (LENGTH_MEASURE( 1.000000000000000082E-05 ), #279, 'distance_accuracy_value', 'NONE');
#184 = SURFACE_STYLE_USAGE ( .BOTH. , #93 ) ;
#185 = ADVANCED_FACE ( 'NONE', ( #19 ), #128, .T. ) ;
#186 = CARTESIAN_POINT ( 'NONE',  ( 7.651835625825803009E-35, 0.7500000000000001110, 0.000000000000000000 ) ) ;
#187 = MECHANICAL_DESIGN_GEOMETRIC_PRESENTATION_REPRESENTATION (  '', ( #6 ), #23 ) ;
#188 =( GEOMETRIC_REPRESENTATION_CONTEXT ( 3 ) GLOBAL_UNCERTAINTY_ASSIGNED_CONTEXT ( ( #84 ) ) GLOBAL_UNIT_ASSIGNED_CONTEXT ( ( #278, #151, #301 ) ) REPRESENTATION_CONTEXT ( 'NONE', 'WORKASPACE' ) );
#189 = ADVANCED_FACE ( 'NONE', ( #31 ), #243, .F. ) ;
#190 = VERTEX_POINT ( 'NONE', #217 ) ;
#191 = DIRECTION ( 'NONE',  ( 3.498990854706722745E-17, -1.000000000000000000, 0.000000000000000000 ) ) ;
#192 = ORIENTED_EDGE ( 'NONE', *, *, #78, .T. ) ;
#193 = CARTESIAN_POINT ( 'NONE',  ( -6.123233995736766036E-17, 2.500000000000000000, 0.000000000000000000 ) ) ;
#194 = ORIENTED_EDGE ( 'NONE', *, *, #111, .T. ) ;
#195 = COLOUR_RGB ( '',1.000000000000000000, 0.000000000000000000, 0.000000000000000000 ) ;
#196 = VECTOR ( 'NONE', #21, 39.37007874015748143 ) ;
#197 = ORIENTED_EDGE ( 'NONE', *, *, #283, .F. ) ;
#198 = EDGE_LOOP ( 'NONE', ( #152, #192, #22, #163 ) ) ;
#199 = DIRECTION ( 'NONE',  ( -1.000000000000000000, 0.000000000000000000, 0.000000000000000000 ) ) ;
#200 = CARTESIAN_POINT ( 'NONE',  ( 0.1250000000000000278, 0.7499999999999998890, 1.530808498934192125E-17 ) ) ;
#201 = AXIS2_PLACEMENT_3D ( 'NONE', #79, #101, #47 ) ;
#202 = DIRECTION ( 'NONE',  ( -1.000000000000000000, -3.498990854706722745E-17, 0.000000000000000000 ) ) ;
#203 = DIRECTION ( 'NONE',  ( -1.000000000000000000, 0.000000000000000000, 0.000000000000000000 ) ) ;
#204 = CARTESIAN_POINT ( 'NONE',  ( 0.000000000000000000, 0.000000000000000000, 0.000000000000000000 ) ) ;
#205 = DIRECTION ( 'NONE',  ( -3.498990854706722745E-17, 1.000000000000000000, -0.000000000000000000 ) ) ;
#206 = FACE_OUTER_BOUND ( 'NONE', #49, .T. ) ;
#207 = DIMENSIONAL_EXPONENTS ( 1.000000000000000000, 0.000000000000000000, 0.000000000000000000, 0.000000000000000000, 0.000000000000000000, 0.000000000000000000, 0.000000000000000000 ) ;
#208 = LENGTH_MEASURE_WITH_UNIT ( LENGTH_MEASURE( 0.02539999999999999897 ), #67 );
#209 = PRESENTATION_LAYER_ASSIGNMENT (  '', '', ( #66 ) ) ;
#210 = VECTOR ( 'NONE', #142, 39.37007874015748143 ) ;
#211 = STYLED_ITEM ( 'NONE', ( #241 ), #221 ) ;
#212 = PRESENTATION_STYLE_ASSIGNMENT (( #229 ) ) ;
#213 = EDGE_CURVE ( 'NONE', #164, #225, #92, .T. ) ;
#214 = AXIS2_PLACEMENT_3D ( 'NONE', #16, #103, #203 ) ;
#215 = EDGE_LOOP ( 'NONE', ( #40, #269, #266, #50 ) ) ;
#216 = DIRECTION ( 'NONE',  ( -1.000000000000000000, 0.000000000000000000, 0.000000000000000000 ) ) ;
#217 = CARTESIAN_POINT ( 'NONE',  ( -0.1250000000000000278, 0.7499999999999998890, 0.000000000000000000 ) ) ;
#218 = EDGE_CURVE ( 'NONE', #225, #164, #174, .T. ) ;
#219 = DIRECTION ( 'NONE',  ( 0.000000000000000000, 0.000000000000000000, -1.000000000000000000 ) ) ;
#220 =( NAMED_UNIT ( * ) PLANE_ANGLE_UNIT ( ) SI_UNIT ( $, .RADIAN. ) );
#221 = MANIFOLD_SOLID_BREP ( 'Revolve - Cutting Edge', #253 ) ;
#222 = DIRECTION ( 'NONE',  ( -0.000000000000000000, -1.000000000000000000, -0.000000000000000000 ) ) ;
#223 = DIRECTION ( 'NONE',  ( -3.498990854706722745E-17, 1.000000000000000000, -0.000000000000000000 ) ) ;
#224 = CARTESIAN_POINT ( 'NONE',  ( 0.000000000000000000, 0.7500000000000001110, -0.1250000000000000278 ) ) ;
#225 = VERTEX_POINT ( 'NONE', #54 ) ;
#226 = PRODUCT_DEFINITION ( 'UNKNOWN', '', #255, #299 ) ;
#227 = CARTESIAN_POINT ( 'NONE',  ( -7.582401355855259480E-33, 0.7499999999999998890, 0.000000000000000000 ) ) ;
#228 = FACE_OUTER_BOUND ( 'NONE', #295, .T. ) ;
#229 = SURFACE_STYLE_USAGE ( .BOTH. , #276 ) ;
#230 = LENGTH_MEASURE_WITH_UNIT ( LENGTH_MEASURE( 0.02539999999999999897 ), #30 );
#231 = ORIENTED_EDGE ( 'NONE', *, *, #42, .T. ) ;
#232 = CARTESIAN_POINT ( 'NONE',  ( 0.000000000000000000, 0.000000000000000000, -0.1250000000000000000 ) ) ;
#233 = CARTESIAN_POINT ( 'NONE',  ( 1.530808498934191509E-17, 0.000000000000000000, 0.1250000000000000000 ) ) ;
#234 = FILL_AREA_STYLE ('',( #18 ) ) ;
#235 = FILL_AREA_STYLE ('',( #110 ) ) ;
#236 = FILL_AREA_STYLE_COLOUR ( '', #143 ) ;
#237 = AXIS2_PLACEMENT_3D ( 'NONE', #193, #223, #8 ) ;
#238 = ORIENTED_EDGE ( 'NONE', *, *, #78, .F. ) ;
#239 = PRODUCT_RELATED_PRODUCT_CATEGORY ( 'part', '', ( #1 ) ) ;
#240 = SURFACE_STYLE_FILL_AREA ( #171 ) ;
#241 = PRESENTATION_STYLE_ASSIGNMENT (( #136 ) ) ;
#242 = ORIENTED_EDGE ( 'NONE', *, *, #26, .F. ) ;
#243 = PLANE ( 'NONE',  #159 ) ;
#244 = CIRCLE ( 'NONE', #287, 0.1250000000000000278 ) ;
#245 = AXIS2_PLACEMENT_3D ( 'NONE', #167, #116, #216 ) ;
#246 = SURFACE_STYLE_FILL_AREA ( #147 ) ;
#247 = LINE ( 'NONE', #89, #196 ) ;
#248 = DIRECTION ( 'NONE',  ( 0.000000000000000000, 0.000000000000000000, -1.000000000000000000 ) ) ;
#249 = DIRECTION ( 'NONE',  ( 0.000000000000000000, 0.000000000000000000, -1.000000000000000000 ) ) ;
#250 = CARTESIAN_POINT ( 'NONE',  ( -6.123233995736766036E-17, 2.500000000000000000, 0.000000000000000000 ) ) ;
#251 = SURFACE_STYLE_FILL_AREA ( #234 ) ;
#252 = UNCERTAINTY_MEASURE_WITH_UNIT (LENGTH_MEASURE( 1.000000000000000082E-05 ), #179, 'distance_accuracy_value', 'NONE');
#253 = CLOSED_SHELL ( 'NONE', ( #35, #94, #185, #286 ) ) ;
#254 =( NAMED_UNIT ( * ) PLANE_ANGLE_UNIT ( ) SI_UNIT ( $, .RADIAN. ) );
#255 = PRODUCT_DEFINITION_FORMATION_WITH_SPECIFIED_SOURCE ( 'ANY', '', #1, .NOT_KNOWN. ) ;
#256 = EDGE_CURVE ( 'NONE', #190, #11, #182, .T. ) ;
#257 = CARTESIAN_POINT ( 'NONE',  ( 1.530808498934191817E-17, 0.7500000000000001110, 0.1250000000000000278 ) ) ;
#258 = DIRECTION ( 'NONE',  ( 0.000000000000000000, -0.000000000000000000, 1.000000000000000000 ) ) ;
#259 = VERTEX_POINT ( 'NONE', #224 ) ;
#260 = FACE_OUTER_BOUND ( 'NONE', #215, .T. ) ;
#261 =( LENGTH_UNIT ( ) NAMED_UNIT ( * ) SI_UNIT ( $, .METRE. ) );
#262 = PRODUCT_DEFINITION_SHAPE ( 'NONE', 'NONE',  #226 ) ;
#263 = AXIS2_PLACEMENT_3D ( 'NONE', #186, #296, #202 ) ;
#264 = ORIENTED_EDGE ( 'NONE', *, *, #256, .F. ) ;
#265 = UNCERTAINTY_MEASURE_WITH_UNIT (LENGTH_MEASURE( 1.000000000000000082E-05 ), #293, 'distance_accuracy_value', 'NONE');
#266 = ORIENTED_EDGE ( 'NONE', *, *, #309, .T. ) ;
#267 = FILL_AREA_STYLE_COLOUR ( '', #125 ) ;
#268 =( CONVERSION_BASED_UNIT ( 'INCH', #36 ) LENGTH_UNIT ( ) NAMED_UNIT ( #127 ) );
#269 = ORIENTED_EDGE ( 'NONE', *, *, #46, .T. ) ;
#270 = CARTESIAN_POINT ( 'NONE',  ( 0.000000000000000000, 0.7500000000000001110, 0.000000000000000000 ) ) ;
#271 = ORIENTED_EDGE ( 'NONE', *, *, #213, .T. ) ;
#272 = DIRECTION ( 'NONE',  ( 0.000000000000000000, -1.000000000000000000, -0.000000000000000000 ) ) ;
#273 = ORIENTED_EDGE ( 'NONE', *, *, #26, .T. ) ;
#274 = LENGTH_MEASURE_WITH_UNIT ( LENGTH_MEASURE( 0.02539999999999999897 ), #108 );
#275 =( GEOMETRIC_REPRESENTATION_CONTEXT ( 3 ) GLOBAL_UNCERTAINTY_ASSIGNED_CONTEXT ( ( #80 ) ) GLOBAL_UNIT_ASSIGNED_CONTEXT ( ( #165, #220, #5 ) ) REPRESENTATION_CONTEXT ( 'NONE', 'WORKASPACE' ) );
#276 = SURFACE_SIDE_STYLE ('',( #246 ) ) ;
#277 = PRESENTATION_STYLE_ASSIGNMENT (( #14 ) ) ;
#278 =( CONVERSION_BASED_UNIT ( 'INCH', #24 ) LENGTH_UNIT ( ) NAMED_UNIT ( #207 ) );
#279 =( CONVERSION_BASED_UNIT ( 'INCH', #274 ) LENGTH_UNIT ( ) NAMED_UNIT ( #141 ) );
#280 = AXIS2_PLACEMENT_3D ( 'NONE', #173, #112, #248 ) ;
#281 = DIRECTION ( 'NONE',  ( 0.000000000000000000, 0.000000000000000000, 1.000000000000000000 ) ) ;
#282 = SURFACE_STYLE_USAGE ( .BOTH. , #88 ) ;
#283 = EDGE_CURVE ( 'NONE', #259, #4, #96, .T. ) ;
#284 = PRESENTATION_STYLE_ASSIGNMENT (( #184 ) ) ;
#285 = PRESENTATION_LAYER_ASSIGNMENT (  '', '', ( #6 ) ) ;
#286 = ADVANCED_FACE ( 'NONE', ( #228 ), #85, .T. ) ;
#287 = AXIS2_PLACEMENT_3D ( 'NONE', #227, #120, #199 ) ;
#288 = CARTESIAN_POINT ( 'NONE',  ( 0.1249999999999999584, 2.500000000000000000, 1.530808498934191817E-17 ) ) ;
#289 = ORIENTED_EDGE ( 'NONE', *, *, #46, .F. ) ;
#290 = DIRECTION ( 'NONE',  ( 1.000000000000000000, 3.498990854706722745E-17, 0.000000000000000000 ) ) ;
#291 = EDGE_LOOP ( 'NONE', ( #134, #231, #140, #43 ) ) ;
#292 = CARTESIAN_POINT ( 'NONE',  ( 0.1249999999999999861, 2.500000000000000000, 0.000000000000000000 ) ) ;
#293 =( CONVERSION_BASED_UNIT ( 'INCH', #230 ) LENGTH_UNIT ( ) NAMED_UNIT ( #72 ) );
#294 = SURFACE_SIDE_STYLE ('',( #137 ) ) ;
#295 = EDGE_LOOP ( 'NONE', ( #273, #33 ) ) ;
#296 = DIRECTION ( 'NONE',  ( -3.498990854706722745E-17, 1.000000000000000000, 0.000000000000000000 ) ) ;
#297 = DIRECTION ( 'NONE',  ( -0.000000000000000000, -1.000000000000000000, -0.000000000000000000 ) ) ;
#298 = MECHANICAL_DESIGN_GEOMETRIC_PRESENTATION_REPRESENTATION (  '', ( #66 ), #275 ) ;
#299 = PRODUCT_DEFINITION_CONTEXT ( 'detailed design', #91, 'design' ) ;
#300 = DIRECTION ( 'NONE',  ( -1.000000000000000000, 0.000000000000000000, 0.000000000000000000 ) ) ;
#301 =( NAMED_UNIT ( * ) SI_UNIT ( $, .STERADIAN. ) SOLID_ANGLE_UNIT ( ) );
#302 = DIMENSIONAL_EXPONENTS ( 1.000000000000000000, 0.000000000000000000, 0.000000000000000000, 0.000000000000000000, 0.000000000000000000, 0.000000000000000000, 0.000000000000000000 ) ;
#303 = CYLINDRICAL_SURFACE ( 'NONE', #201, 0.1250000000000000000 ) ;
#304 = SURFACE_SIDE_STYLE ('',( #146 ) ) ;
#305 = DIMENSIONAL_EXPONENTS ( 1.000000000000000000, 0.000000000000000000, 0.000000000000000000, 0.000000000000000000, 0.000000000000000000, 0.000000000000000000, 0.000000000000000000 ) ;
#306 = CLOSED_SHELL ( 'NONE', ( #130, #48, #158, #189 ) ) ;
#307 =( NAMED_UNIT ( * ) SI_UNIT ( $, .STERADIAN. ) SOLID_ANGLE_UNIT ( ) );
#308 = SURFACE_STYLE_FILL_AREA ( #235 ) ;
#309 = EDGE_CURVE ( 'NONE', #190, #225, #247, .T. ) ;
ENDSEC;
END-ISO-10303-21;
