ISO-10303-21;
HEADER;
FILE_DESCRIPTION (( 'STEP AP214' ),
    '1' );
FILE_NAME ('83800.STEP',
    '2023-07-05T16:07:48',
    ( '' ),
    ( '' ),
    'SwSTEP 2.0',
    'SolidWorks 2023',
    '' );
FILE_SCHEMA (( 'AUTOMOTIVE_DESIGN' ));
ENDSEC;

DATA;
#1 =( NAMED_UNIT ( * ) PLANE_ANGLE_UNIT ( ) SI_UNIT ( $, .RADIAN. ) );
#2 = COLOUR_RGB ( '',0.7921568627450980005, 0.8196078431372548767, 0.9333333333333333481 ) ;
#3 = SURFACE_STYLE_USAGE ( .BOTH. , #196 ) ;
#4 = FILL_AREA_STYLE_COLOUR ( '', #22 ) ;
#5 = PRESENTATION_LAYER_ASSIGNMENT (  '', '', ( #233 ) ) ;
#6 =( GEOMETRIC_REPRESENTATION_CONTEXT ( 3 ) GLOBAL_UNCERTAINTY_ASSIGNED_CONTEXT ( ( #44 ) ) GLOBAL_UNIT_ASSIGNED_CONTEXT ( ( #120, #181, #33 ) ) REPRESENTATION_CONTEXT ( 'NONE', 'WORKASPACE' ) );
#7 =( LENGTH_UNIT ( ) NAMED_UNIT ( * ) SI_UNIT ( $, .METRE. ) );
#8 = DIRECTION ( 'NONE',  ( -1.922962686383564309E-16, 1.000000000000000000, 0.000000000000000000 ) ) ;
#9 = ORIENTED_EDGE ( 'NONE', *, *, #117, .T. ) ;
#10 = CONICAL_SURFACE ( 'NONE', #213, 39.37007874015758091, 0.7853981633974495002 ) ;
#11 = VERTEX_POINT ( 'NONE', #121 ) ;
#12 = CARTESIAN_POINT ( 'NONE',  ( 0.000000000000000000, 0.000000000000000000, 0.000000000000000000 ) ) ;
#13 = CARTESIAN_POINT ( 'NONE',  ( -0.06249999999999948652, 1.500000000000000222, 0.000000000000000000 ) ) ;
#14 = SHAPE_DEFINITION_REPRESENTATION ( #66, #178 ) ;
#15 = STYLED_ITEM ( 'NONE', ( #187 ), #89 ) ;
#16 =( LENGTH_UNIT ( ) NAMED_UNIT ( * ) SI_UNIT ( $, .METRE. ) );
#17 = PRODUCT_DEFINITION_FORMATION_WITH_SPECIFIED_SOURCE ( 'ANY', '', #111, .NOT_KNOWN. ) ;
#18 = ORIENTED_EDGE ( 'NONE', *, *, #95, .T. ) ;
#19 = DIRECTION ( 'NONE',  ( -1.922962686383564309E-16, 1.000000000000000000, 0.000000000000000000 ) ) ;
#20 = FILL_AREA_STYLE_COLOUR ( '', #168 ) ;
#21 =( CONVERSION_BASED_UNIT ( 'INCH', #49 ) LENGTH_UNIT ( ) NAMED_UNIT ( #156 ) );
#22 = COLOUR_RGB ( '',1.000000000000000000, 0.000000000000000000, 0.000000000000000000 ) ;
#23 = EDGE_CURVE ( 'NONE', #133, #180, #35, .T. ) ;
#24 = DIRECTION ( 'NONE',  ( 1.000000000000000000, 1.246097681992569904E-16, 0.000000000000000000 ) ) ;
#25 =( NAMED_UNIT ( * ) SI_UNIT ( $, .STERADIAN. ) SOLID_ANGLE_UNIT ( ) );
#26 = ADVANCED_FACE ( 'NONE', ( #104 ), #244, .T. ) ;
#27 = CARTESIAN_POINT ( 'NONE',  ( 3.628235616585349371E-16, 0.06249999999999995143, 0.000000000000000000 ) ) ;
#28 = SURFACE_STYLE_FILL_AREA ( #98 ) ;
#29 = FILL_AREA_STYLE_COLOUR ( '', #2 ) ;
#30 = FILL_AREA_STYLE ('',( #4 ) ) ;
#31 = PRESENTATION_LAYER_ASSIGNMENT (  '', '', ( #259 ) ) ;
#32 = PRESENTATION_STYLE_ASSIGNMENT (( #3 ) ) ;
#33 =( NAMED_UNIT ( * ) SI_UNIT ( $, .STERADIAN. ) SOLID_ANGLE_UNIT ( ) );
#34 = CARTESIAN_POINT ( 'NONE',  ( 0.06249999999999995143, 1.500000000000000222, 7.654042494670922108E-18 ) ) ;
#35 = LINE ( 'NONE', #13, #90 ) ;
#36 =( GEOMETRIC_REPRESENTATION_CONTEXT ( 3 ) GLOBAL_UNCERTAINTY_ASSIGNED_CONTEXT ( ( #62 ) ) GLOBAL_UNIT_ASSIGNED_CONTEXT ( ( #235, #231, #127 ) ) REPRESENTATION_CONTEXT ( 'NONE', 'WORKASPACE' ) );
#37 = LINE ( 'NONE', #39, #71 ) ;
#38 = CARTESIAN_POINT ( 'NONE',  ( 3.628235616585349371E-16, 0.06249999999999981265, 0.000000000000000000 ) ) ;
#39 = CARTESIAN_POINT ( 'NONE',  ( 0.06249999999999986122, 1.500000000000000222, 7.654042494670917485E-18 ) ) ;
#40 = ORIENTED_EDGE ( 'NONE', *, *, #215, .F. ) ;
#41 = AXIS2_PLACEMENT_3D ( 'NONE', #163, #169, #48 ) ;
#42 =( GEOMETRIC_REPRESENTATION_CONTEXT ( 3 ) GLOBAL_UNCERTAINTY_ASSIGNED_CONTEXT ( ( #85 ) ) GLOBAL_UNIT_ASSIGNED_CONTEXT ( ( #237, #54, #199 ) ) REPRESENTATION_CONTEXT ( 'NONE', 'WORKASPACE' ) );
#43 = DIMENSIONAL_EXPONENTS ( 1.000000000000000000, 0.000000000000000000, 0.000000000000000000, 0.000000000000000000, 0.000000000000000000, 0.000000000000000000, 0.000000000000000000 ) ;
#44 = UNCERTAINTY_MEASURE_WITH_UNIT (LENGTH_MEASURE( 1.000000000000000082E-05 ), #120, 'distance_accuracy_value', 'NONE');
#45 = EDGE_CURVE ( 'NONE', #162, #133, #219, .T. ) ;
#46 = FILL_AREA_STYLE ('',( #108 ) ) ;
#47 = APPLICATION_CONTEXT ( 'automotive_design' ) ;
#48 = DIRECTION ( 'NONE',  ( -1.000000000000000000, 0.000000000000000000, 0.000000000000000000 ) ) ;
#49 = LENGTH_MEASURE_WITH_UNIT ( LENGTH_MEASURE( 0.02539999999999999897 ), #188 );
#50 = COLOUR_RGB ( '',1.000000000000000000, 0.000000000000000000, 0.000000000000000000 ) ;
#51 = LENGTH_MEASURE_WITH_UNIT ( LENGTH_MEASURE( 0.02539999999999999897 ), #7 );
#52 = DIRECTION ( 'NONE',  ( 1.922962686383564309E-16, -1.000000000000000000, -0.000000000000000000 ) ) ;
#53 = STYLED_ITEM ( 'NONE', ( #32 ), #145 ) ;
#54 =( NAMED_UNIT ( * ) PLANE_ANGLE_UNIT ( ) SI_UNIT ( $, .RADIAN. ) );
#55 = PRODUCT_DEFINITION ( 'UNKNOWN', '', #17, #202 ) ;
#56 = ORIENTED_EDGE ( 'NONE', *, *, #209, .F. ) ;
#57 = LENGTH_MEASURE_WITH_UNIT ( LENGTH_MEASURE( 0.02539999999999999897 ), #218 );
#58 = APPLICATION_CONTEXT ( 'automotive_design' ) ;
#59 = AXIS2_PLACEMENT_3D ( 'NONE', #171, #8, #195 ) ;
#60 = ORIENTED_EDGE ( 'NONE', *, *, #140, .T. ) ;
#61 = DIRECTION ( 'NONE',  ( -1.246097681992569904E-16, 1.000000000000000000, -0.000000000000000000 ) ) ;
#62 = UNCERTAINTY_MEASURE_WITH_UNIT (LENGTH_MEASURE( 1.000000000000000082E-05 ), #235, 'distance_accuracy_value', 'NONE');
#63 = EDGE_LOOP ( 'NONE', ( #56, #86, #105, #100 ) ) ;
#64 = AXIS2_PLACEMENT_3D ( 'NONE', #226, #109, #265 ) ;
#65 = SURFACE_STYLE_FILL_AREA ( #144 ) ;
#66 = PRODUCT_DEFINITION_SHAPE ( 'NONE', 'NONE',  #55 ) ;
#67 =( NAMED_UNIT ( * ) SI_UNIT ( $, .STERADIAN. ) SOLID_ANGLE_UNIT ( ) );
#68 = ADVANCED_FACE ( 'NONE', ( #223 ), #206, .F. ) ;
#69 = CARTESIAN_POINT ( 'NONE',  ( -0.06249999999999921590, 0.06249999999999993755, 0.000000000000000000 ) ) ;
#70 = AXIS2_PLACEMENT_3D ( 'NONE', #27, #146, #210 ) ;
#71 = VECTOR ( 'NONE', #258, 39.37007874015748143 ) ;
#72 = ADVANCED_FACE ( 'NONE', ( #107 ), #186, .T. ) ;
#73 = LENGTH_MEASURE_WITH_UNIT ( LENGTH_MEASURE( 0.02539999999999999897 ), #114 );
#74 = MANIFOLD_SOLID_BREP ( 'Revolve - Cutting Edge', #189 ) ;
#75 =( CONVERSION_BASED_UNIT ( 'INCH', #73 ) LENGTH_UNIT ( ) NAMED_UNIT ( #177 ) );
#76 = CARTESIAN_POINT ( 'NONE',  ( 0.000000000000000000, 0.000000000000000000, 0.000000000000000000 ) ) ;
#77 = ADVANCED_FACE ( 'NONE', ( #264 ), #248, .F. ) ;
#78 = AXIS2_PLACEMENT_3D ( 'NONE', #38, #119, #205 ) ;
#79 = DIRECTION ( 'NONE',  ( -0.7071067811865484609, 0.7071067811865465735, 0.000000000000000000 ) ) ;
#80 = DIMENSIONAL_EXPONENTS ( 1.000000000000000000, 0.000000000000000000, 0.000000000000000000, 0.000000000000000000, 0.000000000000000000, 0.000000000000000000, 0.000000000000000000 ) ;
#81 = ORIENTED_EDGE ( 'NONE', *, *, #140, .F. ) ;
#82 = CARTESIAN_POINT ( 'NONE',  ( 0.000000000000000000, 0.000000000000000000, 0.000000000000000000 ) ) ;
#83 = CARTESIAN_POINT ( 'NONE',  ( 3.628235616585349371E-16, 0.06249999999999995143, 0.000000000000000000 ) ) ;
#84 = CONICAL_SURFACE ( 'NONE', #96, 39.37007874015758091, 0.7853981633974495002 ) ;
#85 = UNCERTAINTY_MEASURE_WITH_UNIT (LENGTH_MEASURE( 1.000000000000000082E-05 ), #237, 'distance_accuracy_value', 'NONE');
#86 = ORIENTED_EDGE ( 'NONE', *, *, #45, .T. ) ;
#87 = DIRECTION ( 'NONE',  ( -1.000000000000000000, 0.000000000000000000, 0.000000000000000000 ) ) ;
#88 = SURFACE_STYLE_FILL_AREA ( #46 ) ;
#89 = ADVANCED_FACE ( 'NONE', ( #137 ), #10, .T. ) ;
#90 = VECTOR ( 'NONE', #155, 39.37007874015748143 ) ;
#91 = FACE_OUTER_BOUND ( 'NONE', #217, .T. ) ;
#92 =( GEOMETRIC_REPRESENTATION_CONTEXT ( 3 ) GLOBAL_UNCERTAINTY_ASSIGNED_CONTEXT ( ( #123 ) ) GLOBAL_UNIT_ASSIGNED_CONTEXT ( ( #75, #129, #94 ) ) REPRESENTATION_CONTEXT ( 'NONE', 'WORKASPACE' ) );
#93 = PLANE ( 'NONE',  #59 ) ;
#94 =( NAMED_UNIT ( * ) SI_UNIT ( $, .STERADIAN. ) SOLID_ANGLE_UNIT ( ) );
#95 = EDGE_CURVE ( 'NONE', #240, #180, #236, .T. ) ;
#96 = AXIS2_PLACEMENT_3D ( 'NONE', #193, #112, #128 ) ;
#97 = SURFACE_STYLE_FILL_AREA ( #30 ) ;
#98 = FILL_AREA_STYLE ('',( #167 ) ) ;
#99 = LENGTH_MEASURE_WITH_UNIT ( LENGTH_MEASURE( 0.02539999999999999897 ), #16 );
#100 = ORIENTED_EDGE ( 'NONE', *, *, #95, .F. ) ;
#101 = STYLED_ITEM ( 'NONE', ( #125 ), #74 ) ;
#102 = EDGE_LOOP ( 'NONE', ( #60, #115, #254, #243 ) ) ;
#103 = DIRECTION ( 'NONE',  ( 0.000000000000000000, 0.000000000000000000, 1.000000000000000000 ) ) ;
#104 = FACE_OUTER_BOUND ( 'NONE', #63, .T. ) ;
#105 = ORIENTED_EDGE ( 'NONE', *, *, #23, .T. ) ;
#106 = MECHANICAL_DESIGN_GEOMETRIC_PRESENTATION_REPRESENTATION (  '', ( #259 ), #6 ) ;
#107 = FACE_OUTER_BOUND ( 'NONE', #102, .T. ) ;
#108 = FILL_AREA_STYLE_COLOUR ( '', #192 ) ;
#109 = DIRECTION ( 'NONE',  ( -1.246097681992569904E-16, 1.000000000000000000, -0.000000000000000000 ) ) ;
#110 = PRESENTATION_LAYER_ASSIGNMENT (  '', '', ( #53 ) ) ;
#111 = PRODUCT ( '83800', '83800', '', ( #222 ) ) ;
#112 = DIRECTION ( 'NONE',  ( -1.922962686383564309E-16, 1.000000000000000000, 0.000000000000000000 ) ) ;
#113 = MECHANICAL_DESIGN_GEOMETRIC_PRESENTATION_REPRESENTATION (  '', ( #233 ), #36 ) ;
#114 =( LENGTH_UNIT ( ) NAMED_UNIT ( * ) SI_UNIT ( $, .METRE. ) );
#115 = ORIENTED_EDGE ( 'NONE', *, *, #209, .T. ) ;
#116 = EDGE_LOOP ( 'NONE', ( #183, #18 ) ) ;
#117 = EDGE_CURVE ( 'NONE', #136, #11, #252, .T. ) ;
#118 = DIRECTION ( 'NONE',  ( 1.000000000000000000, 0.000000000000000000, 0.000000000000000000 ) ) ;
#119 = DIRECTION ( 'NONE',  ( -1.246097681992569904E-16, 1.000000000000000000, 0.000000000000000000 ) ) ;
#120 =( CONVERSION_BASED_UNIT ( 'INCH', #57 ) LENGTH_UNIT ( ) NAMED_UNIT ( #43 ) );
#121 = CARTESIAN_POINT ( 'NONE',  ( 0.06249999999999995143, 0.06249999999999981959, 7.654042494670951382E-18 ) ) ;
#122 = ADVANCED_FACE ( 'NONE', ( #91 ), #93, .T. ) ;
#123 = UNCERTAINTY_MEASURE_WITH_UNIT (LENGTH_MEASURE( 1.000000000000000082E-05 ), #75, 'distance_accuracy_value', 'NONE');
#124 = SURFACE_STYLE_USAGE ( .BOTH. , #230 ) ;
#125 = PRESENTATION_STYLE_ASSIGNMENT (( #208 ) ) ;
#126 = MECHANICAL_DESIGN_GEOMETRIC_PRESENTATION_REPRESENTATION (  '', ( #15 ), #174 ) ;
#127 =( NAMED_UNIT ( * ) SI_UNIT ( $, .STERADIAN. ) SOLID_ANGLE_UNIT ( ) );
#128 = DIRECTION ( 'NONE',  ( -1.000000000000000000, -2.220446049250307411E-16, 0.000000000000000000 ) ) ;
#129 =( NAMED_UNIT ( * ) PLANE_ANGLE_UNIT ( ) SI_UNIT ( $, .RADIAN. ) );
#130 = DIRECTION ( 'NONE',  ( 1.000000000000000000, 1.365923996832132595E-16, 0.000000000000000000 ) ) ;
#131 = CIRCLE ( 'NONE', #70, 0.06249999999999956979 ) ;
#132 = CARTESIAN_POINT ( 'NONE',  ( -0.06249999999999956979, 1.500000000000000222, 0.000000000000000000 ) ) ;
#133 = VERTEX_POINT ( 'NONE', #69 ) ;
#134 = AXIS2_PLACEMENT_3D ( 'NONE', #190, #263, #24 ) ;
#135 = DIRECTION ( 'NONE',  ( -1.000000000000000000, -1.365923996832140977E-16, 0.000000000000000000 ) ) ;
#136 = VERTEX_POINT ( 'NONE', #232 ) ;
#137 = FACE_OUTER_BOUND ( 'NONE', #220, .T. ) ;
#138 = DIRECTION ( 'NONE',  ( -1.000000000000000000, -2.220446049250307411E-16, 0.000000000000000000 ) ) ;
#139 = DIRECTION ( 'NONE',  ( 1.922962686383564309E-16, -1.000000000000000000, -0.000000000000000000 ) ) ;
#140 = EDGE_CURVE ( 'NONE', #133, #162, #131, .T. ) ;
#141 = DIRECTION ( 'NONE',  ( 1.000000000000000000, 1.365923996832132595E-16, 0.000000000000000000 ) ) ;
#142 = MECHANICAL_DESIGN_GEOMETRIC_PRESENTATION_REPRESENTATION (  '', ( #101 ), #250 ) ;
#143 = VECTOR ( 'NONE', #79, 39.37007874015748143 ) ;
#144 = FILL_AREA_STYLE ('',( #20 ) ) ;
#145 = ADVANCED_FACE ( 'NONE', ( #249 ), #84, .T. ) ;
#146 = DIRECTION ( 'NONE',  ( -1.246097681992569904E-16, 1.000000000000000000, -0.000000000000000000 ) ) ;
#147 = PRESENTATION_LAYER_ASSIGNMENT (  '', '', ( #15 ) ) ;
#148 = EDGE_CURVE ( 'NONE', #11, #136, #172, .T. ) ;
#149 = CARTESIAN_POINT ( 'NONE',  ( -1.201851678989723996E-17, 0.06249999999999980571, 0.000000000000000000 ) ) ;
#150 = SURFACE_STYLE_USAGE ( .BOTH. , #194 ) ;
#151 = CARTESIAN_POINT ( 'NONE',  ( 0.000000000000000000, 0.000000000000000000, 0.000000000000000000 ) ) ;
#152 = AXIS2_PLACEMENT_3D ( 'NONE', #257, #61, #87 ) ;
#153 = ORIENTED_EDGE ( 'NONE', *, *, #148, .T. ) ;
#154 = PRODUCT_RELATED_PRODUCT_CATEGORY ( 'part', '', ( #111 ) ) ;
#155 = DIRECTION ( 'NONE',  ( -1.246097681992569904E-16, 1.000000000000000000, -0.000000000000000000 ) ) ;
#156 = DIMENSIONAL_EXPONENTS ( 1.000000000000000000, 0.000000000000000000, 0.000000000000000000, 0.000000000000000000, 0.000000000000000000, 0.000000000000000000, 0.000000000000000000 ) ;
#157 = DIRECTION ( 'NONE',  ( -1.000000000000000000, 0.000000000000000000, 0.000000000000000000 ) ) ;
#158 = MANIFOLD_SOLID_BREP ( 'Revolve - Tool Body (Pointed)', #241 ) ;
#159 = DIRECTION ( 'NONE',  ( -1.246097681992569904E-16, 1.000000000000000000, -0.000000000000000000 ) ) ;
#160 = MECHANICAL_DESIGN_GEOMETRIC_PRESENTATION_REPRESENTATION (  '', ( #53 ), #92 ) ;
#161 = CIRCLE ( 'NONE', #185, 0.06249999999999975714 ) ;
#162 = VERTEX_POINT ( 'NONE', #216 ) ;
#163 = CARTESIAN_POINT ( 'NONE',  ( 1.836970198721030181E-16, 1.500000000000000222, 0.000000000000000000 ) ) ;
#164 =( NAMED_UNIT ( * ) PLANE_ANGLE_UNIT ( ) SI_UNIT ( $, .RADIAN. ) );
#165 = AXIS2_PLACEMENT_3D ( 'NONE', #246, #139, #141 ) ;
#166 = EDGE_CURVE ( 'NONE', #180, #240, #161, .T. ) ;
#167 = FILL_AREA_STYLE_COLOUR ( '', #50 ) ;
#168 = COLOUR_RGB ( '',1.000000000000000000, 0.000000000000000000, 0.000000000000000000 ) ;
#169 = DIRECTION ( 'NONE',  ( -1.246097681992569904E-16, 1.000000000000000000, -0.000000000000000000 ) ) ;
#170 = EDGE_CURVE ( 'NONE', #176, #11, #253, .T. ) ;
#171 = CARTESIAN_POINT ( 'NONE',  ( -1.201851678989723687E-17, 0.06249999999999980571, 0.000000000000000000 ) ) ;
#172 = CIRCLE ( 'NONE', #229, 0.06249999999999995837 ) ;
#173 = SURFACE_STYLE_FILL_AREA ( #212 ) ;
#174 =( GEOMETRIC_REPRESENTATION_CONTEXT ( 3 ) GLOBAL_UNCERTAINTY_ASSIGNED_CONTEXT ( ( #225 ) ) GLOBAL_UNIT_ASSIGNED_CONTEXT ( ( #228, #164, #25 ) ) REPRESENTATION_CONTEXT ( 'NONE', 'WORKASPACE' ) );
#175 = EDGE_LOOP ( 'NONE', ( #40, #201, #153 ) ) ;
#176 = VERTEX_POINT ( 'NONE', #76 ) ;
#177 = DIMENSIONAL_EXPONENTS ( 1.000000000000000000, 0.000000000000000000, 0.000000000000000000, 0.000000000000000000, 0.000000000000000000, 0.000000000000000000, 0.000000000000000000 ) ;
#178 = ADVANCED_BREP_SHAPE_REPRESENTATION ( '83800', ( #74, #158, #242 ), #42 ) ;
#179 = DIRECTION ( 'NONE',  ( -1.246097681992569904E-16, 1.000000000000000000, -0.000000000000000000 ) ) ;
#180 = VERTEX_POINT ( 'NONE', #132 ) ;
#181 =( NAMED_UNIT ( * ) PLANE_ANGLE_UNIT ( ) SI_UNIT ( $, .RADIAN. ) );
#182 = UNCERTAINTY_MEASURE_WITH_UNIT (LENGTH_MEASURE( 1.000000000000000082E-05 ), #21, 'distance_accuracy_value', 'NONE');
#183 = ORIENTED_EDGE ( 'NONE', *, *, #166, .T. ) ;
#184 = AXIS2_PLACEMENT_3D ( 'NONE', #83, #159, #135 ) ;
#185 = AXIS2_PLACEMENT_3D ( 'NONE', #211, #179, #157 ) ;
#186 = CYLINDRICAL_SURFACE ( 'NONE', #41, 0.06249999999999967387 ) ;
#187 = PRESENTATION_STYLE_ASSIGNMENT (( #124 ) ) ;
#188 =( LENGTH_UNIT ( ) NAMED_UNIT ( * ) SI_UNIT ( $, .METRE. ) );
#189 = CLOSED_SHELL ( 'NONE', ( #145, #122, #89 ) ) ;
#190 = CARTESIAN_POINT ( 'NONE',  ( 0.06249999999999995143, 1.500000000000000222, 0.000000000000000000 ) ) ;
#191 = CARTESIAN_POINT ( 'NONE',  ( -7.570719237730568091E-15, 39.37007874015748143, 0.000000000000000000 ) ) ;
#192 = COLOUR_RGB ( '',0.7921568627450980005, 0.8196078431372548767, 0.9333333333333333481 ) ;
#193 = CARTESIAN_POINT ( 'NONE',  ( -7.570719237730568091E-15, 39.37007874015748143, 0.000000000000000000 ) ) ;
#194 = SURFACE_SIDE_STYLE ('',( #28 ) ) ;
#195 = DIRECTION ( 'NONE',  ( -1.000000000000000000, -1.922962686383564309E-16, 0.000000000000000000 ) ) ;
#196 = SURFACE_SIDE_STYLE ('',( #97 ) ) ;
#197 = DIRECTION ( 'NONE',  ( 0.7071067811865482389, 0.7071067811865467956, 8.659560562354942719E-17 ) ) ;
#198 = ORIENTED_EDGE ( 'NONE', *, *, #117, .F. ) ;
#199 =( NAMED_UNIT ( * ) SI_UNIT ( $, .STERADIAN. ) SOLID_ANGLE_UNIT ( ) );
#200 = VECTOR ( 'NONE', #197, 39.37007874015748143 ) ;
#201 = ORIENTED_EDGE ( 'NONE', *, *, #170, .T. ) ;
#202 = PRODUCT_DEFINITION_CONTEXT ( 'detailed design', #58, 'design' ) ;
#203 = EDGE_LOOP ( 'NONE', ( #81, #261 ) ) ;
#204 = APPLICATION_PROTOCOL_DEFINITION ( 'draft international standard', 'automotive_design', 1998, #58 ) ;
#205 = DIRECTION ( 'NONE',  ( -1.000000000000000000, -1.246097681992569904E-16, 0.000000000000000000 ) ) ;
#206 = PLANE ( 'NONE',  #78 ) ;
#207 = PRESENTATION_LAYER_ASSIGNMENT (  '', '', ( #101 ) ) ;
#208 = SURFACE_STYLE_USAGE ( .BOTH. , #227 ) ;
#209 = EDGE_CURVE ( 'NONE', #162, #240, #37, .T. ) ;
#210 = DIRECTION ( 'NONE',  ( -1.000000000000000000, -1.365923996832140977E-16, 0.000000000000000000 ) ) ;
#211 = CARTESIAN_POINT ( 'NONE',  ( 1.836970198721030181E-16, 1.500000000000000222, 0.000000000000000000 ) ) ;
#212 = FILL_AREA_STYLE ('',( #29 ) ) ;
#213 = AXIS2_PLACEMENT_3D ( 'NONE', #191, #19, #138 ) ;
#214 = SURFACE_STYLE_USAGE ( .BOTH. , #251 ) ;
#215 = EDGE_CURVE ( 'NONE', #176, #136, #256, .T. ) ;
#216 = CARTESIAN_POINT ( 'NONE',  ( 0.06249999999999995143, 0.06249999999999995837, 7.654042494670922108E-18 ) ) ;
#217 = EDGE_LOOP ( 'NONE', ( #198, #238 ) ) ;
#218 =( LENGTH_UNIT ( ) NAMED_UNIT ( * ) SI_UNIT ( $, .METRE. ) );
#219 = CIRCLE ( 'NONE', #184, 0.06249999999999956979 ) ;
#220 = EDGE_LOOP ( 'NONE', ( #260, #245, #9 ) ) ;
#221 = DIMENSIONAL_EXPONENTS ( 1.000000000000000000, 0.000000000000000000, 0.000000000000000000, 0.000000000000000000, 0.000000000000000000, 0.000000000000000000, 0.000000000000000000 ) ;
#222 = PRODUCT_CONTEXT ( 'NONE', #47, 'mechanical' ) ;
#223 = FACE_OUTER_BOUND ( 'NONE', #203, .T. ) ;
#224 = DIMENSIONAL_EXPONENTS ( 1.000000000000000000, 0.000000000000000000, 0.000000000000000000, 0.000000000000000000, 0.000000000000000000, 0.000000000000000000, 0.000000000000000000 ) ;
#225 = UNCERTAINTY_MEASURE_WITH_UNIT (LENGTH_MEASURE( 1.000000000000000082E-05 ), #228, 'distance_accuracy_value', 'NONE');
#226 = CARTESIAN_POINT ( 'NONE',  ( 1.836970198721030181E-16, 1.500000000000000222, 0.000000000000000000 ) ) ;
#227 = SURFACE_SIDE_STYLE ('',( #88 ) ) ;
#228 =( CONVERSION_BASED_UNIT ( 'INCH', #262 ) LENGTH_UNIT ( ) NAMED_UNIT ( #224 ) );
#229 = AXIS2_PLACEMENT_3D ( 'NONE', #149, #52, #130 ) ;
#230 = SURFACE_SIDE_STYLE ('',( #65 ) ) ;
#231 =( NAMED_UNIT ( * ) PLANE_ANGLE_UNIT ( ) SI_UNIT ( $, .RADIAN. ) );
#232 = CARTESIAN_POINT ( 'NONE',  ( -0.06249999999999996531, 0.06249999999999979183, 0.000000000000000000 ) ) ;
#233 = STYLED_ITEM ( 'NONE', ( #234 ), #122 ) ;
#234 = PRESENTATION_STYLE_ASSIGNMENT (( #150 ) ) ;
#235 =( CONVERSION_BASED_UNIT ( 'INCH', #51 ) LENGTH_UNIT ( ) NAMED_UNIT ( #80 ) );
#236 = CIRCLE ( 'NONE', #64, 0.06249999999999975714 ) ;
#237 =( CONVERSION_BASED_UNIT ( 'INCH', #99 ) LENGTH_UNIT ( ) NAMED_UNIT ( #221 ) );
#238 = ORIENTED_EDGE ( 'NONE', *, *, #148, .F. ) ;
#239 = PRESENTATION_STYLE_ASSIGNMENT (( #214 ) ) ;
#240 = VERTEX_POINT ( 'NONE', #34 ) ;
#241 = CLOSED_SHELL ( 'NONE', ( #72, #68, #26, #77 ) ) ;
#242 = AXIS2_PLACEMENT_3D ( 'NONE', #12, #103, #118 ) ;
#243 = ORIENTED_EDGE ( 'NONE', *, *, #23, .F. ) ;
#244 = CYLINDRICAL_SURFACE ( 'NONE', #152, 0.06249999999999967387 ) ;
#245 = ORIENTED_EDGE ( 'NONE', *, *, #215, .T. ) ;
#246 = CARTESIAN_POINT ( 'NONE',  ( -1.201851678989723996E-17, 0.06249999999999980571, 0.000000000000000000 ) ) ;
#247 =( LENGTH_UNIT ( ) NAMED_UNIT ( * ) SI_UNIT ( $, .METRE. ) );
#248 = PLANE ( 'NONE',  #134 ) ;
#249 = FACE_OUTER_BOUND ( 'NONE', #175, .T. ) ;
#250 =( GEOMETRIC_REPRESENTATION_CONTEXT ( 3 ) GLOBAL_UNCERTAINTY_ASSIGNED_CONTEXT ( ( #182 ) ) GLOBAL_UNIT_ASSIGNED_CONTEXT ( ( #21, #1, #67 ) ) REPRESENTATION_CONTEXT ( 'NONE', 'WORKASPACE' ) );
#251 = SURFACE_SIDE_STYLE ('',( #173 ) ) ;
#252 = CIRCLE ( 'NONE', #165, 0.06249999999999995837 ) ;
#253 = LINE ( 'NONE', #151, #200 ) ;
#254 = ORIENTED_EDGE ( 'NONE', *, *, #166, .F. ) ;
#255 = APPLICATION_PROTOCOL_DEFINITION ( 'draft international standard', 'automotive_design', 1998, #47 ) ;
#256 = LINE ( 'NONE', #82, #143 ) ;
#257 = CARTESIAN_POINT ( 'NONE',  ( 1.836970198721030181E-16, 1.500000000000000222, 0.000000000000000000 ) ) ;
#258 = DIRECTION ( 'NONE',  ( -1.246097681992569904E-16, 1.000000000000000000, -0.000000000000000000 ) ) ;
#259 = STYLED_ITEM ( 'NONE', ( #239 ), #158 ) ;
#260 = ORIENTED_EDGE ( 'NONE', *, *, #170, .F. ) ;
#261 = ORIENTED_EDGE ( 'NONE', *, *, #45, .F. ) ;
#262 = LENGTH_MEASURE_WITH_UNIT ( LENGTH_MEASURE( 0.02539999999999999897 ), #247 );
#263 = DIRECTION ( 'NONE',  ( 1.246097681992569904E-16, -1.000000000000000000, 0.000000000000000000 ) ) ;
#264 = FACE_OUTER_BOUND ( 'NONE', #116, .T. ) ;
#265 = DIRECTION ( 'NONE',  ( -1.000000000000000000, 0.000000000000000000, 0.000000000000000000 ) ) ;
ENDSEC;
END-ISO-10303-21;
