ISO-10303-21;
HEADER;
FILE_DESCRIPTION (( 'STEP AP214' ),
    '1' );
FILE_NAME ('Micro_GEC-031-3-005.STEP',
    '2021-09-03T17:01:36',
    ( '' ),
    ( '' ),
    'SwSTEP 2.0',
    'SolidWorks 2020',
    '' );
FILE_SCHEMA (( 'AUTOMOTIVE_DESIGN' ));
ENDSEC;

DATA;
#1 = FACE_OUTER_BOUND ( 'NONE', #131, .T. ) ;
#2 = CARTESIAN_POINT ( 'NONE',  ( -0.01558439999999999652, 1.908538557663201862E-18, 0.07800000000000009703 ) ) ;
#3 = COLOUR_RGB ( '',0.7921568627450980005, 0.8196078431372548767, 0.9333333333333333481 ) ;
#4 = UNCERTAINTY_MEASURE_WITH_UNIT (LENGTH_MEASURE( 1.000000000000000082E-05 ), #25, 'distance_accuracy_value', 'NONE');
#5 = DIRECTION ( 'NONE',  ( 1.000000000000000000, 0.0000000000000000000, 0.0000000000000000000 ) ) ;
#6 = ORIENTED_EDGE ( 'NONE', *, *, #205, .T. ) ;
#7 = AXIS2_PLACEMENT_3D ( 'NONE', #193, #94, #31 ) ;
#8 = ORIENTED_EDGE ( 'NONE', *, *, #36, .T. ) ;
#9 = ORIENTED_EDGE ( 'NONE', *, *, #43, .T. ) ;
#10 = EDGE_CURVE ( 'NONE', #157, #23, #206, .T. ) ;
#11 = VERTEX_POINT ( 'NONE', #293 ) ;
#12 = ORIENTED_EDGE ( 'NONE', *, *, #188, .T. ) ;
#13 = CIRCLE ( 'NONE', #7, 0.005000000000000000104 ) ;
#14 = VECTOR ( 'NONE', #108, 39.37007874015748854 ) ;
#15 = ORIENTED_EDGE ( 'NONE', *, *, #70, .T. ) ;
#16 = CARTESIAN_POINT ( 'NONE',  ( 0.06250000000000006939, 7.654042494670963708E-18, 0.3440715893364548750 ) ) ;
#17 = PRESENTATION_STYLE_ASSIGNMENT (( #322 ) ) ;
#18 = DIRECTION ( 'NONE',  ( 1.000000000000000000, 0.0000000000000000000, 0.0000000000000000000 ) ) ;
#19 = EDGE_CURVE ( 'NONE', #212, #348, #92, .T. ) ;
#20 = DIRECTION ( 'NONE',  ( -0.0000000000000000000, -0.0000000000000000000, -1.000000000000000000 ) ) ;
#21 = CYLINDRICAL_SURFACE ( 'NONE', #127, 0.06250000000000002776 ) ;
#22 = VECTOR ( 'NONE', #330, 39.37007874015748143 ) ;
#23 = VERTEX_POINT ( 'NONE', #75 ) ;
#24 = FACE_OUTER_BOUND ( 'NONE', #69, .T. ) ;
#25 =( CONVERSION_BASED_UNIT ( 'INCH', #51 ) LENGTH_UNIT ( ) NAMED_UNIT ( #295 ) );
#26 = DIRECTION ( 'NONE',  ( 1.000000000000000000, 0.0000000000000000000, -0.0000000000000000000 ) ) ;
#27 = CARTESIAN_POINT ( 'NONE',  ( 0.0000000000000000000, 0.0000000000000000000, 0.0000000000000000000 ) ) ;
#28 =( GEOMETRIC_REPRESENTATION_CONTEXT ( 3 ) GLOBAL_UNCERTAINTY_ASSIGNED_CONTEXT ( ( #4 ) ) GLOBAL_UNIT_ASSIGNED_CONTEXT ( ( #25, #267, #246 ) ) REPRESENTATION_CONTEXT ( 'NONE', 'WORKASPACE' ) );
#29 = PRESENTATION_LAYER_ASSIGNMENT (  '', '', ( #158 ) ) ;
#30 = DIRECTION ( 'NONE',  ( 1.224646799147353700E-16, 0.0000000000000000000, 1.000000000000000000 ) ) ;
#31 = DIRECTION ( 'NONE',  ( -1.000000000000000000, 1.224646799147353454E-16, 0.0000000000000000000 ) ) ;
#32 = APPLICATION_PROTOCOL_DEFINITION ( 'draft international standard', 'automotive_design', 1998, #292 ) ;
#33 = DIRECTION ( 'NONE',  ( 1.000000000000000000, 0.0000000000000000000, 0.0000000000000000000 ) ) ;
#34 = DIRECTION ( 'NONE',  ( 1.000000000000000000, 0.0000000000000000000, 0.0000000000000000000 ) ) ;
#35 = VECTOR ( 'NONE', #46, 39.37007874015748854 ) ;
#36 = EDGE_CURVE ( 'NONE', #185, #346, #277, .T. ) ;
#37 = CARTESIAN_POINT ( 'NONE',  ( 0.0000000000000000000, 0.0000000000000000000, 1.500000000000000222 ) ) ;
#38 = VERTEX_POINT ( 'NONE', #137 ) ;
#39 = ORIENTED_EDGE ( 'NONE', *, *, #326, .T. ) ;
#40 = MANIFOLD_SOLID_BREP ( 'Fillet1', #154 ) ;
#41 = AXIS2_PLACEMENT_3D ( 'NONE', #243, #105, #271 ) ;
#42 = ORIENTED_EDGE ( 'NONE', *, *, #19, .F. ) ;
#43 = EDGE_CURVE ( 'NONE', #263, #11, #222, .T. ) ;
#44 = ORIENTED_EDGE ( 'NONE', *, *, #89, .F. ) ;
#45 = AXIS2_PLACEMENT_3D ( 'NONE', #90, #275, #33 ) ;
#46 = DIRECTION ( 'NONE',  ( -0.7071067811865462405, 0.0000000000000000000, -0.7071067811865486830 ) ) ;
#47 =( GEOMETRIC_REPRESENTATION_CONTEXT ( 3 ) GLOBAL_UNCERTAINTY_ASSIGNED_CONTEXT ( ( #100 ) ) GLOBAL_UNIT_ASSIGNED_CONTEXT ( ( #106, #341, #104 ) ) REPRESENTATION_CONTEXT ( 'NONE', 'WORKASPACE' ) );
#48 =( LENGTH_UNIT ( ) NAMED_UNIT ( * ) SI_UNIT ( $, .METRE. ) );
#49 = ORIENTED_EDGE ( 'NONE', *, *, #73, .T. ) ;
#50 = PLANE ( 'NONE',  #349 ) ;
#51 = LENGTH_MEASURE_WITH_UNIT ( LENGTH_MEASURE( 0.02539999999999999897 ), #290 );
#52 = ORIENTED_EDGE ( 'NONE', *, *, #43, .F. ) ;
#53 = PLANE ( 'NONE',  #236 ) ;
#54 = AXIS2_PLACEMENT_3D ( 'NONE', #174, #150, #93 ) ;
#55 = CIRCLE ( 'NONE', #335, 0.06250000000000002776 ) ;
#56 = ORIENTED_EDGE ( 'NONE', *, *, #107, .T. ) ;
#57 = UNCERTAINTY_MEASURE_WITH_UNIT (LENGTH_MEASURE( 1.000000000000000082E-05 ), #265, 'distance_accuracy_value', 'NONE');
#58 = DIRECTION ( 'NONE',  ( 1.000000000000000000, 0.0000000000000000000, 0.0000000000000000000 ) ) ;
#59 = FACE_OUTER_BOUND ( 'NONE', #141, .T. ) ;
#60 = DIRECTION ( 'NONE',  ( 0.0000000000000000000, -1.000000000000000000, 0.0000000000000000000 ) ) ;
#61 = AXIS2_PLACEMENT_3D ( 'NONE', #310, #96, #124 ) ;
#62 = CIRCLE ( 'NONE', #121, 0.01058440000000000943 ) ;
#63 = DIRECTION ( 'NONE',  ( 0.0000000000000000000, 0.0000000000000000000, 1.000000000000000000 ) ) ;
#64 = CARTESIAN_POINT ( 'NONE',  ( 0.01058440000000000943, 0.0000000000000000000, 0.005000000000000000104 ) ) ;
#65 = CARTESIAN_POINT ( 'NONE',  ( 0.01558440000000001387, 0.0000000000000000000, 0.07800000000000009703 ) ) ;
#66 = AXIS2_PLACEMENT_3D ( 'NONE', #351, #225, #254 ) ;
#67 = DIRECTION ( 'NONE',  ( -1.224646799147353700E-16, -0.0000000000000000000, -1.000000000000000000 ) ) ;
#68 = ORIENTED_EDGE ( 'NONE', *, *, #249, .F. ) ;
#69 = EDGE_LOOP ( 'NONE', ( #312, #339, #287, #125 ) ) ;
#70 = EDGE_CURVE ( 'NONE', #11, #140, #13, .T. ) ;
#71 = AXIS2_PLACEMENT_3D ( 'NONE', #278, #251, #119 ) ;
#72 = VERTEX_POINT ( 'NONE', #65 ) ;
#73 = EDGE_CURVE ( 'NONE', #23, #348, #250, .T. ) ;
#74 = CONICAL_SURFACE ( 'NONE', #98, 0.04750000000000064587, 0.7853981633974466137 ) ;
#75 = CARTESIAN_POINT ( 'NONE',  ( 0.06250000000000002776, 7.654042494670959086E-18, 1.485000000000000764 ) ) ;
#76 = DIRECTION ( 'NONE',  ( 1.000000000000000000, 0.0000000000000000000, 0.0000000000000000000 ) ) ;
#77 = ORIENTED_EDGE ( 'NONE', *, *, #107, .F. ) ;
#78 = FACE_OUTER_BOUND ( 'NONE', #101, .T. ) ;
#79 =( GEOMETRIC_REPRESENTATION_CONTEXT ( 3 ) GLOBAL_UNCERTAINTY_ASSIGNED_CONTEXT ( ( #57 ) ) GLOBAL_UNIT_ASSIGNED_CONTEXT ( ( #265, #191, #195 ) ) REPRESENTATION_CONTEXT ( 'NONE', 'WORKASPACE' ) );
#80 = ORIENTED_EDGE ( 'NONE', *, *, #229, .F. ) ;
#81 = DIRECTION ( 'NONE',  ( -1.000000000000000000, 0.0000000000000000000, 1.224646799147353700E-16 ) ) ;
#82 = EDGE_LOOP ( 'NONE', ( #152, #260, #6, #300 ) ) ;
#83 = FILL_AREA_STYLE_COLOUR ( '', #201 ) ;
#84 = SURFACE_SIDE_STYLE ('',( #113 ) ) ;
#85 = FILL_AREA_STYLE ('',( #132 ) ) ;
#86 = TOROIDAL_SURFACE ( 'NONE', #45, 0.01058440000000000943, 0.005000000000000000104 ) ;
#87 = LINE ( 'NONE', #202, #282 ) ;
#88 = CARTESIAN_POINT ( 'NONE',  ( 6.123233995736768848E-19, 0.0000000000000000000, 0.005000000000000000104 ) ) ;
#89 = EDGE_CURVE ( 'NONE', #38, #72, #120, .T. ) ;
#90 = CARTESIAN_POINT ( 'NONE',  ( 6.123233995736768848E-19, 0.0000000000000000000, 0.005000000000000000104 ) ) ;
#91 = PRODUCT_DEFINITION_CONTEXT ( 'detailed design', #292, 'design' ) ;
#92 = CIRCLE ( 'NONE', #253, 0.06250000000000002776 ) ;
#93 = DIRECTION ( 'NONE',  ( 1.000000000000000000, 0.0000000000000000000, 0.0000000000000000000 ) ) ;
#94 = DIRECTION ( 'NONE',  ( 1.224646799147353207E-16, 1.000000000000000000, -0.0000000000000000000 ) ) ;
#95 = EDGE_CURVE ( 'NONE', #23, #157, #126, .T. ) ;
#96 = DIRECTION ( 'NONE',  ( 0.0000000000000000000, 0.0000000000000000000, -1.000000000000000000 ) ) ;
#97 = AXIS2_PLACEMENT_3D ( 'NONE', #37, #203, #179 ) ;
#98 = AXIS2_PLACEMENT_3D ( 'NONE', #187, #210, #238 ) ;
#99 = EDGE_CURVE ( 'NONE', #263, #186, #324, .T. ) ;
#100 = UNCERTAINTY_MEASURE_WITH_UNIT (LENGTH_MEASURE( 1.000000000000000082E-05 ), #106, 'distance_accuracy_value', 'NONE');
#101 = EDGE_LOOP ( 'NONE', ( #8, #156 ) ) ;
#102 = AXIS2_PLACEMENT_3D ( 'NONE', #344, #215, #192 ) ;
#103 = DIRECTION ( 'NONE',  ( 1.224646799147353700E-16, 0.0000000000000000000, 1.000000000000000000 ) ) ;
#104 =( NAMED_UNIT ( * ) SI_UNIT ( $, .STERADIAN. ) SOLID_ANGLE_UNIT ( ) );
#105 = DIRECTION ( 'NONE',  ( 0.0000000000000000000, 0.0000000000000000000, 1.000000000000000000 ) ) ;
#106 =( CONVERSION_BASED_UNIT ( 'INCH', #134 ) LENGTH_UNIT ( ) NAMED_UNIT ( #214 ) );
#107 = EDGE_CURVE ( 'NONE', #72, #38, #130, .T. ) ;
#108 = DIRECTION ( 'NONE',  ( 0.7071067811865462405, 8.659560562354916834E-17, -0.7071067811865486830 ) ) ;
#109 = ADVANCED_FACE ( 'NONE', ( #328 ), #86, .T. ) ;
#110 = ORIENTED_EDGE ( 'NONE', *, *, #188, .F. ) ;
#111 = LINE ( 'NONE', #190, #14 ) ;
#112 = CARTESIAN_POINT ( 'NONE',  ( 0.0000000000000000000, 0.0000000000000000000, 1.485000000000000764 ) ) ;
#113 = SURFACE_STYLE_FILL_AREA ( #281 ) ;
#114 = MECHANICAL_DESIGN_GEOMETRIC_PRESENTATION_REPRESENTATION (  '', ( #343 ), #28 ) ;
#115 = MECHANICAL_DESIGN_GEOMETRIC_PRESENTATION_REPRESENTATION (  '', ( #158 ), #79 ) ;
#116 = DIRECTION ( 'NONE',  ( -0.0000000000000000000, -0.0000000000000000000, -1.000000000000000000 ) ) ;
#117 = DIRECTION ( 'NONE',  ( 0.0000000000000000000, 0.0000000000000000000, -1.000000000000000000 ) ) ;
#118 = ADVANCED_BREP_SHAPE_REPRESENTATION ( 'Micro_GEC-031-3-005', ( #40, #102 ), #47 ) ;
#119 = DIRECTION ( 'NONE',  ( 1.000000000000000000, 0.0000000000000000000, 0.0000000000000000000 ) ) ;
#120 = CIRCLE ( 'NONE', #66, 0.01558440000000000519 ) ;
#121 = AXIS2_PLACEMENT_3D ( 'NONE', #142, #162, #76 ) ;
#122 = EDGE_CURVE ( 'NONE', #346, #185, #184, .T. ) ;
#123 = FACE_OUTER_BOUND ( 'NONE', #314, .T. ) ;
#124 = DIRECTION ( 'NONE',  ( -1.000000000000000000, 0.0000000000000000000, 0.0000000000000000000 ) ) ;
#125 = ORIENTED_EDGE ( 'NONE', *, *, #338, .F. ) ;
#126 = CIRCLE ( 'NONE', #286, 0.06250000000000002776 ) ;
#127 = AXIS2_PLACEMENT_3D ( 'NONE', #264, #170, #316 ) ;
#128 = ORIENTED_EDGE ( 'NONE', *, *, #205, .F. ) ;
#129 = ORIENTED_EDGE ( 'NONE', *, *, #249, .T. ) ;
#130 = CIRCLE ( 'NONE', #149, 0.01558440000000000519 ) ;
#131 = EDGE_LOOP ( 'NONE', ( #164, #15, #128, #337 ) ) ;
#132 = FILL_AREA_STYLE_COLOUR ( '', #3 ) ;
#133 = EDGE_CURVE ( 'NONE', #38, #140, #221, .T. ) ;
#134 = LENGTH_MEASURE_WITH_UNIT ( LENGTH_MEASURE( 0.02539999999999999897 ), #217 );
#135 = FACE_OUTER_BOUND ( 'NONE', #342, .T. ) ;
#136 = ADVANCED_FACE ( 'NONE', ( #59 ), #350, .T. ) ;
#137 = CARTESIAN_POINT ( 'NONE',  ( -0.01558439999999999652, 4.781290526167081051E-18, 0.07800000000000009703 ) ) ;
#138 = AXIS2_PLACEMENT_3D ( 'NONE', #189, #20, #241 ) ;
#139 = CARTESIAN_POINT ( 'NONE',  ( 0.01058440000000000943, 0.0000000000000000000, 0.0000000000000000000 ) ) ;
#140 = VERTEX_POINT ( 'NONE', #175 ) ;
#141 = EDGE_LOOP ( 'NONE', ( #317, #56, #230, #12 ) ) ;
#142 = CARTESIAN_POINT ( 'NONE',  ( 6.123233995736768848E-19, 0.0000000000000000000, 0.0000000000000000000 ) ) ;
#143 = DIRECTION ( 'NONE',  ( -1.000000000000000000, 0.0000000000000000000, 0.0000000000000000000 ) ) ;
#144 = AXIS2_PLACEMENT_3D ( 'NONE', #247, #30, #226 ) ;
#145 = CARTESIAN_POINT ( 'NONE',  ( -0.06250000000000002776, 0.0000000000000000000, 1.500000000000000222 ) ) ;
#146 = CARTESIAN_POINT ( 'NONE',  ( -0.01558440000000000866, 0.0000000000000000000, 1.908538557663203017E-18 ) ) ;
#147 = DIRECTION ( 'NONE',  ( 0.1736481776669316635, 0.0000000000000000000, 0.9848077530122077983 ) ) ;
#148 = AXIS2_PLACEMENT_3D ( 'NONE', #112, #274, #345 ) ;
#149 = AXIS2_PLACEMENT_3D ( 'NONE', #303, #280, #143 ) ;
#150 = DIRECTION ( 'NONE',  ( 0.0000000000000000000, 0.0000000000000000000, 1.000000000000000000 ) ) ;
#151 = FACE_OUTER_BOUND ( 'NONE', #284, .T. ) ;
#152 = ORIENTED_EDGE ( 'NONE', *, *, #89, .T. ) ;
#153 = PRODUCT_DEFINITION ( 'UNKNOWN', '', #306, #91 ) ;
#154 = CLOSED_SHELL ( 'NONE', ( #198, #245, #269, #311, #233, #336, #259, #231, #161, #136, #272, #109 ) ) ;
#155 = PRESENTATION_LAYER_ASSIGNMENT (  '', '', ( #343 ) ) ;
#156 = ORIENTED_EDGE ( 'NONE', *, *, #122, .T. ) ;
#157 = VERTEX_POINT ( 'NONE', #171 ) ;
#158 = STYLED_ITEM ( 'NONE', ( #211 ), #118 ) ;
#159 = ORIENTED_EDGE ( 'NONE', *, *, #10, .T. ) ;
#160 = FACE_OUTER_BOUND ( 'NONE', #288, .T. ) ;
#161 = ADVANCED_FACE ( 'NONE', ( #123 ), #200, .T. ) ;
#162 = DIRECTION ( 'NONE',  ( -0.0000000000000000000, -0.0000000000000000000, -1.000000000000000000 ) ) ;
#163 = SURFACE_STYLE_USAGE ( .BOTH. , #84 ) ;
#164 = ORIENTED_EDGE ( 'NONE', *, *, #326, .F. ) ;
#165 = CARTESIAN_POINT ( 'NONE',  ( -0.04750000000000064587, 0.0000000000000000000, 1.500000000000000222 ) ) ;
#166 = LENGTH_MEASURE_WITH_UNIT ( LENGTH_MEASURE( 0.02539999999999999897 ), #48 );
#167 = ORIENTED_EDGE ( 'NONE', *, *, #10, .F. ) ;
#168 = CARTESIAN_POINT ( 'NONE',  ( 0.0000000000000000000, 0.0000000000000000000, 0.0000000000000000000 ) ) ;
#169 = ORIENTED_EDGE ( 'NONE', *, *, #122, .F. ) ;
#170 = DIRECTION ( 'NONE',  ( -0.0000000000000000000, -0.0000000000000000000, -1.000000000000000000 ) ) ;
#171 = CARTESIAN_POINT ( 'NONE',  ( -0.06250000000000002776, 0.0000000000000000000, 1.485000000000000764 ) ) ;
#172 = CARTESIAN_POINT ( 'NONE',  ( 0.06250000000000002776, 7.654042494670959086E-18, 1.500000000000000222 ) ) ;
#173 = AXIS2_PLACEMENT_3D ( 'NONE', #283, #67, #81 ) ;
#174 = CARTESIAN_POINT ( 'NONE',  ( 6.123233995736768848E-19, 0.0000000000000000000, 0.005000000000000000104 ) ) ;
#175 = CARTESIAN_POINT ( 'NONE',  ( -0.01558440000000000866, 0.0000000000000000000, 0.005000000000000000104 ) ) ;
#176 = CARTESIAN_POINT ( 'NONE',  ( -0.04750000000000064587, 0.0000000000000000000, 1.500000000000000222 ) ) ;
#177 = VECTOR ( 'NONE', #197, 39.37007874015748854 ) ;
#178 = VECTOR ( 'NONE', #220, 39.37007874015748143 ) ;
#179 = DIRECTION ( 'NONE',  ( -1.000000000000000000, 0.0000000000000000000, 0.0000000000000000000 ) ) ;
#180 = EDGE_LOOP ( 'NONE', ( #44, #209, #334, #258 ) ) ;
#181 = EDGE_CURVE ( 'NONE', #157, #212, #223, .T. ) ;
#182 = ORIENTED_EDGE ( 'NONE', *, *, #181, .F. ) ;
#183 = ORIENTED_EDGE ( 'NONE', *, *, #99, .T. ) ;
#184 = CIRCLE ( 'NONE', #299, 0.04750000000000064587 ) ;
#185 = VERTEX_POINT ( 'NONE', #176 ) ;
#186 = VERTEX_POINT ( 'NONE', #327 ) ;
#187 = CARTESIAN_POINT ( 'NONE',  ( 0.0000000000000000000, 0.0000000000000000000, 1.500000000000000222 ) ) ;
#188 = EDGE_CURVE ( 'NONE', #140, #186, #319, .T. ) ;
#189 = CARTESIAN_POINT ( 'NONE',  ( 6.123233995736768848E-19, 0.0000000000000000000, 0.0000000000000000000 ) ) ;
#190 = CARTESIAN_POINT ( 'NONE',  ( 0.04750000000000064587, 5.817072295950006528E-18, 1.500000000000000222 ) ) ;
#191 =( NAMED_UNIT ( * ) PLANE_ANGLE_UNIT ( ) SI_UNIT ( $, .RADIAN. ) );
#192 = DIRECTION ( 'NONE',  ( 1.000000000000000000, 0.0000000000000000000, 0.0000000000000000000 ) ) ;
#193 = CARTESIAN_POINT ( 'NONE',  ( -0.01058440000000000943, 1.296215158089525459E-18, 0.005000000000000000104 ) ) ;
#194 = DIRECTION ( 'NONE',  ( -1.224646799147353700E-16, -0.0000000000000000000, -1.000000000000000000 ) ) ;
#195 =( NAMED_UNIT ( * ) SI_UNIT ( $, .STERADIAN. ) SOLID_ANGLE_UNIT ( ) );
#196 = CIRCLE ( 'NONE', #54, 0.01558440000000000866 ) ;
#197 = DIRECTION ( 'NONE',  ( -0.1736481776669314414, 2.126576849575786706E-17, 0.9848077530122077983 ) ) ;
#198 = ADVANCED_FACE ( 'NONE', ( #1 ), #232, .T. ) ;
#199 = DIRECTION ( 'NONE',  ( 0.0000000000000000000, 0.0000000000000000000, 1.000000000000000000 ) ) ;
#200 = CONICAL_SURFACE ( 'NONE', #144, 0.01558440000000000519, 0.1745329251994342246 ) ;
#201 = COLOUR_RGB ( '',0.7921568627450980005, 0.8196078431372548767, 0.9333333333333333481 ) ;
#202 = CARTESIAN_POINT ( 'NONE',  ( 0.01558440000000001387, 0.0000000000000000000, 0.07800000000000009703 ) ) ;
#203 = DIRECTION ( 'NONE',  ( -0.0000000000000000000, -0.0000000000000000000, -1.000000000000000000 ) ) ;
#204 = CONICAL_SURFACE ( 'NONE', #248, 0.01558440000000000519, 0.1745329251994342246 ) ;
#205 = EDGE_CURVE ( 'NONE', #186, #140, #196, .T. ) ;
#206 = CIRCLE ( 'NONE', #148, 0.06250000000000002776 ) ;
#207 = VECTOR ( 'NONE', #116, 39.37007874015748143 ) ;
#208 = ORIENTED_EDGE ( 'NONE', *, *, #219, .T. ) ;
#209 = ORIENTED_EDGE ( 'NONE', *, *, #229, .T. ) ;
#210 = DIRECTION ( 'NONE',  ( 0.0000000000000000000, 0.0000000000000000000, -1.000000000000000000 ) ) ;
#211 = PRESENTATION_STYLE_ASSIGNMENT (( #163 ) ) ;
#212 = VERTEX_POINT ( 'NONE', #325 ) ;
#213 = EDGE_LOOP ( 'NONE', ( #340, #52, #183, #110 ) ) ;
#214 = DIMENSIONAL_EXPONENTS ( 1.000000000000000000, 0.0000000000000000000, 0.0000000000000000000, 0.0000000000000000000, 0.0000000000000000000, 0.0000000000000000000, 0.0000000000000000000 ) ;
#215 = DIRECTION ( 'NONE',  ( 0.0000000000000000000, 0.0000000000000000000, 1.000000000000000000 ) ) ;
#216 = DIRECTION ( 'NONE',  ( 1.000000000000000000, 0.0000000000000000000, 0.0000000000000000000 ) ) ;
#217 =( LENGTH_UNIT ( ) NAMED_UNIT ( * ) SI_UNIT ( $, .METRE. ) );
#218 = CARTESIAN_POINT ( 'NONE',  ( 4.213661705584322371E-17, 0.0000000000000000000, 0.3440715893364548750 ) ) ;
#219 = EDGE_CURVE ( 'NONE', #72, #348, #87, .T. ) ;
#220 = DIRECTION ( 'NONE',  ( -1.224646799147353700E-16, -0.0000000000000000000, -1.000000000000000000 ) ) ;
#221 = LINE ( 'NONE', #146, #22 ) ;
#222 = CIRCLE ( 'NONE', #138, 0.01058440000000000943 ) ;
#223 = LINE ( 'NONE', #145, #333 ) ;
#224 = DIRECTION ( 'NONE',  ( 0.0000000000000000000, 0.0000000000000000000, -1.000000000000000000 ) ) ;
#225 = DIRECTION ( 'NONE',  ( -1.224646799147353700E-16, -0.0000000000000000000, -1.000000000000000000 ) ) ;
#226 = DIRECTION ( 'NONE',  ( 1.000000000000000000, 0.0000000000000000000, 0.0000000000000000000 ) ) ;
#227 = APPLICATION_CONTEXT ( 'automotive_design' ) ;
#228 = CYLINDRICAL_SURFACE ( 'NONE', #97, 0.06250000000000002776 ) ;
#229 = EDGE_CURVE ( 'NONE', #38, #212, #252, .T. ) ;
#230 = ORIENTED_EDGE ( 'NONE', *, *, #133, .T. ) ;
#231 = ADVANCED_FACE ( 'NONE', ( #331 ), #305, .T. ) ;
#232 = TOROIDAL_SURFACE ( 'NONE', #71, 0.01058440000000000943, 0.005000000000000000104 ) ;
#233 = ADVANCED_FACE ( 'NONE', ( #151 ), #228, .T. ) ;
#234 = ORIENTED_EDGE ( 'NONE', *, *, #338, .T. ) ;
#235 = EDGE_LOOP ( 'NONE', ( #68, #323, #285, #297 ) ) ;
#236 = AXIS2_PLACEMENT_3D ( 'NONE', #266, #291, #26 ) ;
#237 = SURFACE_SIDE_STYLE ('',( #239 ) ) ;
#238 = DIRECTION ( 'NONE',  ( -1.000000000000000000, 0.0000000000000000000, 0.0000000000000000000 ) ) ;
#239 = SURFACE_STYLE_FILL_AREA ( #85 ) ;
#240 = CARTESIAN_POINT ( 'NONE',  ( 4.213661705584322371E-17, 0.0000000000000000000, 0.3440715893364548750 ) ) ;
#241 = DIRECTION ( 'NONE',  ( 1.000000000000000000, 0.0000000000000000000, 0.0000000000000000000 ) ) ;
#242 = CARTESIAN_POINT ( 'NONE',  ( 0.04750000000000064587, 6.735557395310483192E-18, 1.500000000000000222 ) ) ;
#243 = CARTESIAN_POINT ( 'NONE',  ( 0.0000000000000000000, 0.0000000000000000000, 1.500000000000000222 ) ) ;
#244 = DIRECTION ( 'NONE',  ( 1.000000000000000000, 0.0000000000000000000, -0.0000000000000000000 ) ) ;
#245 = ADVANCED_FACE ( 'NONE', ( #255 ), #332, .T. ) ;
#246 =( NAMED_UNIT ( * ) SI_UNIT ( $, .STERADIAN. ) SOLID_ANGLE_UNIT ( ) );
#247 = CARTESIAN_POINT ( 'NONE',  ( 9.552245033349369302E-18, 0.0000000000000000000, 0.07800000000000009703 ) ) ;
#248 = AXIS2_PLACEMENT_3D ( 'NONE', #289, #103, #58 ) ;
#249 = EDGE_CURVE ( 'NONE', #346, #23, #111, .T. ) ;
#250 = LINE ( 'NONE', #172, #207 ) ;
#251 = DIRECTION ( 'NONE',  ( 0.0000000000000000000, 0.0000000000000000000, 1.000000000000000000 ) ) ;
#252 = LINE ( 'NONE', #2, #177 ) ;
#253 = AXIS2_PLACEMENT_3D ( 'NONE', #218, #315, #216 ) ;
#254 = DIRECTION ( 'NONE',  ( -1.000000000000000000, 0.0000000000000000000, 0.0000000000000000000 ) ) ;
#255 = FACE_OUTER_BOUND ( 'NONE', #82, .T. ) ;
#256 = EDGE_CURVE ( 'NONE', #185, #157, #301, .T. ) ;
#257 = AXIS2_PLACEMENT_3D ( 'NONE', #88, #63, #34 ) ;
#258 = ORIENTED_EDGE ( 'NONE', *, *, #219, .F. ) ;
#259 = ADVANCED_FACE ( 'NONE', ( #78 ), #53, .T. ) ;
#260 = ORIENTED_EDGE ( 'NONE', *, *, #329, .T. ) ;
#261 = PRODUCT_DEFINITION_SHAPE ( 'NONE', 'NONE',  #153 ) ;
#262 = ORIENTED_EDGE ( 'NONE', *, *, #256, .F. ) ;
#263 = VERTEX_POINT ( 'NONE', #139 ) ;
#264 = CARTESIAN_POINT ( 'NONE',  ( 0.0000000000000000000, 0.0000000000000000000, 1.500000000000000222 ) ) ;
#265 =( CONVERSION_BASED_UNIT ( 'INCH', #166 ) LENGTH_UNIT ( ) NAMED_UNIT ( #273 ) );
#266 = CARTESIAN_POINT ( 'NONE',  ( 0.0000000000000000000, 0.0000000000000000000, 1.500000000000000222 ) ) ;
#267 =( NAMED_UNIT ( * ) PLANE_ANGLE_UNIT ( ) SI_UNIT ( $, .RADIAN. ) );
#268 = FACE_OUTER_BOUND ( 'NONE', #180, .T. ) ;
#269 = ADVANCED_FACE ( 'NONE', ( #268 ), #204, .T. ) ;
#270 = AXIS2_PLACEMENT_3D ( 'NONE', #27, #276, #304 ) ;
#271 = DIRECTION ( 'NONE',  ( 1.000000000000000000, 0.0000000000000000000, 0.0000000000000000000 ) ) ;
#272 = ADVANCED_FACE ( 'NONE', ( #135 ), #50, .F. ) ;
#273 = DIMENSIONAL_EXPONENTS ( 1.000000000000000000, 0.0000000000000000000, 0.0000000000000000000, 0.0000000000000000000, 0.0000000000000000000, 0.0000000000000000000, 0.0000000000000000000 ) ;
#274 = DIRECTION ( 'NONE',  ( 0.0000000000000000000, 0.0000000000000000000, -1.000000000000000000 ) ) ;
#275 = DIRECTION ( 'NONE',  ( 0.0000000000000000000, 0.0000000000000000000, 1.000000000000000000 ) ) ;
#276 = DIRECTION ( 'NONE',  ( -1.224646799147353700E-16, -0.0000000000000000000, -1.000000000000000000 ) ) ;
#277 = CIRCLE ( 'NONE', #41, 0.04750000000000064587 ) ;
#278 = CARTESIAN_POINT ( 'NONE',  ( 6.123233995736768848E-19, 0.0000000000000000000, 0.005000000000000000104 ) ) ;
#279 = CARTESIAN_POINT ( 'NONE',  ( 0.0000000000000000000, 0.0000000000000000000, 1.485000000000000764 ) ) ;
#280 = DIRECTION ( 'NONE',  ( -1.224646799147353700E-16, -0.0000000000000000000, -1.000000000000000000 ) ) ;
#281 = FILL_AREA_STYLE ('',( #83 ) ) ;
#282 = VECTOR ( 'NONE', #147, 39.37007874015748854 ) ;
#283 = CARTESIAN_POINT ( 'NONE',  ( 0.0000000000000000000, 0.0000000000000000000, 0.0000000000000000000 ) ) ;
#284 = EDGE_LOOP ( 'NONE', ( #159, #49, #42, #182 ) ) ;
#285 = ORIENTED_EDGE ( 'NONE', *, *, #256, .T. ) ;
#286 = AXIS2_PLACEMENT_3D ( 'NONE', #279, #117, #307 ) ;
#287 = ORIENTED_EDGE ( 'NONE', *, *, #181, .T. ) ;
#288 = EDGE_LOOP ( 'NONE', ( #169, #129, #167, #262 ) ) ;
#289 = CARTESIAN_POINT ( 'NONE',  ( 9.552245033349369302E-18, 0.0000000000000000000, 0.07800000000000009703 ) ) ;
#290 =( LENGTH_UNIT ( ) NAMED_UNIT ( * ) SI_UNIT ( $, .METRE. ) );
#291 = DIRECTION ( 'NONE',  ( 0.0000000000000000000, 0.0000000000000000000, 1.000000000000000000 ) ) ;
#292 = APPLICATION_CONTEXT ( 'automotive_design' ) ;
#293 = CARTESIAN_POINT ( 'NONE',  ( -0.01058440000000000943, 1.602376857876363853E-18, 0.0000000000000000000 ) ) ;
#294 = LINE ( 'NONE', #347, #178 ) ;
#295 = DIMENSIONAL_EXPONENTS ( 1.000000000000000000, 0.0000000000000000000, 0.0000000000000000000, 0.0000000000000000000, 0.0000000000000000000, 0.0000000000000000000, 0.0000000000000000000 ) ;
#296 = PRODUCT_CONTEXT ( 'NONE', #227, 'mechanical' ) ;
#297 = ORIENTED_EDGE ( 'NONE', *, *, #95, .F. ) ;
#298 = DIRECTION ( 'NONE',  ( 0.0000000000000000000, 0.0000000000000000000, 1.000000000000000000 ) ) ;
#299 = AXIS2_PLACEMENT_3D ( 'NONE', #302, #199, #5 ) ;
#300 = ORIENTED_EDGE ( 'NONE', *, *, #133, .F. ) ;
#301 = LINE ( 'NONE', #165, #35 ) ;
#302 = CARTESIAN_POINT ( 'NONE',  ( 0.0000000000000000000, 0.0000000000000000000, 1.500000000000000222 ) ) ;
#303 = CARTESIAN_POINT ( 'NONE',  ( 9.552245033349369302E-18, 0.0000000000000000000, 0.07800000000000009703 ) ) ;
#304 = DIRECTION ( 'NONE',  ( -1.000000000000000000, 0.0000000000000000000, 1.224646799147353700E-16 ) ) ;
#305 = CONICAL_SURFACE ( 'NONE', #61, 0.04750000000000064587, 0.7853981633974466137 ) ;
#306 = PRODUCT_DEFINITION_FORMATION_WITH_SPECIFIED_SOURCE ( 'ANY', '', #320, .NOT_KNOWN. ) ;
#307 = DIRECTION ( 'NONE',  ( 1.000000000000000000, 0.0000000000000000000, 0.0000000000000000000 ) ) ;
#308 = DIRECTION ( 'NONE',  ( -0.0000000000000000000, -0.0000000000000000000, -1.000000000000000000 ) ) ;
#309 = SHAPE_DEFINITION_REPRESENTATION ( #261, #118 ) ;
#310 = CARTESIAN_POINT ( 'NONE',  ( 0.0000000000000000000, 0.0000000000000000000, 1.500000000000000222 ) ) ;
#311 = ADVANCED_FACE ( 'NONE', ( #160 ), #74, .T. ) ;
#312 = ORIENTED_EDGE ( 'NONE', *, *, #73, .F. ) ;
#313 = AXIS2_PLACEMENT_3D ( 'NONE', #64, #60, #224 ) ;
#314 = EDGE_LOOP ( 'NONE', ( #80, #77, #208, #234 ) ) ;
#315 = DIRECTION ( 'NONE',  ( -1.224646799147353700E-16, -0.0000000000000000000, -1.000000000000000000 ) ) ;
#316 = DIRECTION ( 'NONE',  ( -1.000000000000000000, 0.0000000000000000000, 0.0000000000000000000 ) ) ;
#317 = ORIENTED_EDGE ( 'NONE', *, *, #329, .F. ) ;
#318 = APPLICATION_PROTOCOL_DEFINITION ( 'draft international standard', 'automotive_design', 1998, #227 ) ;
#319 = CIRCLE ( 'NONE', #257, 0.01558440000000000866 ) ;
#320 = PRODUCT ( 'Micro_GEC-031-3-005', 'Micro_GEC-031-3-005', '', ( #296 ) ) ;
#321 = PRODUCT_RELATED_PRODUCT_CATEGORY ( 'part', '', ( #320 ) ) ;
#322 = SURFACE_STYLE_USAGE ( .BOTH. , #237 ) ;
#323 = ORIENTED_EDGE ( 'NONE', *, *, #36, .F. ) ;
#324 = CIRCLE ( 'NONE', #313, 0.005000000000000000104 ) ;
#325 = CARTESIAN_POINT ( 'NONE',  ( -0.06249999999999997918, 0.0000000000000000000, 0.3440715893364548750 ) ) ;
#326 = EDGE_CURVE ( 'NONE', #11, #263, #62, .T. ) ;
#327 = CARTESIAN_POINT ( 'NONE',  ( 0.01558440000000000866, 1.908538557663202247E-18, 0.005000000000000000104 ) ) ;
#328 = FACE_OUTER_BOUND ( 'NONE', #213, .T. ) ;
#329 = EDGE_CURVE ( 'NONE', #72, #186, #294, .T. ) ;
#330 = DIRECTION ( 'NONE',  ( -1.224646799147353700E-16, -0.0000000000000000000, -1.000000000000000000 ) ) ;
#331 = FACE_OUTER_BOUND ( 'NONE', #235, .T. ) ;
#332 = CYLINDRICAL_SURFACE ( 'NONE', #173, 0.01558440000000000866 ) ;
#333 = VECTOR ( 'NONE', #308, 39.37007874015748143 ) ;
#334 = ORIENTED_EDGE ( 'NONE', *, *, #19, .T. ) ;
#335 = AXIS2_PLACEMENT_3D ( 'NONE', #240, #194, #18 ) ;
#336 = ADVANCED_FACE ( 'NONE', ( #24 ), #21, .T. ) ;
#337 = ORIENTED_EDGE ( 'NONE', *, *, #99, .F. ) ;
#338 = EDGE_CURVE ( 'NONE', #348, #212, #55, .T. ) ;
#339 = ORIENTED_EDGE ( 'NONE', *, *, #95, .T. ) ;
#340 = ORIENTED_EDGE ( 'NONE', *, *, #70, .F. ) ;
#341 =( NAMED_UNIT ( * ) PLANE_ANGLE_UNIT ( ) SI_UNIT ( $, .RADIAN. ) );
#342 = EDGE_LOOP ( 'NONE', ( #9, #39 ) ) ;
#343 = STYLED_ITEM ( 'NONE', ( #17 ), #40 ) ;
#344 = CARTESIAN_POINT ( 'NONE',  ( 0.0000000000000000000, 0.0000000000000000000, 0.0000000000000000000 ) ) ;
#345 = DIRECTION ( 'NONE',  ( 1.000000000000000000, 0.0000000000000000000, 0.0000000000000000000 ) ) ;
#346 = VERTEX_POINT ( 'NONE', #242 ) ;
#347 = CARTESIAN_POINT ( 'NONE',  ( 0.01558440000000000866, 1.908538557663202247E-18, -1.908538557663203017E-18 ) ) ;
#348 = VERTEX_POINT ( 'NONE', #16 ) ;
#349 = AXIS2_PLACEMENT_3D ( 'NONE', #168, #298, #244 ) ;
#350 = CYLINDRICAL_SURFACE ( 'NONE', #270, 0.01558440000000000866 ) ;
#351 = CARTESIAN_POINT ( 'NONE',  ( 9.552245033349369302E-18, 0.0000000000000000000, 0.07800000000000009703 ) ) ;
ENDSEC;
END-ISO-10303-21;
