ISO-10303-21;
HEADER;
FILE_DESCRIPTION (( 'STEP AP214' ),
    '1' );
FILE_NAME ('59456.STEP',
    '2023-06-30T22:21:39',
    ( '' ),
    ( '' ),
    'SwSTEP 2.0',
    'SolidWorks 2023',
    '' );
FILE_SCHEMA (( 'AUTOMOTIVE_DESIGN' ));
ENDSEC;

DATA;
#1 = AXIS2_PLACEMENT_3D ( 'NONE', #136, #15, #334 ) ;
#2 = AXIS2_PLACEMENT_3D ( 'NONE', #30, #63, #323 ) ;
#3 = DIRECTION ( 'NONE',  ( 1.000000000000000000, 0.000000000000000000, 0.000000000000000000 ) ) ;
#4 = VERTEX_POINT ( 'NONE', #368 ) ;
#5 = DIRECTION ( 'NONE',  ( 1.000000000000000000, 0.000000000000000000, -1.224646799147353207E-16 ) ) ;
#6 = ADVANCED_FACE ( 'NONE', ( #197 ), #231, .T. ) ;
#7 = ORIENTED_EDGE ( 'NONE', *, *, #90, .F. ) ;
#8 = PRODUCT_RELATED_PRODUCT_CATEGORY ( 'part', '', ( #130 ) ) ;
#9 = CARTESIAN_POINT ( 'NONE',  ( -0.3749999999999999445, 0.3750000000000001110, 4.592425496802572986E-17 ) ) ;
#10 = ORIENTED_EDGE ( 'NONE', *, *, #178, .T. ) ;
#11 = CARTESIAN_POINT ( 'NONE',  ( 2.143131898507867804E-16, 2.250000000000000444, 0.000000000000000000 ) ) ;
#12 = EDGE_LOOP ( 'NONE', ( #127, #66, #327, #38, #209 ) ) ;
#13 =( NAMED_UNIT ( * ) SI_UNIT ( $, .STERADIAN. ) SOLID_ANGLE_UNIT ( ) );
#14 = UNCERTAINTY_MEASURE_WITH_UNIT (LENGTH_MEASURE( 1.000000000000000082E-05 ), #149, 'distance_accuracy_value', 'NONE');
#15 = DIRECTION ( 'NONE',  ( -1.224646799147353207E-16, 1.000000000000000000, -0.000000000000000000 ) ) ;
#16 = MECHANICAL_DESIGN_GEOMETRIC_PRESENTATION_REPRESENTATION (  '', ( #342 ), #73 ) ;
#17 = AXIS2_PLACEMENT_3D ( 'NONE', #144, #259, #113 ) ;
#18 =( NAMED_UNIT ( * ) SI_UNIT ( $, .STERADIAN. ) SOLID_ANGLE_UNIT ( ) );
#19 = UNCERTAINTY_MEASURE_WITH_UNIT (LENGTH_MEASURE( 1.000000000000000082E-05 ), #304, 'distance_accuracy_value', 'NONE');
#20 = EDGE_CURVE ( 'NONE', #243, #101, #146, .T. ) ;
#21 = CYLINDRICAL_SURFACE ( 'NONE', #17, 0.3749999999999996669 ) ;
#22 = PRESENTATION_LAYER_ASSIGNMENT (  '', '', ( #369 ) ) ;
#23 = CIRCLE ( 'NONE', #28, 0.3749999999999998890 ) ;
#24 = DIRECTION ( 'NONE',  ( -1.000000000000000000, -1.224646799147353207E-16, 0.000000000000000000 ) ) ;
#25 = DIRECTION ( 'NONE',  ( 0.000000000000000000, 0.000000000000000000, -1.000000000000000000 ) ) ;
#26 = PRESENTATION_STYLE_ASSIGNMENT (( #226 ) ) ;
#27 = CYLINDRICAL_SURFACE ( 'NONE', #273, 0.3749999999999998335 ) ;
#28 = AXIS2_PLACEMENT_3D ( 'NONE', #279, #252, #217 ) ;
#29 = PRESENTATION_STYLE_ASSIGNMENT (( #93 ) ) ;
#30 = CARTESIAN_POINT ( 'NONE',  ( 0.000000000000000000, 0.3750000000000001110, 0.000000000000000000 ) ) ;
#31 = ADVANCED_FACE ( 'NONE', ( #233 ), #27, .T. ) ;
#32 = VECTOR ( 'NONE', #164, 39.37007874015748143 ) ;
#33 =( NAMED_UNIT ( * ) SI_UNIT ( $, .STERADIAN. ) SOLID_ANGLE_UNIT ( ) );
#34 = ORIENTED_EDGE ( 'NONE', *, *, #269, .F. ) ;
#35 = SURFACE_SIDE_STYLE ('',( #295 ) ) ;
#36 =( CONVERSION_BASED_UNIT ( 'INCH', #331 ) LENGTH_UNIT ( ) NAMED_UNIT ( #86 ) );
#37 = APPLICATION_CONTEXT ( 'automotive_design' ) ;
#38 = ORIENTED_EDGE ( 'NONE', *, *, #224, .F. ) ;
#39 = PRESENTATION_LAYER_ASSIGNMENT (  '', '', ( #104 ) ) ;
#40 = AXIS2_PLACEMENT_3D ( 'NONE', #61, #324, #3 ) ;
#41 = CARTESIAN_POINT ( 'NONE',  ( 0.000000000000000000, 0.000000000000000000, 0.000000000000000000 ) ) ;
#42 = FILL_AREA_STYLE ('',( #106 ) ) ;
#43 = DIRECTION ( 'NONE',  ( -1.000000000000000000, 0.000000000000000000, 0.000000000000000000 ) ) ;
#44 = DIRECTION ( 'NONE',  ( -1.000000000000000000, 0.000000000000000000, 0.000000000000000000 ) ) ;
#45 = UNCERTAINTY_MEASURE_WITH_UNIT (LENGTH_MEASURE( 1.000000000000000082E-05 ), #319, 'distance_accuracy_value', 'NONE');
#46 = FACE_OUTER_BOUND ( 'NONE', #158, .T. ) ;
#47 = ORIENTED_EDGE ( 'NONE', *, *, #250, .T. ) ;
#48 = AXIS2_PLACEMENT_3D ( 'NONE', #167, #367, #54 ) ;
#49 = CARTESIAN_POINT ( 'NONE',  ( 0.3749999999999995559, 5.000000000000000000, 4.592425496802570521E-17 ) ) ;
#50 =( GEOMETRIC_REPRESENTATION_CONTEXT ( 3 ) GLOBAL_UNCERTAINTY_ASSIGNED_CONTEXT ( ( #253 ) ) GLOBAL_UNIT_ASSIGNED_CONTEXT ( ( #354, #234, #33 ) ) REPRESENTATION_CONTEXT ( 'NONE', 'WORKASPACE' ) );
#51 = DIRECTION ( 'NONE',  ( 1.000000000000000000, 0.000000000000000000, 0.000000000000000000 ) ) ;
#52 = PRODUCT_DEFINITION_CONTEXT ( 'detailed design', #37, 'design' ) ;
#53 = FACE_OUTER_BOUND ( 'NONE', #75, .T. ) ;
#54 = DIRECTION ( 'NONE',  ( 0.000000000000000000, -0.000000000000000000, 1.000000000000000000 ) ) ;
#55 = CARTESIAN_POINT ( 'NONE',  ( 0.000000000000000000, 0.3750000000000001110, 0.000000000000000000 ) ) ;
#56 = LENGTH_MEASURE_WITH_UNIT ( LENGTH_MEASURE( 0.02539999999999999897 ), #348 );
#57 = DIMENSIONAL_EXPONENTS ( 1.000000000000000000, 0.000000000000000000, 0.000000000000000000, 0.000000000000000000, 0.000000000000000000, 0.000000000000000000, 0.000000000000000000 ) ;
#58 = FILL_AREA_STYLE ('',( #265 ) ) ;
#59 = MECHANICAL_DESIGN_GEOMETRIC_PRESENTATION_REPRESENTATION (  '', ( #104 ), #84 ) ;
#60 = STYLED_ITEM ( 'NONE', ( #26 ), #189 ) ;
#61 = CARTESIAN_POINT ( 'NONE',  ( -4.592425496802575451E-17, 0.3750000000000000555, 0.000000000000000000 ) ) ;
#62 =( LENGTH_UNIT ( ) NAMED_UNIT ( * ) SI_UNIT ( $, .METRE. ) );
#63 = DIRECTION ( 'NONE',  ( -0.000000000000000000, -1.000000000000000000, -0.000000000000000000 ) ) ;
#64 = CIRCLE ( 'NONE', #185, 0.3749999999999998890 ) ;
#65 = MECHANICAL_DESIGN_GEOMETRIC_PRESENTATION_REPRESENTATION (  '', ( #60 ), #80 ) ;
#66 = ORIENTED_EDGE ( 'NONE', *, *, #311, .T. ) ;
#67 = SPHERICAL_SURFACE ( 'NONE', #40, 0.3749999999999999445 ) ;
#68 = ORIENTED_EDGE ( 'NONE', *, *, #365, .F. ) ;
#69 = DIRECTION ( 'NONE',  ( -0.000000000000000000, -1.000000000000000000, -0.000000000000000000 ) ) ;
#70 = ORIENTED_EDGE ( 'NONE', *, *, #335, .T. ) ;
#71 = CARTESIAN_POINT ( 'NONE',  ( 4.592425496802571754E-17, 2.250000000000000000, 0.3749999999999997780 ) ) ;
#72 = ORIENTED_EDGE ( 'NONE', *, *, #344, .F. ) ;
#73 =( GEOMETRIC_REPRESENTATION_CONTEXT ( 3 ) GLOBAL_UNCERTAINTY_ASSIGNED_CONTEXT ( ( #19 ) ) GLOBAL_UNIT_ASSIGNED_CONTEXT ( ( #304, #329, #160 ) ) REPRESENTATION_CONTEXT ( 'NONE', 'WORKASPACE' ) );
#74 = VECTOR ( 'NONE', #102, 39.37007874015748143 ) ;
#75 = EDGE_LOOP ( 'NONE', ( #95, #188, #129, #271 ) ) ;
#76 =( LENGTH_UNIT ( ) NAMED_UNIT ( * ) SI_UNIT ( $, .METRE. ) );
#77 = LENGTH_MEASURE_WITH_UNIT ( LENGTH_MEASURE( 0.02539999999999999897 ), #276 );
#78 = SURFACE_SIDE_STYLE ('',( #308 ) ) ;
#79 =( LENGTH_UNIT ( ) NAMED_UNIT ( * ) SI_UNIT ( $, .METRE. ) );
#80 =( GEOMETRIC_REPRESENTATION_CONTEXT ( 3 ) GLOBAL_UNCERTAINTY_ASSIGNED_CONTEXT ( ( #96 ) ) GLOBAL_UNIT_ASSIGNED_CONTEXT ( ( #83, #195, #88 ) ) REPRESENTATION_CONTEXT ( 'NONE', 'WORKASPACE' ) );
#81 = DIRECTION ( 'NONE',  ( 0.000000000000000000, 0.000000000000000000, 1.000000000000000000 ) ) ;
#82 = MANIFOLD_SOLID_BREP ( 'Revolve - Tool Body (Straight Shanked)', #190 ) ;
#83 =( CONVERSION_BASED_UNIT ( 'INCH', #310 ) LENGTH_UNIT ( ) NAMED_UNIT ( #199 ) );
#84 =( GEOMETRIC_REPRESENTATION_CONTEXT ( 3 ) GLOBAL_UNCERTAINTY_ASSIGNED_CONTEXT ( ( #14 ) ) GLOBAL_UNIT_ASSIGNED_CONTEXT ( ( #149, #191, #18 ) ) REPRESENTATION_CONTEXT ( 'NONE', 'WORKASPACE' ) );
#85 = AXIS2_PLACEMENT_3D ( 'NONE', #141, #168, #366 ) ;
#86 = DIMENSIONAL_EXPONENTS ( 1.000000000000000000, 0.000000000000000000, 0.000000000000000000, 0.000000000000000000, 0.000000000000000000, 0.000000000000000000, 0.000000000000000000 ) ;
#87 = FILL_AREA_STYLE_COLOUR ( '', #266 ) ;
#88 =( NAMED_UNIT ( * ) SI_UNIT ( $, .STERADIAN. ) SOLID_ANGLE_UNIT ( ) );
#89 = MANIFOLD_SOLID_BREP ( 'Revolve - Cutting Edge', #124 ) ;
#90 = EDGE_CURVE ( 'NONE', #99, #101, #64, .T. ) ;
#91 = SURFACE_STYLE_FILL_AREA ( #58 ) ;
#92 = AXIS2_PLACEMENT_3D ( 'NONE', #239, #152, #5 ) ;
#93 = SURFACE_STYLE_USAGE ( .BOTH. , #232 ) ;
#94 = FILL_AREA_STYLE ('',( #181 ) ) ;
#95 = ORIENTED_EDGE ( 'NONE', *, *, #244, .F. ) ;
#96 = UNCERTAINTY_MEASURE_WITH_UNIT (LENGTH_MEASURE( 1.000000000000000082E-05 ), #83, 'distance_accuracy_value', 'NONE');
#97 = AXIS2_PLACEMENT_3D ( 'NONE', #287, #286, #24 ) ;
#98 =( GEOMETRIC_REPRESENTATION_CONTEXT ( 3 ) GLOBAL_UNCERTAINTY_ASSIGNED_CONTEXT ( ( #45 ) ) GLOBAL_UNIT_ASSIGNED_CONTEXT ( ( #319, #236, #108 ) ) REPRESENTATION_CONTEXT ( 'NONE', 'WORKASPACE' ) );
#99 = VERTEX_POINT ( 'NONE', #221 ) ;
#100 = SURFACE_SIDE_STYLE ('',( #352 ) ) ;
#101 = VERTEX_POINT ( 'NONE', #362 ) ;
#102 = DIRECTION ( 'NONE',  ( -1.224646799147353207E-16, 1.000000000000000000, -0.000000000000000000 ) ) ;
#103 = VERTEX_POINT ( 'NONE', #109 ) ;
#104 = STYLED_ITEM ( 'NONE', ( #284 ), #31 ) ;
#105 = MECHANICAL_DESIGN_GEOMETRIC_PRESENTATION_REPRESENTATION (  '', ( #151 ), #50 ) ;
#106 = FILL_AREA_STYLE_COLOUR ( '', #280 ) ;
#107 = CARTESIAN_POINT ( 'NONE',  ( -1.224646799147353207E-16, 5.000000000000000000, 0.000000000000000000 ) ) ;
#108 =( NAMED_UNIT ( * ) SI_UNIT ( $, .STERADIAN. ) SOLID_ANGLE_UNIT ( ) );
#109 = CARTESIAN_POINT ( 'NONE',  ( 0.000000000000000000, 2.250000000000000000, -0.3749999999999997780 ) ) ;
#110 = SURFACE_STYLE_FILL_AREA ( #120 ) ;
#111 = STYLED_ITEM ( 'NONE', ( #201 ), #82 ) ;
#112 = LINE ( 'NONE', #117, #147 ) ;
#113 = DIRECTION ( 'NONE',  ( -1.000000000000000000, 0.000000000000000000, 0.000000000000000000 ) ) ;
#114 = DIMENSIONAL_EXPONENTS ( 1.000000000000000000, 0.000000000000000000, 0.000000000000000000, 0.000000000000000000, 0.000000000000000000, 0.000000000000000000, 0.000000000000000000 ) ;
#115 = FILL_AREA_STYLE_COLOUR ( '', #370 ) ;
#116 =( GEOMETRIC_REPRESENTATION_CONTEXT ( 3 ) GLOBAL_UNCERTAINTY_ASSIGNED_CONTEXT ( ( #242 ) ) GLOBAL_UNIT_ASSIGNED_CONTEXT ( ( #248, #218, #214 ) ) REPRESENTATION_CONTEXT ( 'NONE', 'WORKASPACE' ) );
#117 = CARTESIAN_POINT ( 'NONE',  ( 0.000000000000000000, 0.000000000000000000, -0.3749999999999998335 ) ) ;
#118 = MECHANICAL_DESIGN_GEOMETRIC_PRESENTATION_REPRESENTATION (  '', ( #369 ), #116 ) ;
#119 = VECTOR ( 'NONE', #359, 39.37007874015748143 ) ;
#120 = FILL_AREA_STYLE ('',( #262 ) ) ;
#121 = ADVANCED_FACE ( 'NONE', ( #46 ), #139, .T. ) ;
#122 = CYLINDRICAL_SURFACE ( 'NONE', #148, 0.3749999999999998335 ) ;
#123 = DIMENSIONAL_EXPONENTS ( 1.000000000000000000, 0.000000000000000000, 0.000000000000000000, 0.000000000000000000, 0.000000000000000000, 0.000000000000000000, 0.000000000000000000 ) ;
#124 = CLOSED_SHELL ( 'NONE', ( #240, #261, #121, #31, #189 ) ) ;
#125 = CARTESIAN_POINT ( 'NONE',  ( -0.3749999999999993339, 2.250000000000000444, 0.000000000000000000 ) ) ;
#126 = CARTESIAN_POINT ( 'NONE',  ( 2.143131898507867804E-16, 2.250000000000000444, 0.000000000000000000 ) ) ;
#127 = ORIENTED_EDGE ( 'NONE', *, *, #238, .T. ) ;
#128 = CIRCLE ( 'NONE', #92, 0.3749999999999999445 ) ;
#129 = ORIENTED_EDGE ( 'NONE', *, *, #224, .T. ) ;
#130 = PRODUCT ( '59456', '59456', '', ( #258 ) ) ;
#131 = DIRECTION ( 'NONE',  ( 0.000000000000000000, 0.000000000000000000, -1.000000000000000000 ) ) ;
#132 = EDGE_CURVE ( 'NONE', #372, #212, #306, .T. ) ;
#133 = ORIENTED_EDGE ( 'NONE', *, *, #344, .T. ) ;
#134 = DIRECTION ( 'NONE',  ( 0.000000000000000000, 0.000000000000000000, -1.000000000000000000 ) ) ;
#135 = ORIENTED_EDGE ( 'NONE', *, *, #317, .F. ) ;
#136 = CARTESIAN_POINT ( 'NONE',  ( -1.224646799147353207E-16, 5.000000000000000000, 0.000000000000000000 ) ) ;
#137 = LINE ( 'NONE', #49, #74 ) ;
#138 = CARTESIAN_POINT ( 'NONE',  ( 0.000000000000000000, 0.000000000000000000, 0.000000000000000000 ) ) ;
#139 = PLANE ( 'NONE',  #48 ) ;
#140 = FILL_AREA_STYLE_COLOUR ( '', #293 ) ;
#141 = CARTESIAN_POINT ( 'NONE',  ( 0.3749999999999997780, 5.000000000000000000, 0.000000000000000000 ) ) ;
#142 = PRESENTATION_LAYER_ASSIGNMENT (  '', '', ( #342 ) ) ;
#143 = AXIS2_PLACEMENT_3D ( 'NONE', #126, #373, #347 ) ;
#144 = CARTESIAN_POINT ( 'NONE',  ( -1.224646799147353207E-16, 5.000000000000000000, 0.000000000000000000 ) ) ;
#145 = APPLICATION_PROTOCOL_DEFINITION ( 'draft international standard', 'automotive_design', 1998, #37 ) ;
#146 = LINE ( 'NONE', #316, #32 ) ;
#147 = VECTOR ( 'NONE', #223, 39.37007874015748143 ) ;
#148 = AXIS2_PLACEMENT_3D ( 'NONE', #41, #69, #134 ) ;
#149 =( CONVERSION_BASED_UNIT ( 'INCH', #56 ) LENGTH_UNIT ( ) NAMED_UNIT ( #123 ) );
#150 = LENGTH_MEASURE_WITH_UNIT ( LENGTH_MEASURE( 0.02539999999999999897 ), #62 );
#151 = STYLED_ITEM ( 'NONE', ( #29 ), #240 ) ;
#152 = DIRECTION ( 'NONE',  ( 1.224646799147353207E-16, -0.000000000000000000, 1.000000000000000000 ) ) ;
#153 = SURFACE_STYLE_USAGE ( .BOTH. , #35 ) ;
#154 = ADVANCED_FACE ( 'NONE', ( #170 ), #196, .F. ) ;
#155 = ORIENTED_EDGE ( 'NONE', *, *, #244, .T. ) ;
#156 =( NAMED_UNIT ( * ) PLANE_ANGLE_UNIT ( ) SI_UNIT ( $, .RADIAN. ) );
#157 = PRESENTATION_LAYER_ASSIGNMENT (  '', '', ( #111 ) ) ;
#158 = EDGE_LOOP ( 'NONE', ( #241, #34 ) ) ;
#159 = SURFACE_SIDE_STYLE ('',( #256 ) ) ;
#160 =( NAMED_UNIT ( * ) SI_UNIT ( $, .STERADIAN. ) SOLID_ANGLE_UNIT ( ) );
#161 = LENGTH_MEASURE_WITH_UNIT ( LENGTH_MEASURE( 0.02539999999999999897 ), #318 );
#162 = DIRECTION ( 'NONE',  ( -0.000000000000000000, -1.000000000000000000, -0.000000000000000000 ) ) ;
#163 = MECHANICAL_DESIGN_GEOMETRIC_PRESENTATION_REPRESENTATION (  '', ( #111 ), #299 ) ;
#164 = DIRECTION ( 'NONE',  ( -1.224646799147353207E-16, 1.000000000000000000, -0.000000000000000000 ) ) ;
#165 = AXIS2_PLACEMENT_3D ( 'NONE', #169, #309, #51 ) ;
#166 = DIRECTION ( 'NONE',  ( -1.224646799147353207E-16, 1.000000000000000000, -0.000000000000000000 ) ) ;
#167 = CARTESIAN_POINT ( 'NONE',  ( 0.000000000000000000, 2.250000000000000000, 0.000000000000000000 ) ) ;
#168 = DIRECTION ( 'NONE',  ( 1.224646799147353207E-16, -1.000000000000000000, 0.000000000000000000 ) ) ;
#169 = CARTESIAN_POINT ( 'NONE',  ( 0.000000000000000000, 0.000000000000000000, 0.000000000000000000 ) ) ;
#170 = FACE_OUTER_BOUND ( 'NONE', #210, .T. ) ;
#171 = ADVANCED_BREP_SHAPE_REPRESENTATION ( '59456', ( #89, #82, #165 ), #326 ) ;
#172 = DIRECTION ( 'NONE',  ( 0.000000000000000000, 0.000000000000000000, -1.000000000000000000 ) ) ;
#173 = FILL_AREA_STYLE ('',( #140 ) ) ;
#174 = DIRECTION ( 'NONE',  ( -0.000000000000000000, -1.000000000000000000, -0.000000000000000000 ) ) ;
#175 = PRODUCT_DEFINITION_FORMATION_WITH_SPECIFIED_SOURCE ( 'ANY', '', #130, .NOT_KNOWN. ) ;
#176 = SURFACE_STYLE_USAGE ( .BOTH. , #100 ) ;
#177 = CARTESIAN_POINT ( 'NONE',  ( 0.000000000000000000, 0.3750000000000001110, -0.3749999999999998890 ) ) ;
#178 = EDGE_CURVE ( 'NONE', #103, #212, #112, .T. ) ;
#179 = FILL_AREA_STYLE ('',( #87 ) ) ;
#180 = VERTEX_POINT ( 'NONE', #260 ) ;
#181 = FILL_AREA_STYLE_COLOUR ( '', #300 ) ;
#182 = UNCERTAINTY_MEASURE_WITH_UNIT (LENGTH_MEASURE( 1.000000000000000082E-05 ), #36, 'distance_accuracy_value', 'NONE');
#183 = ORIENTED_EDGE ( 'NONE', *, *, #132, .F. ) ;
#184 = VERTEX_POINT ( 'NONE', #312 ) ;
#185 = AXIS2_PLACEMENT_3D ( 'NONE', #107, #305, #44 ) ;
#186 = CIRCLE ( 'NONE', #267, 0.3749999999999995559 ) ;
#187 = ORIENTED_EDGE ( 'NONE', *, *, #269, .T. ) ;
#188 = ORIENTED_EDGE ( 'NONE', *, *, #132, .T. ) ;
#189 = ADVANCED_FACE ( 'NONE', ( #53 ), #227, .T. ) ;
#190 = CLOSED_SHELL ( 'NONE', ( #6, #154, #207, #205 ) ) ;
#191 =( NAMED_UNIT ( * ) PLANE_ANGLE_UNIT ( ) SI_UNIT ( $, .RADIAN. ) );
#192 = PRESENTATION_LAYER_ASSIGNMENT (  '', '', ( #60 ) ) ;
#193 = PLANE ( 'NONE',  #85 ) ;
#194 = DIMENSIONAL_EXPONENTS ( 1.000000000000000000, 0.000000000000000000, 0.000000000000000000, 0.000000000000000000, 0.000000000000000000, 0.000000000000000000, 0.000000000000000000 ) ;
#195 =( NAMED_UNIT ( * ) PLANE_ANGLE_UNIT ( ) SI_UNIT ( $, .RADIAN. ) );
#196 = PLANE ( 'NONE',  #97 ) ;
#197 = FACE_OUTER_BOUND ( 'NONE', #294, .T. ) ;
#198 = PRODUCT_DEFINITION ( 'UNKNOWN', '', #175, #52 ) ;
#199 = DIMENSIONAL_EXPONENTS ( 1.000000000000000000, 0.000000000000000000, 0.000000000000000000, 0.000000000000000000, 0.000000000000000000, 0.000000000000000000, 0.000000000000000000 ) ;
#200 = LENGTH_MEASURE_WITH_UNIT ( LENGTH_MEASURE( 0.02539999999999999897 ), #202 );
#201 = PRESENTATION_STYLE_ASSIGNMENT (( #228 ) ) ;
#202 =( LENGTH_UNIT ( ) NAMED_UNIT ( * ) SI_UNIT ( $, .METRE. ) );
#203 = CIRCLE ( 'NONE', #143, 0.3749999999999995559 ) ;
#204 = UNCERTAINTY_MEASURE_WITH_UNIT (LENGTH_MEASURE( 1.000000000000000082E-05 ), #255, 'distance_accuracy_value', 'NONE');
#205 = ADVANCED_FACE ( 'NONE', ( #222 ), #193, .F. ) ;
#206 = EDGE_LOOP ( 'NONE', ( #72, #47, #303, #7 ) ) ;
#207 = ADVANCED_FACE ( 'NONE', ( #285 ), #21, .T. ) ;
#208 = CIRCLE ( 'NONE', #237, 0.3749999999999997780 ) ;
#209 = ORIENTED_EDGE ( 'NONE', *, *, #178, .F. ) ;
#210 = EDGE_LOOP ( 'NONE', ( #246, #277 ) ) ;
#211 = CARTESIAN_POINT ( 'NONE',  ( 0.000000000000000000, 0.3750000000000001110, 0.000000000000000000 ) ) ;
#212 = VERTEX_POINT ( 'NONE', #177 ) ;
#213 = DIRECTION ( 'NONE',  ( -1.000000000000000000, 0.000000000000000000, 0.000000000000000000 ) ) ;
#214 =( NAMED_UNIT ( * ) SI_UNIT ( $, .STERADIAN. ) SOLID_ANGLE_UNIT ( ) );
#215 = AXIS2_PLACEMENT_3D ( 'NONE', #302, #298, #131 ) ;
#216 = EDGE_LOOP ( 'NONE', ( #268, #353 ) ) ;
#217 = DIRECTION ( 'NONE',  ( 0.000000000000000000, 0.000000000000000000, -1.000000000000000000 ) ) ;
#218 =( NAMED_UNIT ( * ) PLANE_ANGLE_UNIT ( ) SI_UNIT ( $, .RADIAN. ) );
#219 =( NAMED_UNIT ( * ) SI_UNIT ( $, .STERADIAN. ) SOLID_ANGLE_UNIT ( ) );
#220 = DIRECTION ( 'NONE',  ( -1.000000000000000000, 0.000000000000000000, 0.000000000000000000 ) ) ;
#221 = CARTESIAN_POINT ( 'NONE',  ( 0.3749999999999997780, 5.000000000000000000, 4.592425496802571754E-17 ) ) ;
#222 = FACE_OUTER_BOUND ( 'NONE', #216, .T. ) ;
#223 = DIRECTION ( 'NONE',  ( -0.000000000000000000, -1.000000000000000000, -0.000000000000000000 ) ) ;
#224 = EDGE_CURVE ( 'NONE', #212, #251, #321, .T. ) ;
#225 = DIMENSIONAL_EXPONENTS ( 1.000000000000000000, 0.000000000000000000, 0.000000000000000000, 0.000000000000000000, 0.000000000000000000, 0.000000000000000000, 0.000000000000000000 ) ;
#226 = SURFACE_STYLE_USAGE ( .BOTH. , #230 ) ;
#227 = SPHERICAL_SURFACE ( 'NONE', #314, 0.3749999999999999445 ) ;
#228 = SURFACE_STYLE_USAGE ( .BOTH. , #288 ) ;
#229 = CIRCLE ( 'NONE', #215, 0.3749999999999997780 ) ;
#230 = SURFACE_SIDE_STYLE ('',( #339 ) ) ;
#231 = CYLINDRICAL_SURFACE ( 'NONE', #1, 0.3749999999999996669 ) ;
#232 = SURFACE_SIDE_STYLE ('',( #91 ) ) ;
#233 = FACE_OUTER_BOUND ( 'NONE', #355, .T. ) ;
#234 =( NAMED_UNIT ( * ) PLANE_ANGLE_UNIT ( ) SI_UNIT ( $, .RADIAN. ) );
#235 = DIMENSIONAL_EXPONENTS ( 1.000000000000000000, 0.000000000000000000, 0.000000000000000000, 0.000000000000000000, 0.000000000000000000, 0.000000000000000000, 0.000000000000000000 ) ;
#236 =( NAMED_UNIT ( * ) PLANE_ANGLE_UNIT ( ) SI_UNIT ( $, .RADIAN. ) );
#237 = AXIS2_PLACEMENT_3D ( 'NONE', #290, #174, #292 ) ;
#238 = EDGE_CURVE ( 'NONE', #103, #358, #208, .T. ) ;
#239 = CARTESIAN_POINT ( 'NONE',  ( -4.592425496802575451E-17, 0.3750000000000000555, 0.000000000000000000 ) ) ;
#240 = ADVANCED_FACE ( 'NONE', ( #322 ), #67, .T. ) ;
#241 = ORIENTED_EDGE ( 'NONE', *, *, #238, .F. ) ;
#242 = UNCERTAINTY_MEASURE_WITH_UNIT (LENGTH_MEASURE( 1.000000000000000082E-05 ), #248, 'distance_accuracy_value', 'NONE');
#243 = VERTEX_POINT ( 'NONE', #125 ) ;
#244 = EDGE_CURVE ( 'NONE', #372, #4, #128, .T. ) ;
#245 = AXIS2_PLACEMENT_3D ( 'NONE', #272, #166, #220 ) ;
#246 = ORIENTED_EDGE ( 'NONE', *, *, #330, .F. ) ;
#247 = DIRECTION ( 'NONE',  ( 0.000000000000000000, 0.000000000000000000, -1.000000000000000000 ) ) ;
#248 =( CONVERSION_BASED_UNIT ( 'INCH', #77 ) LENGTH_UNIT ( ) NAMED_UNIT ( #57 ) );
#249 = CARTESIAN_POINT ( 'NONE',  ( -4.592425496802575451E-17, 0.3750000000000000555, 0.000000000000000000 ) ) ;
#250 = EDGE_CURVE ( 'NONE', #184, #243, #203, .T. ) ;
#251 = VERTEX_POINT ( 'NONE', #351 ) ;
#252 = DIRECTION ( 'NONE',  ( -0.000000000000000000, -1.000000000000000000, -0.000000000000000000 ) ) ;
#253 = UNCERTAINTY_MEASURE_WITH_UNIT (LENGTH_MEASURE( 1.000000000000000082E-05 ), #354, 'distance_accuracy_value', 'NONE');
#254 = PRESENTATION_LAYER_ASSIGNMENT (  '', '', ( #151 ) ) ;
#255 =( CONVERSION_BASED_UNIT ( 'INCH', #161 ) LENGTH_UNIT ( ) NAMED_UNIT ( #235 ) );
#256 = SURFACE_STYLE_FILL_AREA ( #42 ) ;
#257 = CIRCLE ( 'NONE', #356, 0.3749999999999998890 ) ;
#258 = PRODUCT_CONTEXT ( 'NONE', #338, 'mechanical' ) ;
#259 = DIRECTION ( 'NONE',  ( -1.224646799147353207E-16, 1.000000000000000000, -0.000000000000000000 ) ) ;
#260 = CARTESIAN_POINT ( 'NONE',  ( 4.592425496802572986E-17, 0.3750000000000001110, 0.3749999999999998890 ) ) ;
#261 = ADVANCED_FACE ( 'NONE', ( #349 ), #122, .T. ) ;
#262 = FILL_AREA_STYLE_COLOUR ( '', #313 ) ;
#263 = AXIS2_PLACEMENT_3D ( 'NONE', #55, #315, #172 ) ;
#264 = DIRECTION ( 'NONE',  ( 1.000000000000000000, 0.000000000000000000, 0.000000000000000000 ) ) ;
#265 = FILL_AREA_STYLE_COLOUR ( '', #307 ) ;
#266 = COLOUR_RGB ( '',0.7921568627450980005, 0.8196078431372548767, 0.9333333333333333481 ) ;
#267 = AXIS2_PLACEMENT_3D ( 'NONE', #11, #333, #213 ) ;
#268 = ORIENTED_EDGE ( 'NONE', *, *, #365, .T. ) ;
#269 = EDGE_CURVE ( 'NONE', #358, #103, #229, .T. ) ;
#270 = PRESENTATION_STYLE_ASSIGNMENT (( #153 ) ) ;
#271 = ORIENTED_EDGE ( 'NONE', *, *, #317, .T. ) ;
#272 = CARTESIAN_POINT ( 'NONE',  ( -1.224646799147353207E-16, 5.000000000000000000, 0.000000000000000000 ) ) ;
#273 = AXIS2_PLACEMENT_3D ( 'NONE', #138, #320, #25 ) ;
#274 = LENGTH_MEASURE_WITH_UNIT ( LENGTH_MEASURE( 0.02539999999999999897 ), #79 );
#275 = ORIENTED_EDGE ( 'NONE', *, *, #20, .F. ) ;
#276 =( LENGTH_UNIT ( ) NAMED_UNIT ( * ) SI_UNIT ( $, .METRE. ) );
#277 = ORIENTED_EDGE ( 'NONE', *, *, #250, .F. ) ;
#278 = DIRECTION ( 'NONE',  ( 0.000000000000000000, 0.000000000000000000, -1.000000000000000000 ) ) ;
#279 = CARTESIAN_POINT ( 'NONE',  ( 0.000000000000000000, 0.3750000000000001110, 0.000000000000000000 ) ) ;
#280 = COLOUR_RGB ( '',1.000000000000000000, 0.000000000000000000, 0.000000000000000000 ) ;
#281 = STYLED_ITEM ( 'NONE', ( #270 ), #261 ) ;
#282 = APPLICATION_PROTOCOL_DEFINITION ( 'draft international standard', 'automotive_design', 1998, #338 ) ;
#283 = PRESENTATION_STYLE_ASSIGNMENT (( #176 ) ) ;
#284 = PRESENTATION_STYLE_ASSIGNMENT (( #346 ) ) ;
#285 = FACE_OUTER_BOUND ( 'NONE', #206, .T. ) ;
#286 = DIRECTION ( 'NONE',  ( -1.224646799147353207E-16, 1.000000000000000000, 0.000000000000000000 ) ) ;
#287 = CARTESIAN_POINT ( 'NONE',  ( 2.143131898507868051E-16, 2.250000000000000000, 0.000000000000000000 ) ) ;
#288 = SURFACE_SIDE_STYLE ('',( #110 ) ) ;
#289 = PRESENTATION_LAYER_ASSIGNMENT (  '', '', ( #281 ) ) ;
#290 = CARTESIAN_POINT ( 'NONE',  ( 0.000000000000000000, 2.250000000000000000, 0.000000000000000000 ) ) ;
#291 = EDGE_CURVE ( 'NONE', #180, #372, #257, .T. ) ;
#292 = DIRECTION ( 'NONE',  ( 0.000000000000000000, 0.000000000000000000, -1.000000000000000000 ) ) ;
#293 = COLOUR_RGB ( '',1.000000000000000000, 0.000000000000000000, 0.000000000000000000 ) ;
#294 = EDGE_LOOP ( 'NONE', ( #297, #133, #68, #275 ) ) ;
#295 = SURFACE_STYLE_FILL_AREA ( #94 ) ;
#296 = PRESENTATION_STYLE_ASSIGNMENT (( #363 ) ) ;
#297 = ORIENTED_EDGE ( 'NONE', *, *, #330, .T. ) ;
#298 = DIRECTION ( 'NONE',  ( -0.000000000000000000, -1.000000000000000000, -0.000000000000000000 ) ) ;
#299 =( GEOMETRIC_REPRESENTATION_CONTEXT ( 3 ) GLOBAL_UNCERTAINTY_ASSIGNED_CONTEXT ( ( #204 ) ) GLOBAL_UNIT_ASSIGNED_CONTEXT ( ( #255, #336, #219 ) ) REPRESENTATION_CONTEXT ( 'NONE', 'WORKASPACE' ) );
#300 = COLOUR_RGB ( '',1.000000000000000000, 0.000000000000000000, 0.000000000000000000 ) ;
#301 = EDGE_LOOP ( 'NONE', ( #332, #155, #135, #70 ) ) ;
#302 = CARTESIAN_POINT ( 'NONE',  ( 0.000000000000000000, 2.250000000000000000, 0.000000000000000000 ) ) ;
#303 = ORIENTED_EDGE ( 'NONE', *, *, #20, .T. ) ;
#304 =( CONVERSION_BASED_UNIT ( 'INCH', #274 ) LENGTH_UNIT ( ) NAMED_UNIT ( #114 ) );
#305 = DIRECTION ( 'NONE',  ( -1.224646799147353207E-16, 1.000000000000000000, -0.000000000000000000 ) ) ;
#306 = CIRCLE ( 'NONE', #263, 0.3749999999999998890 ) ;
#307 = COLOUR_RGB ( '',1.000000000000000000, 0.000000000000000000, 0.000000000000000000 ) ;
#308 = SURFACE_STYLE_FILL_AREA ( #173 ) ;
#309 = DIRECTION ( 'NONE',  ( 0.000000000000000000, 0.000000000000000000, 1.000000000000000000 ) ) ;
#310 = LENGTH_MEASURE_WITH_UNIT ( LENGTH_MEASURE( 0.02539999999999999897 ), #345 );
#311 = EDGE_CURVE ( 'NONE', #358, #180, #357, .T. ) ;
#312 = CARTESIAN_POINT ( 'NONE',  ( 0.3749999999999997780, 2.250000000000000444, 4.592425496802571754E-17 ) ) ;
#313 = COLOUR_RGB ( '',0.7921568627450980005, 0.8196078431372548767, 0.9333333333333333481 ) ;
#314 = AXIS2_PLACEMENT_3D ( 'NONE', #341, #81, #264 ) ;
#315 = DIRECTION ( 'NONE',  ( -0.000000000000000000, -1.000000000000000000, -0.000000000000000000 ) ) ;
#316 = CARTESIAN_POINT ( 'NONE',  ( -0.3749999999999998335, 5.000000000000000000, 0.000000000000000000 ) ) ;
#317 = EDGE_CURVE ( 'NONE', #251, #4, #350, .T. ) ;
#318 =( LENGTH_UNIT ( ) NAMED_UNIT ( * ) SI_UNIT ( $, .METRE. ) );
#319 =( CONVERSION_BASED_UNIT ( 'INCH', #200 ) LENGTH_UNIT ( ) NAMED_UNIT ( #225 ) );
#320 = DIRECTION ( 'NONE',  ( -0.000000000000000000, -1.000000000000000000, -0.000000000000000000 ) ) ;
#321 = CIRCLE ( 'NONE', #2, 0.3749999999999998890 ) ;
#322 = FACE_OUTER_BOUND ( 'NONE', #301, .T. ) ;
#323 = DIRECTION ( 'NONE',  ( 0.000000000000000000, 0.000000000000000000, -1.000000000000000000 ) ) ;
#324 = DIRECTION ( 'NONE',  ( 0.000000000000000000, 0.000000000000000000, 1.000000000000000000 ) ) ;
#325 = ORIENTED_EDGE ( 'NONE', *, *, #291, .F. ) ;
#326 =( GEOMETRIC_REPRESENTATION_CONTEXT ( 3 ) GLOBAL_UNCERTAINTY_ASSIGNED_CONTEXT ( ( #182 ) ) GLOBAL_UNIT_ASSIGNED_CONTEXT ( ( #36, #156, #13 ) ) REPRESENTATION_CONTEXT ( 'NONE', 'WORKASPACE' ) );
#327 = ORIENTED_EDGE ( 'NONE', *, *, #335, .F. ) ;
#328 = CARTESIAN_POINT ( 'NONE',  ( 4.592425496802572370E-17, 0.000000000000000000, 0.3749999999999998335 ) ) ;
#329 =( NAMED_UNIT ( * ) PLANE_ANGLE_UNIT ( ) SI_UNIT ( $, .RADIAN. ) );
#330 = EDGE_CURVE ( 'NONE', #243, #184, #186, .T. ) ;
#331 = LENGTH_MEASURE_WITH_UNIT ( LENGTH_MEASURE( 0.02539999999999999897 ), #76 );
#332 = ORIENTED_EDGE ( 'NONE', *, *, #291, .T. ) ;
#333 = DIRECTION ( 'NONE',  ( -1.224646799147353207E-16, 1.000000000000000000, -0.000000000000000000 ) ) ;
#334 = DIRECTION ( 'NONE',  ( -1.000000000000000000, 0.000000000000000000, 0.000000000000000000 ) ) ;
#335 = EDGE_CURVE ( 'NONE', #251, #180, #23, .T. ) ;
#336 =( NAMED_UNIT ( * ) PLANE_ANGLE_UNIT ( ) SI_UNIT ( $, .RADIAN. ) );
#337 = AXIS2_PLACEMENT_3D ( 'NONE', #249, #247, #43 ) ;
#338 = APPLICATION_CONTEXT ( 'automotive_design' ) ;
#339 = SURFACE_STYLE_FILL_AREA ( #371 ) ;
#340 = SHAPE_DEFINITION_REPRESENTATION ( #361, #171 ) ;
#341 = CARTESIAN_POINT ( 'NONE',  ( -4.592425496802575451E-17, 0.3750000000000000555, 0.000000000000000000 ) ) ;
#342 = STYLED_ITEM ( 'NONE', ( #283 ), #89 ) ;
#343 = MECHANICAL_DESIGN_GEOMETRIC_PRESENTATION_REPRESENTATION (  '', ( #281 ), #98 ) ;
#344 = EDGE_CURVE ( 'NONE', #184, #99, #137, .T. ) ;
#345 =( LENGTH_UNIT ( ) NAMED_UNIT ( * ) SI_UNIT ( $, .METRE. ) );
#346 = SURFACE_STYLE_USAGE ( .BOTH. , #78 ) ;
#347 = DIRECTION ( 'NONE',  ( -1.000000000000000000, 0.000000000000000000, 0.000000000000000000 ) ) ;
#348 =( LENGTH_UNIT ( ) NAMED_UNIT ( * ) SI_UNIT ( $, .METRE. ) );
#349 = FACE_OUTER_BOUND ( 'NONE', #12, .T. ) ;
#350 = CIRCLE ( 'NONE', #337, 0.3749999999999999445 ) ;
#351 = CARTESIAN_POINT ( 'NONE',  ( 0.3749999999999998890, 0.3750000000000001110, 0.000000000000000000 ) ) ;
#352 = SURFACE_STYLE_FILL_AREA ( #179 ) ;
#353 = ORIENTED_EDGE ( 'NONE', *, *, #90, .T. ) ;
#354 =( CONVERSION_BASED_UNIT ( 'INCH', #150 ) LENGTH_UNIT ( ) NAMED_UNIT ( #194 ) );
#355 = EDGE_LOOP ( 'NONE', ( #360, #187, #10, #183, #325 ) ) ;
#356 = AXIS2_PLACEMENT_3D ( 'NONE', #211, #162, #278 ) ;
#357 = LINE ( 'NONE', #328, #119 ) ;
#358 = VERTEX_POINT ( 'NONE', #71 ) ;
#359 = DIRECTION ( 'NONE',  ( -0.000000000000000000, -1.000000000000000000, -0.000000000000000000 ) ) ;
#360 = ORIENTED_EDGE ( 'NONE', *, *, #311, .F. ) ;
#361 = PRODUCT_DEFINITION_SHAPE ( 'NONE', 'NONE',  #198 ) ;
#362 = CARTESIAN_POINT ( 'NONE',  ( -0.3750000000000000555, 5.000000000000000000, 0.000000000000000000 ) ) ;
#363 = SURFACE_STYLE_USAGE ( .BOTH. , #159 ) ;
#364 = CIRCLE ( 'NONE', #245, 0.3749999999999998890 ) ;
#365 = EDGE_CURVE ( 'NONE', #101, #99, #364, .T. ) ;
#366 = DIRECTION ( 'NONE',  ( 1.000000000000000000, 1.224646799147353207E-16, 0.000000000000000000 ) ) ;
#367 = DIRECTION ( 'NONE',  ( 0.000000000000000000, 1.000000000000000000, 0.000000000000000000 ) ) ;
#368 = CARTESIAN_POINT ( 'NONE',  ( -2.296212748401288342E-17, 6.829619984160658046E-17, 0.000000000000000000 ) ) ;
#369 = STYLED_ITEM ( 'NONE', ( #296 ), #121 ) ;
#370 = COLOUR_RGB ( '',1.000000000000000000, 0.000000000000000000, 0.000000000000000000 ) ;
#371 = FILL_AREA_STYLE ('',( #115 ) ) ;
#372 = VERTEX_POINT ( 'NONE', #9 ) ;
#373 = DIRECTION ( 'NONE',  ( -1.224646799147353207E-16, 1.000000000000000000, -0.000000000000000000 ) ) ;
ENDSEC;
END-ISO-10303-21;
