ISO-10303-21;
HEADER;
FILE_DESCRIPTION (( 'STEP AP214' ),
    '1' );
FILE_NAME ('Micro_SBM-250-2X.STEP',
    '2021-09-02T17:01:30',
    ( '' ),
    ( '' ),
    'SwSTEP 2.0',
    'SolidWorks 2020',
    '' );
FILE_SCHEMA (( 'AUTOMOTIVE_DESIGN' ));
ENDSEC;

DATA;
#1 = FACE_OUTER_BOUND ( 'NONE', #231, .T. ) ;
#2 = CARTESIAN_POINT ( 'NONE',  ( 0.1100000000000004446, 1.347111479062094019E-17, 3.000000000000000444 ) ) ;
#3 = AXIS2_PLACEMENT_3D ( 'NONE', #274, #16, #287 ) ;
#4 = PRESENTATION_STYLE_ASSIGNMENT (( #172 ) ) ;
#5 = CIRCLE ( 'NONE', #75, 0.09999999999999997780 ) ;
#6 = LINE ( 'NONE', #123, #208 ) ;
#7 = DIRECTION ( 'NONE',  ( 0.0000000000000000000, 0.0000000000000000000, 1.000000000000000000 ) ) ;
#8 = ORIENTED_EDGE ( 'NONE', *, *, #53, .T. ) ;
#9 = CARTESIAN_POINT ( 'NONE',  ( 0.0000000000000000000, 0.0000000000000000000, 0.1250000000000000000 ) ) ;
#10 = SURFACE_STYLE_FILL_AREA ( #95 ) ;
#11 = STYLED_ITEM ( 'NONE', ( #4 ), #227 ) ;
#12 = ORIENTED_EDGE ( 'NONE', *, *, #142, .F. ) ;
#13 = EDGE_CURVE ( 'NONE', #252, #342, #198, .T. ) ;
#14 = UNCERTAINTY_MEASURE_WITH_UNIT (LENGTH_MEASURE( 1.000000000000000082E-05 ), #225, 'distance_accuracy_value', 'NONE');
#15 = ORIENTED_EDGE ( 'NONE', *, *, #318, .F. ) ;
#16 = DIRECTION ( 'NONE',  ( 0.0000000000000000000, 0.0000000000000000000, -1.000000000000000000 ) ) ;
#17 = EDGE_LOOP ( 'NONE', ( #102, #319, #158, #135 ) ) ;
#18 = PRESENTATION_STYLE_ASSIGNMENT (( #307 ) ) ;
#19 = AXIS2_PLACEMENT_3D ( 'NONE', #9, #122, #224 ) ;
#20 = VERTEX_POINT ( 'NONE', #207 ) ;
#21 = CARTESIAN_POINT ( 'NONE',  ( 0.0000000000000000000, 0.0000000000000000000, 1.549999999999994049 ) ) ;
#22 = DIRECTION ( 'NONE',  ( 1.000000000000000000, 0.0000000000000000000, 0.0000000000000000000 ) ) ;
#23 = VERTEX_POINT ( 'NONE', #130 ) ;
#24 = CYLINDRICAL_SURFACE ( 'NONE', #174, 0.09999999999999996392 ) ;
#25 = AXIS2_PLACEMENT_3D ( 'NONE', #165, #112, #88 ) ;
#26 = DIRECTION ( 'NONE',  ( -1.000000000000000000, 0.0000000000000000000, 0.0000000000000000000 ) ) ;
#27 = AXIS2_PLACEMENT_3D ( 'NONE', #73, #116, #34 ) ;
#28 = FACE_OUTER_BOUND ( 'NONE', #249, .T. ) ;
#29 = CARTESIAN_POINT ( 'NONE',  ( -0.1250000000000000000, 0.0000000000000000000, 3.000000000000000444 ) ) ;
#30 = EDGE_CURVE ( 'NONE', #20, #126, #36, .T. ) ;
#31 = ADVANCED_FACE ( 'NONE', ( #1 ), #90, .T. ) ;
#32 = CIRCLE ( 'NONE', #332, 0.1250000000000000000 ) ;
#33 = DIRECTION ( 'NONE',  ( -0.0000000000000000000, -0.0000000000000000000, -1.000000000000000000 ) ) ;
#34 = DIRECTION ( 'NONE',  ( -1.224646799147353207E-16, 1.000000000000000000, 0.0000000000000000000 ) ) ;
#35 = ADVANCED_FACE ( 'NONE', ( #289 ), #215, .T. ) ;
#36 = CIRCLE ( 'NONE', #262, 0.1250000000000000000 ) ;
#37 =( LENGTH_UNIT ( ) NAMED_UNIT ( * ) SI_UNIT ( $, .METRE. ) );
#38 = DIMENSIONAL_EXPONENTS ( 1.000000000000000000, 0.0000000000000000000, 0.0000000000000000000, 0.0000000000000000000, 0.0000000000000000000, 0.0000000000000000000, 0.0000000000000000000 ) ;
#39 = ADVANCED_FACE ( 'NONE', ( #292 ), #59, .T. ) ;
#40 = ORIENTED_EDGE ( 'NONE', *, *, #188, .T. ) ;
#41 =( GEOMETRIC_REPRESENTATION_CONTEXT ( 3 ) GLOBAL_UNCERTAINTY_ASSIGNED_CONTEXT ( ( #82 ) ) GLOBAL_UNIT_ASSIGNED_CONTEXT ( ( #310, #74, #127 ) ) REPRESENTATION_CONTEXT ( 'NONE', 'WORKASPACE' ) );
#42 = CARTESIAN_POINT ( 'NONE',  ( 0.0000000000000000000, 0.0000000000000000000, 3.000000000000000444 ) ) ;
#43 = ORIENTED_EDGE ( 'NONE', *, *, #99, .T. ) ;
#44 = CIRCLE ( 'NONE', #217, 0.09999999999999996392 ) ;
#45 = APPLICATION_CONTEXT ( 'automotive_design' ) ;
#46 = CARTESIAN_POINT ( 'NONE',  ( 0.09999999999999996392, 0.0000000000000000000, 0.5000000000000000000 ) ) ;
#47 = CARTESIAN_POINT ( 'NONE',  ( 0.0000000000000000000, 0.0000000000000000000, 3.000000000000000444 ) ) ;
#48 = CIRCLE ( 'NONE', #192, 0.09999999999999996392 ) ;
#49 = ORIENTED_EDGE ( 'NONE', *, *, #237, .F. ) ;
#50 = CARTESIAN_POINT ( 'NONE',  ( 0.0000000000000000000, 0.0000000000000000000, 0.1999999999999999833 ) ) ;
#51 = EDGE_CURVE ( 'NONE', #200, #345, #138, .T. ) ;
#52 = ORIENTED_EDGE ( 'NONE', *, *, #71, .T. ) ;
#53 = EDGE_CURVE ( 'NONE', #342, #340, #114, .T. ) ;
#54 = CARTESIAN_POINT ( 'NONE',  ( -0.1250000000000000000, 1.530808498934191509E-17, 1.199999999999999956 ) ) ;
#55 = EDGE_LOOP ( 'NONE', ( #283, #211, #233, #105 ) ) ;
#56 = ORIENTED_EDGE ( 'NONE', *, *, #51, .T. ) ;
#57 = PRODUCT_CONTEXT ( 'NONE', #268, 'mechanical' ) ;
#58 = MECHANICAL_DESIGN_GEOMETRIC_PRESENTATION_REPRESENTATION (  '', ( #97 ), #147 ) ;
#59 = SPHERICAL_SURFACE ( 'NONE', #25, 0.1249999999999999861 ) ;
#60 =( NAMED_UNIT ( * ) PLANE_ANGLE_UNIT ( ) SI_UNIT ( $, .RADIAN. ) );
#61 = VECTOR ( 'NONE', #134, 39.37007874015748854 ) ;
#62 = ADVANCED_FACE ( 'NONE', ( #28 ), #325, .T. ) ;
#63 = CARTESIAN_POINT ( 'NONE',  ( -0.09999999999999996392, 0.0000000000000000000, 0.0000000000000000000 ) ) ;
#64 = DIRECTION ( 'NONE',  ( -0.0000000000000000000, -0.0000000000000000000, -1.000000000000000000 ) ) ;
#65 = EDGE_CURVE ( 'NONE', #200, #275, #44, .T. ) ;
#66 = EDGE_CURVE ( 'NONE', #153, #126, #264, .T. ) ;
#67 = AXIS2_PLACEMENT_3D ( 'NONE', #190, #7, #120 ) ;
#68 = LENGTH_MEASURE_WITH_UNIT ( LENGTH_MEASURE( 0.02539999999999999897 ), #37 );
#69 = COLOUR_RGB ( '',0.7921568627450980005, 0.8196078431372548767, 0.9333333333333333481 ) ;
#70 = CARTESIAN_POINT ( 'NONE',  ( 0.0000000000000000000, 0.0000000000000000000, 0.0000000000000000000 ) ) ;
#71 = EDGE_CURVE ( 'NONE', #345, #259, #144, .T. ) ;
#72 =( NAMED_UNIT ( * ) PLANE_ANGLE_UNIT ( ) SI_UNIT ( $, .RADIAN. ) );
#73 = CARTESIAN_POINT ( 'NONE',  ( 0.0000000000000000000, 0.0000000000000000000, 0.1250000000000000000 ) ) ;
#74 =( NAMED_UNIT ( * ) PLANE_ANGLE_UNIT ( ) SI_UNIT ( $, .RADIAN. ) );
#75 = AXIS2_PLACEMENT_3D ( 'NONE', #183, #159, #261 ) ;
#76 = LENGTH_MEASURE_WITH_UNIT ( LENGTH_MEASURE( 0.02539999999999999897 ), #107 );
#77 = DIRECTION ( 'NONE',  ( 0.0000000000000000000, 0.0000000000000000000, 1.000000000000000000 ) ) ;
#78 = CIRCLE ( 'NONE', #266, 0.1250000000000000000 ) ;
#79 = LINE ( 'NONE', #148, #330 ) ;
#80 = VERTEX_POINT ( 'NONE', #212 ) ;
#81 = DIRECTION ( 'NONE',  ( 1.000000000000000000, 0.0000000000000000000, 0.0000000000000000000 ) ) ;
#82 = UNCERTAINTY_MEASURE_WITH_UNIT (LENGTH_MEASURE( 1.000000000000000082E-05 ), #310, 'distance_accuracy_value', 'NONE');
#83 = DIRECTION ( 'NONE',  ( 0.0000000000000000000, 0.0000000000000000000, 1.000000000000000000 ) ) ;
#84 = EDGE_CURVE ( 'NONE', #259, #23, #5, .T. ) ;
#85 = ORIENTED_EDGE ( 'NONE', *, *, #51, .F. ) ;
#86 = CIRCLE ( 'NONE', #27, 0.1249999999999999861 ) ;
#87 = FACE_OUTER_BOUND ( 'NONE', #223, .T. ) ;
#88 = DIRECTION ( 'NONE',  ( 0.0000000000000000000, 1.000000000000000000, 0.0000000000000000000 ) ) ;
#89 = CARTESIAN_POINT ( 'NONE',  ( 0.0000000000000000000, 0.0000000000000000000, 0.0000000000000000000 ) ) ;
#90 = CYLINDRICAL_SURFACE ( 'NONE', #103, 0.1250000000000000000 ) ;
#91 = DIRECTION ( 'NONE',  ( -1.000000000000000000, 0.0000000000000000000, 0.0000000000000000000 ) ) ;
#92 = DIRECTION ( 'NONE',  ( -1.000000000000000000, 0.0000000000000000000, 0.0000000000000000000 ) ) ;
#93 = FACE_OUTER_BOUND ( 'NONE', #181, .T. ) ;
#94 = AXIS2_PLACEMENT_3D ( 'NONE', #162, #64, #26 ) ;
#95 = FILL_AREA_STYLE ('',( #194 ) ) ;
#96 = CARTESIAN_POINT ( 'NONE',  ( -0.09999999999999996392, 1.377727649040772081E-17, 0.5000000000000000000 ) ) ;
#97 = STYLED_ITEM ( 'NONE', ( #18 ), #161 ) ;
#98 = DIRECTION ( 'NONE',  ( -1.000000000000000000, 0.0000000000000000000, 0.0000000000000000000 ) ) ;
#99 = EDGE_CURVE ( 'NONE', #126, #20, #199, .T. ) ;
#100 = DIRECTION ( 'NONE',  ( 0.0000000000000000000, 0.0000000000000000000, 1.000000000000000000 ) ) ;
#101 = EDGE_CURVE ( 'NONE', #252, #153, #320, .T. ) ;
#102 = ORIENTED_EDGE ( 'NONE', *, *, #53, .F. ) ;
#103 = AXIS2_PLACEMENT_3D ( 'NONE', #321, #213, #186 ) ;
#104 = LINE ( 'NONE', #339, #290 ) ;
#105 = ORIENTED_EDGE ( 'NONE', *, *, #221, .F. ) ;
#106 = ORIENTED_EDGE ( 'NONE', *, *, #99, .F. ) ;
#107 =( LENGTH_UNIT ( ) NAMED_UNIT ( * ) SI_UNIT ( $, .METRE. ) );
#108 = ORIENTED_EDGE ( 'NONE', *, *, #195, .F. ) ;
#109 = CARTESIAN_POINT ( 'NONE',  ( -0.1100000000000004446, 0.0000000000000000000, 3.000000000000000444 ) ) ;
#110 = ORIENTED_EDGE ( 'NONE', *, *, #71, .F. ) ;
#111 = AXIS2_PLACEMENT_3D ( 'NONE', #328, #250, #166 ) ;
#112 = DIRECTION ( 'NONE',  ( 1.000000000000000000, 0.0000000000000000000, 0.0000000000000000000 ) ) ;
#113 =( NAMED_UNIT ( * ) SI_UNIT ( $, .STERADIAN. ) SOLID_ANGLE_UNIT ( ) );
#114 = LINE ( 'NONE', #2, #160 ) ;
#115 = CIRCLE ( 'NONE', #197, 0.1250000000000000000 ) ;
#116 = DIRECTION ( 'NONE',  ( 1.000000000000000000, 1.224646799147353207E-16, -0.0000000000000000000 ) ) ;
#117 = VECTOR ( 'NONE', #140, 39.37007874015748143 ) ;
#118 = ADVANCED_FACE ( 'NONE', ( #87 ), #24, .T. ) ;
#119 = DIRECTION ( 'NONE',  ( 1.000000000000000000, 0.0000000000000000000, 0.0000000000000000000 ) ) ;
#120 = DIRECTION ( 'NONE',  ( 1.000000000000000000, 0.0000000000000000000, 0.0000000000000000000 ) ) ;
#121 = EDGE_LOOP ( 'NONE', ( #170, #317 ) ) ;
#122 = DIRECTION ( 'NONE',  ( 1.000000000000000000, 0.0000000000000000000, 0.0000000000000000000 ) ) ;
#123 = CARTESIAN_POINT ( 'NONE',  ( 0.1374999999999998168, 0.0000000000000000000, 1.549999999999994049 ) ) ;
#124 = AXIS2_PLACEMENT_3D ( 'NONE', #42, #100, #219 ) ;
#125 = DIRECTION ( 'NONE',  ( 0.0000000000000000000, 0.0000000000000000000, -1.000000000000000000 ) ) ;
#126 = VERTEX_POINT ( 'NONE', #54 ) ;
#127 =( NAMED_UNIT ( * ) SI_UNIT ( $, .STERADIAN. ) SOLID_ANGLE_UNIT ( ) );
#128 = EDGE_LOOP ( 'NONE', ( #108, #40, #52, #255 ) ) ;
#129 = CARTESIAN_POINT ( 'NONE',  ( 1.224646799147353115E-17, -0.09999999999999999167, 0.1999999999999999833 ) ) ;
#130 = CARTESIAN_POINT ( 'NONE',  ( 0.09999999999999997780, 1.224646799147352961E-17, 0.1999999999999999833 ) ) ;
#131 = AXIS2_PLACEMENT_3D ( 'NONE', #171, #193, #119 ) ;
#132 = FILL_AREA_STYLE ('',( #155 ) ) ;
#133 = ORIENTED_EDGE ( 'NONE', *, *, #298, .T. ) ;
#134 = DIRECTION ( 'NONE',  ( -0.7071067811865566766, 0.0000000000000000000, -0.7071067811865382469 ) ) ;
#135 = ORIENTED_EDGE ( 'NONE', *, *, #273, .F. ) ;
#136 = AXIS2_PLACEMENT_3D ( 'NONE', #238, #33, #293 ) ;
#137 = CARTESIAN_POINT ( 'NONE',  ( 0.0000000000000000000, 0.0000000000000000000, 3.000000000000000444 ) ) ;
#138 = LINE ( 'NONE', #63, #335 ) ;
#139 = AXIS2_PLACEMENT_3D ( 'NONE', #189, #324, #269 ) ;
#140 = DIRECTION ( 'NONE',  ( -0.0000000000000000000, -0.0000000000000000000, -1.000000000000000000 ) ) ;
#141 = CIRCLE ( 'NONE', #131, 0.1100000000000004446 ) ;
#142 = EDGE_CURVE ( 'NONE', #275, #23, #154, .T. ) ;
#143 = EDGE_CURVE ( 'NONE', #275, #20, #6, .T. ) ;
#144 = CIRCLE ( 'NONE', #136, 0.09999999999999997780 ) ;
#145 = FACE_OUTER_BOUND ( 'NONE', #121, .T. ) ;
#146 = CARTESIAN_POINT ( 'NONE',  ( -0.1250000000000000000, 0.0000000000000000000, 2.985000000000001208 ) ) ;
#147 =( GEOMETRIC_REPRESENTATION_CONTEXT ( 3 ) GLOBAL_UNCERTAINTY_ASSIGNED_CONTEXT ( ( #14 ) ) GLOBAL_UNIT_ASSIGNED_CONTEXT ( ( #225, #60, #113 ) ) REPRESENTATION_CONTEXT ( 'NONE', 'WORKASPACE' ) );
#148 = CARTESIAN_POINT ( 'NONE',  ( 0.1250000000000000000, 1.530808498934191201E-17, 3.000000000000000444 ) ) ;
#149 = PRODUCT_DEFINITION_SHAPE ( 'NONE', 'NONE',  #230 ) ;
#150 = ORIENTED_EDGE ( 'NONE', *, *, #143, .F. ) ;
#151 = ORIENTED_EDGE ( 'NONE', *, *, #142, .T. ) ;
#152 = PRODUCT ( 'Micro_SBM-250-2X', 'Micro_SBM-250-2X', '', ( #57 ) ) ;
#153 = VERTEX_POINT ( 'NONE', #146 ) ;
#154 = LINE ( 'NONE', #242, #235 ) ;
#155 = FILL_AREA_STYLE_COLOUR ( '', #69 ) ;
#156 = ORIENTED_EDGE ( 'NONE', *, *, #65, .T. ) ;
#157 = CARTESIAN_POINT ( 'NONE',  ( 0.0000000000000000000, 0.0000000000000000000, 2.985000000000001208 ) ) ;
#158 = ORIENTED_EDGE ( 'NONE', *, *, #101, .T. ) ;
#159 = DIRECTION ( 'NONE',  ( -0.0000000000000000000, -0.0000000000000000000, -1.000000000000000000 ) ) ;
#160 = VECTOR ( 'NONE', #265, 39.37007874015748854 ) ;
#161 = ADVANCED_BREP_SHAPE_REPRESENTATION ( 'Micro_SBM-250-2X', ( #227, #139 ), #41 ) ;
#162 = CARTESIAN_POINT ( 'NONE',  ( 0.0000000000000000000, 0.0000000000000000000, 3.000000000000000444 ) ) ;
#163 = PRESENTATION_LAYER_ASSIGNMENT (  '', '', ( #11 ) ) ;
#164 = SHAPE_DEFINITION_REPRESENTATION ( #149, #161 ) ;
#165 = CARTESIAN_POINT ( 'NONE',  ( 0.0000000000000000000, 0.0000000000000000000, 0.1250000000000000000 ) ) ;
#166 = DIRECTION ( 'NONE',  ( -1.000000000000000000, 0.0000000000000000000, 0.0000000000000000000 ) ) ;
#167 =( NAMED_UNIT ( * ) SI_UNIT ( $, .STERADIAN. ) SOLID_ANGLE_UNIT ( ) );
#168 = AXIS2_PLACEMENT_3D ( 'NONE', #50, #341, #333 ) ;
#169 = DIRECTION ( 'NONE',  ( -0.0000000000000000000, -0.0000000000000000000, -1.000000000000000000 ) ) ;
#170 = ORIENTED_EDGE ( 'NONE', *, *, #13, .T. ) ;
#171 = CARTESIAN_POINT ( 'NONE',  ( 0.0000000000000000000, 0.0000000000000000000, 3.000000000000000444 ) ) ;
#172 = SURFACE_STYLE_USAGE ( .BOTH. , #270 ) ;
#173 = DIRECTION ( 'NONE',  ( 0.0000000000000000000, 0.0000000000000000000, 1.000000000000000000 ) ) ;
#174 = AXIS2_PLACEMENT_3D ( 'NONE', #89, #201, #92 ) ;
#175 = ORIENTED_EDGE ( 'NONE', *, *, #66, .T. ) ;
#176 = ORIENTED_EDGE ( 'NONE', *, *, #305, .T. ) ;
#177 = DIRECTION ( 'NONE',  ( 1.000000000000000000, 0.0000000000000000000, 0.0000000000000000000 ) ) ;
#178 = ORIENTED_EDGE ( 'NONE', *, *, #65, .F. ) ;
#179 = APPLICATION_PROTOCOL_DEFINITION ( 'draft international standard', 'automotive_design', 1998, #268 ) ;
#180 = CIRCLE ( 'NONE', #168, 0.09999999999999997780 ) ;
#181 = EDGE_LOOP ( 'NONE', ( #281, #210, #334, #106 ) ) ;
#182 = DIRECTION ( 'NONE',  ( -0.03569153051241254898, 4.370951859869611905E-18, 0.9993628543475495674 ) ) ;
#183 = CARTESIAN_POINT ( 'NONE',  ( 0.0000000000000000000, 0.0000000000000000000, 0.1999999999999999833 ) ) ;
#184 = ORIENTED_EDGE ( 'NONE', *, *, #326, .T. ) ;
#185 = DIRECTION ( 'NONE',  ( 1.000000000000000000, 0.0000000000000000000, 0.0000000000000000000 ) ) ;
#186 = DIRECTION ( 'NONE',  ( -1.000000000000000000, 0.0000000000000000000, 0.0000000000000000000 ) ) ;
#187 = CARTESIAN_POINT ( 'NONE',  ( 0.0000000000000000000, 0.0000000000000000000, 0.5000000000000000000 ) ) ;
#188 = EDGE_CURVE ( 'NONE', #286, #345, #216, .T. ) ;
#189 = CARTESIAN_POINT ( 'NONE',  ( 0.0000000000000000000, 0.0000000000000000000, 0.0000000000000000000 ) ) ;
#190 = CARTESIAN_POINT ( 'NONE',  ( 0.0000000000000000000, 0.0000000000000000000, 1.549999999999994049 ) ) ;
#191 = ADVANCED_FACE ( 'NONE', ( #145 ), #243, .T. ) ;
#192 = AXIS2_PLACEMENT_3D ( 'NONE', #228, #205, #304 ) ;
#193 = DIRECTION ( 'NONE',  ( 0.0000000000000000000, 0.0000000000000000000, 1.000000000000000000 ) ) ;
#194 = FILL_AREA_STYLE_COLOUR ( '', #311 ) ;
#195 = EDGE_CURVE ( 'NONE', #286, #80, #86, .T. ) ;
#196 = DIRECTION ( 'NONE',  ( 0.03569153051241254898, 0.0000000000000000000, 0.9993628543475495674 ) ) ;
#197 = AXIS2_PLACEMENT_3D ( 'NONE', #282, #284, #202 ) ;
#198 = CIRCLE ( 'NONE', #285, 0.1100000000000004446 ) ;
#199 = CIRCLE ( 'NONE', #344, 0.1250000000000000000 ) ;
#200 = VERTEX_POINT ( 'NONE', #96 ) ;
#201 = DIRECTION ( 'NONE',  ( -0.0000000000000000000, -0.0000000000000000000, -1.000000000000000000 ) ) ;
#202 = DIRECTION ( 'NONE',  ( 1.000000000000000000, 0.0000000000000000000, 0.0000000000000000000 ) ) ;
#203 =( GEOMETRIC_REPRESENTATION_CONTEXT ( 3 ) GLOBAL_UNCERTAINTY_ASSIGNED_CONTEXT ( ( #206 ) ) GLOBAL_UNIT_ASSIGNED_CONTEXT ( ( #301, #72, #167 ) ) REPRESENTATION_CONTEXT ( 'NONE', 'WORKASPACE' ) );
#204 = EDGE_LOOP ( 'NONE', ( #156, #151, #229, #110, #85 ) ) ;
#205 = DIRECTION ( 'NONE',  ( -0.0000000000000000000, -0.0000000000000000000, -1.000000000000000000 ) ) ;
#206 = UNCERTAINTY_MEASURE_WITH_UNIT (LENGTH_MEASURE( 1.000000000000000082E-05 ), #301, 'distance_accuracy_value', 'NONE');
#207 = CARTESIAN_POINT ( 'NONE',  ( 0.1250000000000000000, 0.0000000000000000000, 1.199999999999999956 ) ) ;
#208 = VECTOR ( 'NONE', #196, 39.37007874015748143 ) ;
#209 = CARTESIAN_POINT ( 'NONE',  ( -0.09999999999999997780, 0.0000000000000000000, 0.1999999999999999833 ) ) ;
#210 = ORIENTED_EDGE ( 'NONE', *, *, #298, .F. ) ;
#211 = ORIENTED_EDGE ( 'NONE', *, *, #318, .T. ) ;
#212 = CARTESIAN_POINT ( 'NONE',  ( 0.0000000000000000000, 7.654042494670956004E-18, 1.707404996040164512E-17 ) ) ;
#213 = DIRECTION ( 'NONE',  ( -0.0000000000000000000, -0.0000000000000000000, -1.000000000000000000 ) ) ;
#214 = PRODUCT_DEFINITION_FORMATION_WITH_SPECIFIED_SOURCE ( 'ANY', '', #152, .NOT_KNOWN. ) ;
#215 = CYLINDRICAL_SURFACE ( 'NONE', #94, 0.1250000000000000000 ) ;
#216 = CIRCLE ( 'NONE', #111, 0.09999999999999997780 ) ;
#217 = AXIS2_PLACEMENT_3D ( 'NONE', #187, #294, #267 ) ;
#218 = DIRECTION ( 'NONE',  ( -0.0000000000000000000, -0.0000000000000000000, -1.000000000000000000 ) ) ;
#219 = DIRECTION ( 'NONE',  ( 1.000000000000000000, 0.0000000000000000000, -0.0000000000000000000 ) ) ;
#220 = DIMENSIONAL_EXPONENTS ( 1.000000000000000000, 0.0000000000000000000, 0.0000000000000000000, 0.0000000000000000000, 0.0000000000000000000, 0.0000000000000000000, 0.0000000000000000000 ) ;
#221 = EDGE_CURVE ( 'NONE', #259, #80, #78, .T. ) ;
#222 = CARTESIAN_POINT ( 'NONE',  ( 0.0000000000000000000, 0.09999999999999999167, 0.1999999999999999833 ) ) ;
#223 = EDGE_LOOP ( 'NONE', ( #12, #133, #56, #312, #15 ) ) ;
#224 = DIRECTION ( 'NONE',  ( 0.0000000000000000000, 1.000000000000000000, 0.0000000000000000000 ) ) ;
#225 =( CONVERSION_BASED_UNIT ( 'INCH', #76 ) LENGTH_UNIT ( ) NAMED_UNIT ( #220 ) );
#226 = ORIENTED_EDGE ( 'NONE', *, *, #296, .T. ) ;
#227 = MANIFOLD_SOLID_BREP ( 'Cut-Revolve3', #291 ) ;
#228 = CARTESIAN_POINT ( 'NONE',  ( 0.0000000000000000000, 0.0000000000000000000, 0.5000000000000000000 ) ) ;
#229 = ORIENTED_EDGE ( 'NONE', *, *, #84, .F. ) ;
#230 = PRODUCT_DEFINITION ( 'UNKNOWN', '', #214, #280 ) ;
#231 = EDGE_LOOP ( 'NONE', ( #226, #176, #309, #278 ) ) ;
#232 = CARTESIAN_POINT ( 'NONE',  ( 0.1100000000000004446, 1.438959988998142687E-17, 3.000000000000000444 ) ) ;
#233 = ORIENTED_EDGE ( 'NONE', *, *, #195, .T. ) ;
#234 = ORIENTED_EDGE ( 'NONE', *, *, #273, .T. ) ;
#235 = VECTOR ( 'NONE', #218, 39.37007874015748143 ) ;
#236 = ORIENTED_EDGE ( 'NONE', *, *, #30, .F. ) ;
#237 = EDGE_CURVE ( 'NONE', #342, #252, #141, .T. ) ;
#238 = CARTESIAN_POINT ( 'NONE',  ( 0.0000000000000000000, 0.0000000000000000000, 0.1999999999999999833 ) ) ;
#239 = ADVANCED_FACE ( 'NONE', ( #303 ), #299, .T. ) ;
#240 = DIRECTION ( 'NONE',  ( -0.0000000000000000000, -0.0000000000000000000, -1.000000000000000000 ) ) ;
#241 = ADVANCED_FACE ( 'NONE', ( #93 ), #323, .T. ) ;
#242 = CARTESIAN_POINT ( 'NONE',  ( 0.09999999999999996392, 1.224646799147352807E-17, 0.0000000000000000000 ) ) ;
#243 = PLANE ( 'NONE',  #124 ) ;
#244 = AXIS2_PLACEMENT_3D ( 'NONE', #21, #173, #81 ) ;
#245 = AXIS2_PLACEMENT_3D ( 'NONE', #137, #322, #91 ) ;
#246 = AXIS2_PLACEMENT_3D ( 'NONE', #70, #169, #247 ) ;
#247 = DIRECTION ( 'NONE',  ( -1.000000000000000000, 0.0000000000000000000, 0.0000000000000000000 ) ) ;
#248 = SPHERICAL_SURFACE ( 'NONE', #19, 0.1249999999999999861 ) ;
#249 = EDGE_LOOP ( 'NONE', ( #49, #8, #277, #300 ) ) ;
#250 = DIRECTION ( 'NONE',  ( -0.0000000000000000000, -0.0000000000000000000, -1.000000000000000000 ) ) ;
#251 = FACE_OUTER_BOUND ( 'NONE', #288, .T. ) ;
#252 = VERTEX_POINT ( 'NONE', #297 ) ;
#253 = LENGTH_MEASURE_WITH_UNIT ( LENGTH_MEASURE( 0.02539999999999999897 ), #337 );
#254 = EDGE_LOOP ( 'NONE', ( #257, #234, #175, #43 ) ) ;
#255 = ORIENTED_EDGE ( 'NONE', *, *, #221, .T. ) ;
#256 = SURFACE_SIDE_STYLE ('',( #316 ) ) ;
#257 = ORIENTED_EDGE ( 'NONE', *, *, #305, .F. ) ;
#258 = CARTESIAN_POINT ( 'NONE',  ( 0.0000000000000000000, 0.0000000000000000000, 1.199999999999999956 ) ) ;
#259 = VERTEX_POINT ( 'NONE', #222 ) ;
#260 = APPLICATION_PROTOCOL_DEFINITION ( 'draft international standard', 'automotive_design', 1998, #45 ) ;
#261 = DIRECTION ( 'NONE',  ( -1.000000000000000000, 0.0000000000000000000, 0.0000000000000000000 ) ) ;
#262 = AXIS2_PLACEMENT_3D ( 'NONE', #315, #83, #185 ) ;
#263 = ADVANCED_FACE ( 'NONE', ( #329 ), #248, .T. ) ;
#264 = LINE ( 'NONE', #29, #117 ) ;
#265 = DIRECTION ( 'NONE',  ( 0.7071067811865566766, 8.659560562355046257E-17, -0.7071067811865382469 ) ) ;
#266 = AXIS2_PLACEMENT_3D ( 'NONE', #327, #98, #272 ) ;
#267 = DIRECTION ( 'NONE',  ( -1.000000000000000000, 0.0000000000000000000, 0.0000000000000000000 ) ) ;
#268 = APPLICATION_CONTEXT ( 'automotive_design' ) ;
#269 = DIRECTION ( 'NONE',  ( 1.000000000000000000, 0.0000000000000000000, 0.0000000000000000000 ) ) ;
#270 = SURFACE_SIDE_STYLE ('',( #10 ) ) ;
#271 = ADVANCED_FACE ( 'NONE', ( #331 ), #302, .T. ) ;
#272 = DIRECTION ( 'NONE',  ( 0.0000000000000000000, 0.0000000000000000000, 1.000000000000000000 ) ) ;
#273 = EDGE_CURVE ( 'NONE', #340, #153, #115, .T. ) ;
#274 = CARTESIAN_POINT ( 'NONE',  ( 0.0000000000000000000, 0.0000000000000000000, 3.000000000000000444 ) ) ;
#275 = VERTEX_POINT ( 'NONE', #46 ) ;
#276 = PRESENTATION_LAYER_ASSIGNMENT (  '', '', ( #97 ) ) ;
#277 = ORIENTED_EDGE ( 'NONE', *, *, #296, .F. ) ;
#278 = ORIENTED_EDGE ( 'NONE', *, *, #66, .F. ) ;
#279 = CARTESIAN_POINT ( 'NONE',  ( 0.1250000000000000000, 1.530808498934191201E-17, 2.985000000000001208 ) ) ;
#280 = PRODUCT_DEFINITION_CONTEXT ( 'detailed design', #45, 'design' ) ;
#281 = ORIENTED_EDGE ( 'NONE', *, *, #326, .F. ) ;
#282 = CARTESIAN_POINT ( 'NONE',  ( 0.0000000000000000000, 0.0000000000000000000, 2.985000000000001208 ) ) ;
#283 = ORIENTED_EDGE ( 'NONE', *, *, #84, .T. ) ;
#284 = DIRECTION ( 'NONE',  ( 0.0000000000000000000, 0.0000000000000000000, -1.000000000000000000 ) ) ;
#285 = AXIS2_PLACEMENT_3D ( 'NONE', #47, #77, #338 ) ;
#286 = VERTEX_POINT ( 'NONE', #129 ) ;
#287 = DIRECTION ( 'NONE',  ( -1.000000000000000000, 0.0000000000000000000, 0.0000000000000000000 ) ) ;
#288 = EDGE_LOOP ( 'NONE', ( #178, #184, #236, #150 ) ) ;
#289 = FACE_OUTER_BOUND ( 'NONE', #254, .T. ) ;
#290 = VECTOR ( 'NONE', #182, 39.37007874015748143 ) ;
#291 = CLOSED_SHELL ( 'NONE', ( #62, #31, #239, #336, #263, #39, #241, #118, #35, #191, #271 ) ) ;
#292 = FACE_OUTER_BOUND ( 'NONE', #128, .T. ) ;
#293 = DIRECTION ( 'NONE',  ( -1.000000000000000000, 0.0000000000000000000, 0.0000000000000000000 ) ) ;
#294 = DIRECTION ( 'NONE',  ( -0.0000000000000000000, -0.0000000000000000000, -1.000000000000000000 ) ) ;
#295 = MECHANICAL_DESIGN_GEOMETRIC_PRESENTATION_REPRESENTATION (  '', ( #11 ), #203 ) ;
#296 = EDGE_CURVE ( 'NONE', #153, #340, #32, .T. ) ;
#297 = CARTESIAN_POINT ( 'NONE',  ( -0.1100000000000004446, 0.0000000000000000000, 3.000000000000000444 ) ) ;
#298 = EDGE_CURVE ( 'NONE', #275, #200, #48, .T. ) ;
#299 = CYLINDRICAL_SURFACE ( 'NONE', #246, 0.09999999999999996392 ) ;
#300 = ORIENTED_EDGE ( 'NONE', *, *, #101, .F. ) ;
#301 =( CONVERSION_BASED_UNIT ( 'INCH', #68 ) LENGTH_UNIT ( ) NAMED_UNIT ( #308 ) );
#302 = CONICAL_SURFACE ( 'NONE', #3, 0.1100000000000004446, 0.7853981633974613796 ) ;
#303 = FACE_OUTER_BOUND ( 'NONE', #204, .T. ) ;
#304 = DIRECTION ( 'NONE',  ( -1.000000000000000000, 0.0000000000000000000, 0.0000000000000000000 ) ) ;
#305 = EDGE_CURVE ( 'NONE', #340, #20, #79, .T. ) ;
#306 = CONICAL_SURFACE ( 'NONE', #244, 0.1374999999999998168, 0.03569911267932403265 ) ;
#307 = SURFACE_STYLE_USAGE ( .BOTH. , #256 ) ;
#308 = DIMENSIONAL_EXPONENTS ( 1.000000000000000000, 0.0000000000000000000, 0.0000000000000000000, 0.0000000000000000000, 0.0000000000000000000, 0.0000000000000000000, 0.0000000000000000000 ) ;
#309 = ORIENTED_EDGE ( 'NONE', *, *, #30, .T. ) ;
#310 =( CONVERSION_BASED_UNIT ( 'INCH', #253 ) LENGTH_UNIT ( ) NAMED_UNIT ( #38 ) );
#311 = COLOUR_RGB ( '',0.7921568627450980005, 0.8196078431372548767, 0.9333333333333333481 ) ;
#312 = ORIENTED_EDGE ( 'NONE', *, *, #188, .F. ) ;
#313 = DIRECTION ( 'NONE',  ( -0.0000000000000000000, -0.0000000000000000000, -1.000000000000000000 ) ) ;
#314 = PRODUCT_RELATED_PRODUCT_CATEGORY ( 'part', '', ( #152 ) ) ;
#315 = CARTESIAN_POINT ( 'NONE',  ( 0.0000000000000000000, 0.0000000000000000000, 1.199999999999999956 ) ) ;
#316 = SURFACE_STYLE_FILL_AREA ( #132 ) ;
#317 = ORIENTED_EDGE ( 'NONE', *, *, #237, .T. ) ;
#318 = EDGE_CURVE ( 'NONE', #23, #286, #180, .T. ) ;
#319 = ORIENTED_EDGE ( 'NONE', *, *, #13, .F. ) ;
#320 = LINE ( 'NONE', #109, #61 ) ;
#321 = CARTESIAN_POINT ( 'NONE',  ( 0.0000000000000000000, 0.0000000000000000000, 3.000000000000000444 ) ) ;
#322 = DIRECTION ( 'NONE',  ( 0.0000000000000000000, 0.0000000000000000000, -1.000000000000000000 ) ) ;
#323 = CONICAL_SURFACE ( 'NONE', #67, 0.1374999999999998168, 0.03569911267932403265 ) ;
#324 = DIRECTION ( 'NONE',  ( 0.0000000000000000000, 0.0000000000000000000, 1.000000000000000000 ) ) ;
#325 = CONICAL_SURFACE ( 'NONE', #245, 0.1100000000000004446, 0.7853981633974613796 ) ;
#326 = EDGE_CURVE ( 'NONE', #200, #126, #104, .T. ) ;
#327 = CARTESIAN_POINT ( 'NONE',  ( 0.0000000000000000000, 0.0000000000000000000, 0.1250000000000000000 ) ) ;
#328 = CARTESIAN_POINT ( 'NONE',  ( 0.0000000000000000000, 0.0000000000000000000, 0.1999999999999999833 ) ) ;
#329 = FACE_OUTER_BOUND ( 'NONE', #55, .T. ) ;
#330 = VECTOR ( 'NONE', #313, 39.37007874015748143 ) ;
#331 = FACE_OUTER_BOUND ( 'NONE', #17, .T. ) ;
#332 = AXIS2_PLACEMENT_3D ( 'NONE', #157, #125, #177 ) ;
#333 = DIRECTION ( 'NONE',  ( -1.000000000000000000, 0.0000000000000000000, 0.0000000000000000000 ) ) ;
#334 = ORIENTED_EDGE ( 'NONE', *, *, #143, .T. ) ;
#335 = VECTOR ( 'NONE', #240, 39.37007874015748143 ) ;
#336 = ADVANCED_FACE ( 'NONE', ( #251 ), #306, .T. ) ;
#337 =( LENGTH_UNIT ( ) NAMED_UNIT ( * ) SI_UNIT ( $, .METRE. ) );
#338 = DIRECTION ( 'NONE',  ( 1.000000000000000000, 0.0000000000000000000, 0.0000000000000000000 ) ) ;
#339 = CARTESIAN_POINT ( 'NONE',  ( -0.1374999999999998168, 1.683889348827608472E-17, 1.549999999999994049 ) ) ;
#340 = VERTEX_POINT ( 'NONE', #279 ) ;
#341 = DIRECTION ( 'NONE',  ( -0.0000000000000000000, -0.0000000000000000000, -1.000000000000000000 ) ) ;
#342 = VERTEX_POINT ( 'NONE', #232 ) ;
#343 = DIRECTION ( 'NONE',  ( 0.0000000000000000000, 0.0000000000000000000, 1.000000000000000000 ) ) ;
#344 = AXIS2_PLACEMENT_3D ( 'NONE', #258, #343, #22 ) ;
#345 = VERTEX_POINT ( 'NONE', #209 ) ;
ENDSEC;
END-ISO-10303-21;
