ISO-10303-21;
HEADER;
FILE_DESCRIPTION (( 'STEP AP214' ),
    '1' );
FILE_NAME ('59566.STEP',
    '2023-07-24T15:49:11',
    ( '' ),
    ( '' ),
    'SwSTEP 2.0',
    'SolidWorks 2023',
    '' );
FILE_SCHEMA (( 'AUTOMOTIVE_DESIGN' ));
ENDSEC;

DATA;
#1 = CARTESIAN_POINT ( 'NONE',  ( 0.000000000000000000, 0.000000000000000000, 0.000000000000000000 ) ) ;
#2 = CARTESIAN_POINT ( 'NONE',  ( 0.000000000000000000, 0.000000000000000000, 0.000000000000000000 ) ) ;
#3 = DIRECTION ( 'NONE',  ( -0.000000000000000000, -1.000000000000000000, -0.000000000000000000 ) ) ;
#4 =( NAMED_UNIT ( * ) PLANE_ANGLE_UNIT ( ) SI_UNIT ( $, .RADIAN. ) );
#5 = STYLED_ITEM ( 'NONE', ( #109 ), #278 ) ;
#6 = SURFACE_STYLE_USAGE ( .BOTH. , #242 ) ;
#7 = APPLICATION_CONTEXT ( 'automotive_design' ) ;
#8 = VERTEX_POINT ( 'NONE', #203 ) ;
#9 = ADVANCED_FACE ( 'NONE', ( #44 ), #168, .F. ) ;
#10 = PRESENTATION_LAYER_ASSIGNMENT (  '', '', ( #127 ) ) ;
#11 = FILL_AREA_STYLE ('',( #36 ) ) ;
#12 = DIRECTION ( 'NONE',  ( -1.000000000000000000, 0.000000000000000000, 0.000000000000000000 ) ) ;
#13 = FILL_AREA_STYLE_COLOUR ( '', #35 ) ;
#14 = CIRCLE ( 'NONE', #58, 12.50000000000000533 ) ;
#15 = CARTESIAN_POINT ( 'NONE',  ( 7.703719777548943412E-31, 64.00000000000000000, 0.000000000000000000 ) ) ;
#16 = SURFACE_STYLE_FILL_AREA ( #211 ) ;
#17 = DIRECTION ( 'NONE',  ( 0.000000000000000000, 0.000000000000000000, -1.000000000000000000 ) ) ;
#18 = DIRECTION ( 'NONE',  ( -0.000000000000000000, -1.000000000000000000, -0.000000000000000000 ) ) ;
#19 = FACE_OUTER_BOUND ( 'NONE', #244, .T. ) ;
#20 = EDGE_LOOP ( 'NONE', ( #246, #153 ) ) ;
#21 = PLANE ( 'NONE',  #51 ) ;
#22 =( NAMED_UNIT ( * ) SI_UNIT ( $, .STERADIAN. ) SOLID_ANGLE_UNIT ( ) );
#23 = DIRECTION ( 'NONE',  ( -1.000000000000000000, -7.227423732672903446E-17, 0.000000000000000000 ) ) ;
#24 = CIRCLE ( 'NONE', #272, 12.50000000000000000 ) ;
#25 = DIRECTION ( 'NONE',  ( -7.227423732672903446E-17, 1.000000000000000000, -0.000000000000000000 ) ) ;
#26 = ORIENTED_EDGE ( 'NONE', *, *, #132, .T. ) ;
#27 = CARTESIAN_POINT ( 'NONE',  ( 12.50000000000000000, 125.0000000000000000, 0.000000000000000000 ) ) ;
#28 = COLOUR_RGB ( '',1.000000000000000000, 0.000000000000000000, 0.000000000000000000 ) ;
#29 = PRODUCT_DEFINITION_CONTEXT ( 'detailed design', #104, 'design' ) ;
#30 = EDGE_CURVE ( 'NONE', #275, #200, #124, .T. ) ;
#31 = DIRECTION ( 'NONE',  ( 0.000000000000000000, 1.000000000000000000, 0.000000000000000000 ) ) ;
#32 = PRESENTATION_STYLE_ASSIGNMENT (( #76 ) ) ;
#33 = ORIENTED_EDGE ( 'NONE', *, *, #132, .F. ) ;
#34 = CYLINDRICAL_SURFACE ( 'NONE', #40, 12.50000000000000000 ) ;
#35 = COLOUR_RGB ( '',1.000000000000000000, 0.000000000000000000, 0.000000000000000000 ) ;
#36 = FILL_AREA_STYLE_COLOUR ( '', #268 ) ;
#37 = LINE ( 'NONE', #39, #89 ) ;
#38 =( NAMED_UNIT ( * ) PLANE_ANGLE_UNIT ( ) SI_UNIT ( $, .RADIAN. ) );
#39 = CARTESIAN_POINT ( 'NONE',  ( 1.530808498934191521E-15, 0.000000000000000000, 12.50000000000000000 ) ) ;
#40 = AXIS2_PLACEMENT_3D ( 'NONE', #59, #163, #17 ) ;
#41 = EDGE_LOOP ( 'NONE', ( #47, #152, #117, #88 ) ) ;
#42 = MANIFOLD_SOLID_BREP ( 'Revolve - Cutting Edge', #144 ) ;
#43 = FILL_AREA_STYLE ('',( #139 ) ) ;
#44 = FACE_OUTER_BOUND ( 'NONE', #108, .T. ) ;
#45 = DIRECTION ( 'NONE',  ( 7.227423732672903446E-17, -1.000000000000000000, 0.000000000000000000 ) ) ;
#46 = UNCERTAINTY_MEASURE_WITH_UNIT (LENGTH_MEASURE( 1.000000000000000082E-05 ), #172, 'distance_accuracy_value', 'NONE');
#47 = ORIENTED_EDGE ( 'NONE', *, *, #225, .T. ) ;
#48 = ORIENTED_EDGE ( 'NONE', *, *, #67, .T. ) ;
#49 = PRODUCT_DEFINITION ( 'UNKNOWN', '', #204, #29 ) ;
#50 = PRESENTATION_LAYER_ASSIGNMENT (  '', '', ( #5 ) ) ;
#51 = AXIS2_PLACEMENT_3D ( 'NONE', #101, #85, #23 ) ;
#52 = STYLED_ITEM ( 'NONE', ( #220 ), #42 ) ;
#53 =( LENGTH_UNIT ( ) NAMED_UNIT ( * ) SI_UNIT ( .MILLI., .METRE. ) );
#54 = UNCERTAINTY_MEASURE_WITH_UNIT (LENGTH_MEASURE( 1.000000000000000082E-05 ), #111, 'distance_accuracy_value', 'NONE');
#55 = DIRECTION ( 'NONE',  ( -1.000000000000000000, 0.000000000000000000, 0.000000000000000000 ) ) ;
#56 = ADVANCED_FACE ( 'NONE', ( #114 ), #267, .T. ) ;
#57 = CARTESIAN_POINT ( 'NONE',  ( 12.50000000000000000, 64.00000000000000000, 1.530808498934191916E-15 ) ) ;
#58 = AXIS2_PLACEMENT_3D ( 'NONE', #175, #228, #74 ) ;
#59 = CARTESIAN_POINT ( 'NONE',  ( 0.000000000000000000, 0.000000000000000000, 0.000000000000000000 ) ) ;
#60 = LINE ( 'NONE', #83, #183 ) ;
#61 = DIRECTION ( 'NONE',  ( -7.227423732672903446E-17, 1.000000000000000000, -0.000000000000000000 ) ) ;
#62 = AXIS2_PLACEMENT_3D ( 'NONE', #27, #45, #221 ) ;
#63 = STYLED_ITEM ( 'NONE', ( #195 ), #136 ) ;
#64 = FILL_AREA_STYLE ('',( #142 ) ) ;
#65 = ORIENTED_EDGE ( 'NONE', *, *, #206, .F. ) ;
#66 = VERTEX_POINT ( 'NONE', #210 ) ;
#67 = EDGE_CURVE ( 'NONE', #126, #275, #24, .T. ) ;
#68 = ORIENTED_EDGE ( 'NONE', *, *, #98, .T. ) ;
#69 = EDGE_LOOP ( 'NONE', ( #249, #68, #72, #205 ) ) ;
#70 = UNCERTAINTY_MEASURE_WITH_UNIT (LENGTH_MEASURE( 1.000000000000000082E-05 ), #121, 'distance_accuracy_value', 'NONE');
#71 = FACE_OUTER_BOUND ( 'NONE', #146, .T. ) ;
#72 = ORIENTED_EDGE ( 'NONE', *, *, #283, .T. ) ;
#73 = COLOUR_RGB ( '',1.000000000000000000, 0.000000000000000000, 0.000000000000000000 ) ;
#74 = DIRECTION ( 'NONE',  ( -1.000000000000000000, 0.000000000000000000, 0.000000000000000000 ) ) ;
#75 = MECHANICAL_DESIGN_GEOMETRIC_PRESENTATION_REPRESENTATION (  '', ( #63 ), #106 ) ;
#76 = SURFACE_STYLE_USAGE ( .BOTH. , #279 ) ;
#77 = CYLINDRICAL_SURFACE ( 'NONE', #192, 12.50000000000000355 ) ;
#78 = DIRECTION ( 'NONE',  ( 0.000000000000000000, 0.000000000000000000, -1.000000000000000000 ) ) ;
#79 = STYLED_ITEM ( 'NONE', ( #178 ), #231 ) ;
#80 = DIRECTION ( 'NONE',  ( -0.000000000000000000, -1.000000000000000000, -0.000000000000000000 ) ) ;
#81 =( NAMED_UNIT ( * ) PLANE_ANGLE_UNIT ( ) SI_UNIT ( $, .RADIAN. ) );
#82 = LINE ( 'NONE', #165, #238 ) ;
#83 = CARTESIAN_POINT ( 'NONE',  ( 0.000000000000000000, 0.000000000000000000, -12.50000000000000000 ) ) ;
#84 = AXIS2_PLACEMENT_3D ( 'NONE', #2, #241, #78 ) ;
#85 = DIRECTION ( 'NONE',  ( -7.227423732672903446E-17, 1.000000000000000000, 0.000000000000000000 ) ) ;
#86 = ORIENTED_EDGE ( 'NONE', *, *, #169, .F. ) ;
#87 = EDGE_CURVE ( 'NONE', #200, #248, #14, .T. ) ;
#88 = ORIENTED_EDGE ( 'NONE', *, *, #145, .F. ) ;
#89 = VECTOR ( 'NONE', #118, 1000.000000000000000 ) ;
#90 =( GEOMETRIC_REPRESENTATION_CONTEXT ( 3 ) GLOBAL_UNCERTAINTY_ASSIGNED_CONTEXT ( ( #46 ) ) GLOBAL_UNIT_ASSIGNED_CONTEXT ( ( #172, #4, #243 ) ) REPRESENTATION_CONTEXT ( 'NONE', 'WORKASPACE' ) );
#91 =( NAMED_UNIT ( * ) PLANE_ANGLE_UNIT ( ) SI_UNIT ( $, .RADIAN. ) );
#92 = DIRECTION ( 'NONE',  ( -1.000000000000000000, 0.000000000000000000, 0.000000000000000000 ) ) ;
#93 = FILL_AREA_STYLE ('',( #13 ) ) ;
#94 = CLOSED_SHELL ( 'NONE', ( #56, #212, #257, #9 ) ) ;
#95 = CARTESIAN_POINT ( 'NONE',  ( 1.530808498934191521E-15, 64.00000000000000000, 12.50000000000000000 ) ) ;
#96 = CARTESIAN_POINT ( 'NONE',  ( -4.408728476930470067E-15, 125.0000000000000000, 0.000000000000000000 ) ) ;
#97 = SURFACE_STYLE_USAGE ( .BOTH. , #135 ) ;
#98 = EDGE_CURVE ( 'NONE', #275, #126, #270, .T. ) ;
#99 = AXIS2_PLACEMENT_3D ( 'NONE', #134, #31, #185 ) ;
#100 = CIRCLE ( 'NONE', #171, 12.50000000000000000 ) ;
#101 = CARTESIAN_POINT ( 'NONE',  ( 3.264728363225220430E-32, 64.00000000000000000, 0.000000000000000000 ) ) ;
#102 =( GEOMETRIC_REPRESENTATION_CONTEXT ( 3 ) GLOBAL_UNCERTAINTY_ASSIGNED_CONTEXT ( ( #160 ) ) GLOBAL_UNIT_ASSIGNED_CONTEXT ( ( #53, #256, #133 ) ) REPRESENTATION_CONTEXT ( 'NONE', 'WORKASPACE' ) );
#103 = AXIS2_PLACEMENT_3D ( 'NONE', #274, #184, #12 ) ;
#104 = APPLICATION_CONTEXT ( 'automotive_design' ) ;
#105 = COLOUR_RGB ( '',0.7921568627450980005, 0.8196078431372548767, 0.9333333333333333481 ) ;
#106 =( GEOMETRIC_REPRESENTATION_CONTEXT ( 3 ) GLOBAL_UNCERTAINTY_ASSIGNED_CONTEXT ( ( #70 ) ) GLOBAL_UNIT_ASSIGNED_CONTEXT ( ( #121, #81, #22 ) ) REPRESENTATION_CONTEXT ( 'NONE', 'WORKASPACE' ) );
#107 = ORIENTED_EDGE ( 'NONE', *, *, #190, .T. ) ;
#108 = EDGE_LOOP ( 'NONE', ( #155, #112 ) ) ;
#109 = PRESENTATION_STYLE_ASSIGNMENT (( #260 ) ) ;
#110 = DIRECTION ( 'NONE',  ( -1.000000000000000000, 0.000000000000000000, 0.000000000000000000 ) ) ;
#111 =( LENGTH_UNIT ( ) NAMED_UNIT ( * ) SI_UNIT ( .MILLI., .METRE. ) );
#112 = ORIENTED_EDGE ( 'NONE', *, *, #87, .T. ) ;
#113 =( NAMED_UNIT ( * ) SI_UNIT ( $, .STERADIAN. ) SOLID_ANGLE_UNIT ( ) );
#114 = FACE_OUTER_BOUND ( 'NONE', #125, .T. ) ;
#115 = MECHANICAL_DESIGN_GEOMETRIC_PRESENTATION_REPRESENTATION (  '', ( #52 ), #90 ) ;
#116 = FACE_OUTER_BOUND ( 'NONE', #69, .T. ) ;
#117 = ORIENTED_EDGE ( 'NONE', *, *, #151, .F. ) ;
#118 = DIRECTION ( 'NONE',  ( -0.000000000000000000, -1.000000000000000000, -0.000000000000000000 ) ) ;
#119 = AXIS2_PLACEMENT_3D ( 'NONE', #159, #137, #166 ) ;
#120 =( LENGTH_UNIT ( ) NAMED_UNIT ( * ) SI_UNIT ( .MILLI., .METRE. ) );
#121 =( LENGTH_UNIT ( ) NAMED_UNIT ( * ) SI_UNIT ( .MILLI., .METRE. ) );
#122 = ORIENTED_EDGE ( 'NONE', *, *, #225, .F. ) ;
#123 =( NAMED_UNIT ( * ) SI_UNIT ( $, .STERADIAN. ) SOLID_ANGLE_UNIT ( ) );
#124 = LINE ( 'NONE', #269, #193 ) ;
#125 = EDGE_LOOP ( 'NONE', ( #48, #147, #86, #227 ) ) ;
#126 = VERTEX_POINT ( 'NONE', #271 ) ;
#127 = STYLED_ITEM ( 'NONE', ( #239 ), #174 ) ;
#128 =( NAMED_UNIT ( * ) PLANE_ANGLE_UNIT ( ) SI_UNIT ( $, .RADIAN. ) );
#129 = ORIENTED_EDGE ( 'NONE', *, *, #145, .T. ) ;
#130 = AXIS2_PLACEMENT_3D ( 'NONE', #198, #3, #167 ) ;
#131 = DIRECTION ( 'NONE',  ( -7.227423732672903446E-17, 1.000000000000000000, -0.000000000000000000 ) ) ;
#132 = EDGE_CURVE ( 'NONE', #254, #8, #100, .T. ) ;
#133 =( NAMED_UNIT ( * ) SI_UNIT ( $, .STERADIAN. ) SOLID_ANGLE_UNIT ( ) );
#134 = CARTESIAN_POINT ( 'NONE',  ( 0.000000000000000000, 64.00000000000000000, 0.000000000000000000 ) ) ;
#135 = SURFACE_SIDE_STYLE ('',( #259 ) ) ;
#136 = ADVANCED_FACE ( 'NONE', ( #255 ), #34, .T. ) ;
#137 = DIRECTION ( 'NONE',  ( -0.000000000000000000, -1.000000000000000000, -0.000000000000000000 ) ) ;
#138 =( NAMED_UNIT ( * ) SI_UNIT ( $, .STERADIAN. ) SOLID_ANGLE_UNIT ( ) );
#139 = FILL_AREA_STYLE_COLOUR ( '', #222 ) ;
#140 = PRESENTATION_LAYER_ASSIGNMENT (  '', '', ( #63 ) ) ;
#141 = DIRECTION ( 'NONE',  ( -1.000000000000000000, 0.000000000000000000, 0.000000000000000000 ) ) ;
#142 = FILL_AREA_STYLE_COLOUR ( '', #105 ) ;
#143 = AXIS2_PLACEMENT_3D ( 'NONE', #96, #61, #141 ) ;
#144 = CLOSED_SHELL ( 'NONE', ( #278, #231, #136, #174 ) ) ;
#145 = EDGE_CURVE ( 'NONE', #8, #66, #60, .T. ) ;
#146 = EDGE_LOOP ( 'NONE', ( #122, #33 ) ) ;
#147 = ORIENTED_EDGE ( 'NONE', *, *, #30, .T. ) ;
#148 = MECHANICAL_DESIGN_GEOMETRIC_PRESENTATION_REPRESENTATION (  '', ( #79 ), #102 ) ;
#149 = VERTEX_POINT ( 'NONE', #187 ) ;
#150 = CARTESIAN_POINT ( 'NONE',  ( 7.703719777548943412E-31, 64.00000000000000000, 0.000000000000000000 ) ) ;
#151 = EDGE_CURVE ( 'NONE', #66, #149, #202, .T. ) ;
#152 = ORIENTED_EDGE ( 'NONE', *, *, #206, .T. ) ;
#153 = ORIENTED_EDGE ( 'NONE', *, *, #98, .F. ) ;
#154 = SURFACE_STYLE_USAGE ( .BOTH. , #179 ) ;
#155 = ORIENTED_EDGE ( 'NONE', *, *, #169, .T. ) ;
#156 = CIRCLE ( 'NONE', #130, 12.50000000000000000 ) ;
#157 = DIRECTION ( 'NONE',  ( -7.227423732672903446E-17, 1.000000000000000000, -0.000000000000000000 ) ) ;
#158 = CARTESIAN_POINT ( 'NONE',  ( -4.408728476930469278E-15, 124.9999999999999858, 0.000000000000000000 ) ) ;
#159 = CARTESIAN_POINT ( 'NONE',  ( 0.000000000000000000, 0.000000000000000000, 0.000000000000000000 ) ) ;
#160 = UNCERTAINTY_MEASURE_WITH_UNIT (LENGTH_MEASURE( 1.000000000000000082E-05 ), #53, 'distance_accuracy_value', 'NONE');
#161 = PRODUCT ( '59566', '59566', '', ( #235 ) ) ;
#162 = PRESENTATION_LAYER_ASSIGNMENT (  '', '', ( #209 ) ) ;
#163 = DIRECTION ( 'NONE',  ( -0.000000000000000000, -1.000000000000000000, -0.000000000000000000 ) ) ;
#164 = DIRECTION ( 'NONE',  ( -0.000000000000000000, -1.000000000000000000, -0.000000000000000000 ) ) ;
#165 = CARTESIAN_POINT ( 'NONE',  ( -12.50000000000000888, 124.9999999999999858, 0.000000000000000000 ) ) ;
#166 = DIRECTION ( 'NONE',  ( 0.000000000000000000, 0.000000000000000000, -1.000000000000000000 ) ) ;
#167 = DIRECTION ( 'NONE',  ( 0.000000000000000000, 0.000000000000000000, -1.000000000000000000 ) ) ;
#168 = PLANE ( 'NONE',  #62 ) ;
#169 = EDGE_CURVE ( 'NONE', #248, #200, #218, .T. ) ;
#170 =( GEOMETRIC_REPRESENTATION_CONTEXT ( 3 ) GLOBAL_UNCERTAINTY_ASSIGNED_CONTEXT ( ( #281 ) ) GLOBAL_UNIT_ASSIGNED_CONTEXT ( ( #224, #91, #113 ) ) REPRESENTATION_CONTEXT ( 'NONE', 'WORKASPACE' ) );
#171 = AXIS2_PLACEMENT_3D ( 'NONE', #177, #180, #276 ) ;
#172 =( LENGTH_UNIT ( ) NAMED_UNIT ( * ) SI_UNIT ( .MILLI., .METRE. ) );
#173 = ORIENTED_EDGE ( 'NONE', *, *, #190, .F. ) ;
#174 = ADVANCED_FACE ( 'NONE', ( #19 ), #197, .T. ) ;
#175 = CARTESIAN_POINT ( 'NONE',  ( -4.408728476930470067E-15, 125.0000000000000000, 0.000000000000000000 ) ) ;
#176 = AXIS2_PLACEMENT_3D ( 'NONE', #1, #18, #237 ) ;
#177 = CARTESIAN_POINT ( 'NONE',  ( 0.000000000000000000, 64.00000000000000000, 0.000000000000000000 ) ) ;
#178 = PRESENTATION_STYLE_ASSIGNMENT (( #154 ) ) ;
#179 = SURFACE_SIDE_STYLE ('',( #181 ) ) ;
#180 = DIRECTION ( 'NONE',  ( -0.000000000000000000, -1.000000000000000000, -0.000000000000000000 ) ) ;
#181 = SURFACE_STYLE_FILL_AREA ( #93 ) ;
#182 =( GEOMETRIC_REPRESENTATION_CONTEXT ( 3 ) GLOBAL_UNCERTAINTY_ASSIGNED_CONTEXT ( ( #208 ) ) GLOBAL_UNIT_ASSIGNED_CONTEXT ( ( #217, #236, #123 ) ) REPRESENTATION_CONTEXT ( 'NONE', 'WORKASPACE' ) );
#183 = VECTOR ( 'NONE', #164, 1000.000000000000000 ) ;
#184 = DIRECTION ( 'NONE',  ( -7.227423732672903446E-17, 1.000000000000000000, -0.000000000000000000 ) ) ;
#185 = DIRECTION ( 'NONE',  ( 0.000000000000000000, -0.000000000000000000, 1.000000000000000000 ) ) ;
#186 = ADVANCED_BREP_SHAPE_REPRESENTATION ( '59566', ( #42, #230, #265 ), #277 ) ;
#187 = CARTESIAN_POINT ( 'NONE',  ( 1.530808498934191521E-15, 0.000000000000000000, 12.50000000000000000 ) ) ;
#188 = FACE_OUTER_BOUND ( 'NONE', #41, .T. ) ;
#189 = FILL_AREA_STYLE_COLOUR ( '', #28 ) ;
#190 = EDGE_CURVE ( 'NONE', #149, #66, #201, .T. ) ;
#191 = DIRECTION ( 'NONE',  ( 1.000000000000000000, 0.000000000000000000, 0.000000000000000000 ) ) ;
#192 = AXIS2_PLACEMENT_3D ( 'NONE', #158, #258, #55 ) ;
#193 = VECTOR ( 'NONE', #25, 1000.000000000000000 ) ;
#194 = CARTESIAN_POINT ( 'NONE',  ( 0.000000000000000000, 0.000000000000000000, 0.000000000000000000 ) ) ;
#195 = PRESENTATION_STYLE_ASSIGNMENT (( #280 ) ) ;
#196 = APPLICATION_PROTOCOL_DEFINITION ( 'draft international standard', 'automotive_design', 1998, #104 ) ;
#197 = PLANE ( 'NONE',  #84 ) ;
#198 = CARTESIAN_POINT ( 'NONE',  ( 0.000000000000000000, 64.00000000000000000, 0.000000000000000000 ) ) ;
#199 = SURFACE_STYLE_FILL_AREA ( #64 ) ;
#200 = VERTEX_POINT ( 'NONE', #266 ) ;
#201 = CIRCLE ( 'NONE', #119, 12.50000000000000000 ) ;
#202 = CIRCLE ( 'NONE', #252, 12.50000000000000000 ) ;
#203 = CARTESIAN_POINT ( 'NONE',  ( 0.000000000000000000, 64.00000000000000000, -12.50000000000000000 ) ) ;
#204 = PRODUCT_DEFINITION_FORMATION_WITH_SPECIFIED_SOURCE ( 'ANY', '', #161, .NOT_KNOWN. ) ;
#205 = ORIENTED_EDGE ( 'NONE', *, *, #87, .F. ) ;
#206 = EDGE_CURVE ( 'NONE', #254, #149, #37, .T. ) ;
#207 = CYLINDRICAL_SURFACE ( 'NONE', #176, 12.50000000000000000 ) ;
#208 = UNCERTAINTY_MEASURE_WITH_UNIT (LENGTH_MEASURE( 1.000000000000000082E-05 ), #217, 'distance_accuracy_value', 'NONE');
#209 = STYLED_ITEM ( 'NONE', ( #32 ), #230 ) ;
#210 = CARTESIAN_POINT ( 'NONE',  ( 0.000000000000000000, 0.000000000000000000, -12.50000000000000000 ) ) ;
#211 = FILL_AREA_STYLE ('',( #250 ) ) ;
#212 = ADVANCED_FACE ( 'NONE', ( #216 ), #21, .F. ) ;
#213 = FILL_AREA_STYLE ('',( #189 ) ) ;
#214 = SHAPE_DEFINITION_REPRESENTATION ( #285, #186 ) ;
#215 = MECHANICAL_DESIGN_GEOMETRIC_PRESENTATION_REPRESENTATION (  '', ( #5 ), #261 ) ;
#216 = FACE_OUTER_BOUND ( 'NONE', #20, .T. ) ;
#217 =( LENGTH_UNIT ( ) NAMED_UNIT ( * ) SI_UNIT ( .MILLI., .METRE. ) );
#218 = CIRCLE ( 'NONE', #143, 12.50000000000000533 ) ;
#219 = AXIS2_PLACEMENT_3D ( 'NONE', #150, #157, #92 ) ;
#220 = PRESENTATION_STYLE_ASSIGNMENT (( #6 ) ) ;
#221 = DIRECTION ( 'NONE',  ( 1.000000000000000000, 7.227423732672903446E-17, 0.000000000000000000 ) ) ;
#222 = COLOUR_RGB ( '',1.000000000000000000, 0.000000000000000000, 0.000000000000000000 ) ;
#223 = PRESENTATION_LAYER_ASSIGNMENT (  '', '', ( #52 ) ) ;
#224 =( LENGTH_UNIT ( ) NAMED_UNIT ( * ) SI_UNIT ( .MILLI., .METRE. ) );
#225 = EDGE_CURVE ( 'NONE', #8, #254, #156, .T. ) ;
#226 = MECHANICAL_DESIGN_GEOMETRIC_PRESENTATION_REPRESENTATION (  '', ( #209 ), #170 ) ;
#227 = ORIENTED_EDGE ( 'NONE', *, *, #283, .F. ) ;
#228 = DIRECTION ( 'NONE',  ( -7.227423732672903446E-17, 1.000000000000000000, -0.000000000000000000 ) ) ;
#229 = CARTESIAN_POINT ( 'NONE',  ( -12.50000000000001066, 125.0000000000000000, 0.000000000000000000 ) ) ;
#230 = MANIFOLD_SOLID_BREP ( 'Revolve - Tool Body (Straight Shanked)', #94 ) ;
#231 = ADVANCED_FACE ( 'NONE', ( #71 ), #232, .T. ) ;
#232 = PLANE ( 'NONE',  #99 ) ;
#233 = UNCERTAINTY_MEASURE_WITH_UNIT (LENGTH_MEASURE( 1.000000000000000082E-05 ), #120, 'distance_accuracy_value', 'NONE');
#234 = DIRECTION ( 'NONE',  ( -7.227423732672903446E-17, 1.000000000000000000, -0.000000000000000000 ) ) ;
#235 = PRODUCT_CONTEXT ( 'NONE', #7, 'mechanical' ) ;
#236 =( NAMED_UNIT ( * ) PLANE_ANGLE_UNIT ( ) SI_UNIT ( $, .RADIAN. ) );
#237 = DIRECTION ( 'NONE',  ( 0.000000000000000000, 0.000000000000000000, -1.000000000000000000 ) ) ;
#238 = VECTOR ( 'NONE', #234, 1000.000000000000000 ) ;
#239 = PRESENTATION_STYLE_ASSIGNMENT (( #97 ) ) ;
#240 = DIRECTION ( 'NONE',  ( 0.000000000000000000, 0.000000000000000000, 1.000000000000000000 ) ) ;
#241 = DIRECTION ( 'NONE',  ( 0.000000000000000000, -1.000000000000000000, -0.000000000000000000 ) ) ;
#242 = SURFACE_SIDE_STYLE ('',( #199 ) ) ;
#243 =( NAMED_UNIT ( * ) SI_UNIT ( $, .STERADIAN. ) SOLID_ANGLE_UNIT ( ) );
#244 = EDGE_LOOP ( 'NONE', ( #245, #107 ) ) ;
#245 = ORIENTED_EDGE ( 'NONE', *, *, #151, .T. ) ;
#246 = ORIENTED_EDGE ( 'NONE', *, *, #67, .F. ) ;
#247 = MECHANICAL_DESIGN_GEOMETRIC_PRESENTATION_REPRESENTATION (  '', ( #127 ), #182 ) ;
#248 = VERTEX_POINT ( 'NONE', #229 ) ;
#249 = ORIENTED_EDGE ( 'NONE', *, *, #30, .F. ) ;
#250 = FILL_AREA_STYLE_COLOUR ( '', #73 ) ;
#251 = PRODUCT_RELATED_PRODUCT_CATEGORY ( 'part', '', ( #161 ) ) ;
#252 = AXIS2_PLACEMENT_3D ( 'NONE', #287, #80, #262 ) ;
#253 = SURFACE_STYLE_FILL_AREA ( #11 ) ;
#254 = VERTEX_POINT ( 'NONE', #95 ) ;
#255 = FACE_OUTER_BOUND ( 'NONE', #273, .T. ) ;
#256 =( NAMED_UNIT ( * ) PLANE_ANGLE_UNIT ( ) SI_UNIT ( $, .RADIAN. ) );
#257 = ADVANCED_FACE ( 'NONE', ( #116 ), #77, .T. ) ;
#258 = DIRECTION ( 'NONE',  ( -7.227423732672903446E-17, 1.000000000000000000, -0.000000000000000000 ) ) ;
#259 = SURFACE_STYLE_FILL_AREA ( #43 ) ;
#260 = SURFACE_STYLE_USAGE ( .BOTH. , #282 ) ;
#261 =( GEOMETRIC_REPRESENTATION_CONTEXT ( 3 ) GLOBAL_UNCERTAINTY_ASSIGNED_CONTEXT ( ( #54 ) ) GLOBAL_UNIT_ASSIGNED_CONTEXT ( ( #111, #128, #138 ) ) REPRESENTATION_CONTEXT ( 'NONE', 'WORKASPACE' ) );
#262 = DIRECTION ( 'NONE',  ( 0.000000000000000000, 0.000000000000000000, -1.000000000000000000 ) ) ;
#263 = SURFACE_STYLE_FILL_AREA ( #213 ) ;
#264 =( NAMED_UNIT ( * ) SI_UNIT ( $, .STERADIAN. ) SOLID_ANGLE_UNIT ( ) );
#265 = AXIS2_PLACEMENT_3D ( 'NONE', #194, #240, #191 ) ;
#266 = CARTESIAN_POINT ( 'NONE',  ( 12.50000000000000000, 125.0000000000000000, 1.530808498934191916E-15 ) ) ;
#267 = CYLINDRICAL_SURFACE ( 'NONE', #103, 12.50000000000000355 ) ;
#268 = COLOUR_RGB ( '',0.7921568627450980005, 0.8196078431372548767, 0.9333333333333333481 ) ;
#269 = CARTESIAN_POINT ( 'NONE',  ( 12.49999999999999822, 124.9999999999999858, 1.530808498934191916E-15 ) ) ;
#270 = CIRCLE ( 'NONE', #219, 12.50000000000000000 ) ;
#271 = CARTESIAN_POINT ( 'NONE',  ( -12.50000000000000000, 64.00000000000000000, 0.000000000000000000 ) ) ;
#272 = AXIS2_PLACEMENT_3D ( 'NONE', #15, #131, #110 ) ;
#273 = EDGE_LOOP ( 'NONE', ( #65, #26, #129, #173 ) ) ;
#274 = CARTESIAN_POINT ( 'NONE',  ( -4.408728476930469278E-15, 124.9999999999999858, 0.000000000000000000 ) ) ;
#275 = VERTEX_POINT ( 'NONE', #57 ) ;
#276 = DIRECTION ( 'NONE',  ( 0.000000000000000000, 0.000000000000000000, -1.000000000000000000 ) ) ;
#277 =( GEOMETRIC_REPRESENTATION_CONTEXT ( 3 ) GLOBAL_UNCERTAINTY_ASSIGNED_CONTEXT ( ( #233 ) ) GLOBAL_UNIT_ASSIGNED_CONTEXT ( ( #120, #38, #264 ) ) REPRESENTATION_CONTEXT ( 'NONE', 'WORKASPACE' ) );
#278 = ADVANCED_FACE ( 'NONE', ( #188 ), #207, .T. ) ;
#279 = SURFACE_SIDE_STYLE ('',( #253 ) ) ;
#280 = SURFACE_STYLE_USAGE ( .BOTH. , #288 ) ;
#281 = UNCERTAINTY_MEASURE_WITH_UNIT (LENGTH_MEASURE( 1.000000000000000082E-05 ), #224, 'distance_accuracy_value', 'NONE');
#282 = SURFACE_SIDE_STYLE ('',( #16 ) ) ;
#283 = EDGE_CURVE ( 'NONE', #126, #248, #82, .T. ) ;
#284 = APPLICATION_PROTOCOL_DEFINITION ( 'draft international standard', 'automotive_design', 1998, #7 ) ;
#285 = PRODUCT_DEFINITION_SHAPE ( 'NONE', 'NONE',  #49 ) ;
#286 = PRESENTATION_LAYER_ASSIGNMENT (  '', '', ( #79 ) ) ;
#287 = CARTESIAN_POINT ( 'NONE',  ( 0.000000000000000000, 0.000000000000000000, 0.000000000000000000 ) ) ;
#288 = SURFACE_SIDE_STYLE ('',( #263 ) ) ;
ENDSEC;
END-ISO-10303-21;
