ISO-10303-21;
HEADER;
FILE_DESCRIPTION (( 'STEP AP214' ),
    '1' );
FILE_NAME ('Micro_KC-500-1500-093.STEP',
    '2021-09-03T19:44:35',
    ( '' ),
    ( '' ),
    'SwSTEP 2.0',
    'SolidWorks 2020',
    '' );
FILE_SCHEMA (( 'AUTOMOTIVE_DESIGN' ));
ENDSEC;

DATA;
#1 = EDGE_CURVE ( 'NONE', #214, #159, #29, .T. ) ;
#2 = DIRECTION ( 'NONE',  ( -0.0000000000000000000, -0.0000000000000000000, -1.000000000000000000 ) ) ;
#3 = ORIENTED_EDGE ( 'NONE', *, *, #351, .T. ) ;
#4 = CARTESIAN_POINT ( 'NONE',  ( 0.2500000000000000000, 3.061616997868382402E-17, 1.624999999999999556 ) ) ;
#5 = CIRCLE ( 'NONE', #332, 0.2500000000000000000 ) ;
#6 = CARTESIAN_POINT ( 'NONE',  ( 0.0000000000000000000, 0.0000000000000000000, 3.000000000000000444 ) ) ;
#7 = CARTESIAN_POINT ( 'NONE',  ( 0.0000000000000000000, 0.0000000000000000000, 3.000000000000000444 ) ) ;
#8 = CARTESIAN_POINT ( 'NONE',  ( -0.2350000000000011524, 0.0000000000000000000, 3.000000000000000444 ) ) ;
#9 = LINE ( 'NONE', #8, #317 ) ;
#10 = CIRCLE ( 'NONE', #379, 0.1250000000000001943 ) ;
#11 = CARTESIAN_POINT ( 'NONE',  ( 0.0000000000000000000, 0.0000000000000000000, 3.000000000000000444 ) ) ;
#12 = ORIENTED_EDGE ( 'NONE', *, *, #199, .T. ) ;
#13 = ORIENTED_EDGE ( 'NONE', *, *, #248, .T. ) ;
#14 = UNCERTAINTY_MEASURE_WITH_UNIT (LENGTH_MEASURE( 1.000000000000000082E-05 ), #125, 'distance_accuracy_value', 'NONE');
#15 = DIRECTION ( 'NONE',  ( -1.000000000000000000, 0.0000000000000000000, 0.0000000000000000000 ) ) ;
#16 = ORIENTED_EDGE ( 'NONE', *, *, #188, .F. ) ;
#17 = ORIENTED_EDGE ( 'NONE', *, *, #351, .F. ) ;
#18 = LENGTH_MEASURE_WITH_UNIT ( LENGTH_MEASURE( 0.02539999999999999897 ), #75 );
#19 = PRODUCT_CONTEXT ( 'NONE', #97, 'mechanical' ) ;
#20 = DIRECTION ( 'NONE',  ( 1.000000000000000000, 0.0000000000000000000, 0.0000000000000000000 ) ) ;
#21 = EDGE_LOOP ( 'NONE', ( #168, #13 ) ) ;
#22 = EDGE_CURVE ( 'NONE', #340, #331, #376, .T. ) ;
#23 = FACE_OUTER_BOUND ( 'NONE', #182, .T. ) ;
#24 = STYLED_ITEM ( 'NONE', ( #272 ), #362 ) ;
#25 = ORIENTED_EDGE ( 'NONE', *, *, #171, .F. ) ;
#26 = DIRECTION ( 'NONE',  ( -1.000000000000000000, 0.0000000000000000000, 0.0000000000000000000 ) ) ;
#27 = CYLINDRICAL_SURFACE ( 'NONE', #211, 0.1250000000000001110 ) ;
#28 = CARTESIAN_POINT ( 'NONE',  ( 0.0000000000000000000, 0.0000000000000000000, 1.500000000000000222 ) ) ;
#29 = LINE ( 'NONE', #310, #302 ) ;
#30 = ADVANCED_FACE ( 'NONE', ( #220 ), #27, .T. ) ;
#31 = CIRCLE ( 'NONE', #65, 0.2350000000000011524 ) ;
#32 = ADVANCED_FACE ( 'NONE', ( #42 ), #257, .T. ) ;
#33 = DIRECTION ( 'NONE',  ( 0.0000000000000000000, 0.0000000000000000000, 1.000000000000000000 ) ) ;
#34 = DIRECTION ( 'NONE',  ( -0.7071067811865402453, 0.0000000000000000000, -0.7071067811865546782 ) ) ;
#35 = AXIS2_PLACEMENT_3D ( 'NONE', #322, #197, #330 ) ;
#36 = PRESENTATION_LAYER_ASSIGNMENT (  '', '', ( #24 ) ) ;
#37 = DIRECTION ( 'NONE',  ( 0.0000000000000000000, 0.0000000000000000000, 1.000000000000000000 ) ) ;
#38 = ORIENTED_EDGE ( 'NONE', *, *, #119, .T. ) ;
#39 = ORIENTED_EDGE ( 'NONE', *, *, #208, .T. ) ;
#40 = ORIENTED_EDGE ( 'NONE', *, *, #248, .F. ) ;
#41 = ORIENTED_EDGE ( 'NONE', *, *, #213, .T. ) ;
#42 = FACE_OUTER_BOUND ( 'NONE', #116, .T. ) ;
#43 = EDGE_CURVE ( 'NONE', #158, #258, #31, .T. ) ;
#44 = EDGE_LOOP ( 'NONE', ( #124, #298, #78, #345 ) ) ;
#45 = CIRCLE ( 'NONE', #35, 0.2500000000000000000 ) ;
#46 = DIRECTION ( 'NONE',  ( -1.000000000000000000, 0.0000000000000000000, 0.0000000000000000000 ) ) ;
#47 = FILL_AREA_STYLE_COLOUR ( '', #304 ) ;
#48 = PRODUCT_RELATED_PRODUCT_CATEGORY ( 'part', '', ( #190 ) ) ;
#49 = DIRECTION ( 'NONE',  ( 1.000000000000000000, 0.0000000000000000000, -0.0000000000000000000 ) ) ;
#50 = EDGE_LOOP ( 'NONE', ( #83, #134, #38, #17 ) ) ;
#51 = DIRECTION ( 'NONE',  ( 1.000000000000000000, 0.0000000000000000000, 0.0000000000000000000 ) ) ;
#52 = VECTOR ( 'NONE', #216, 39.37007874015748854 ) ;
#53 = CARTESIAN_POINT ( 'NONE',  ( 0.0000000000000000000, 0.0000000000000000000, 2.985000000000001208 ) ) ;
#54 = DIRECTION ( 'NONE',  ( 0.0000000000000000000, 0.0000000000000000000, 1.000000000000000000 ) ) ;
#55 = ORIENTED_EDGE ( 'NONE', *, *, #43, .T. ) ;
#56 = EDGE_CURVE ( 'NONE', #265, #340, #10, .T. ) ;
#57 = ORIENTED_EDGE ( 'NONE', *, *, #171, .T. ) ;
#58 = LINE ( 'NONE', #114, #100 ) ;
#59 = CIRCLE ( 'NONE', #259, 0.1250000000000001943 ) ;
#60 = AXIS2_PLACEMENT_3D ( 'NONE', #85, #161, #286 ) ;
#61 = ADVANCED_FACE ( 'NONE', ( #348 ), #239, .T. ) ;
#62 = DIRECTION ( 'NONE',  ( 0.0000000000000000000, 0.0000000000000000000, 1.000000000000000000 ) ) ;
#63 = CARTESIAN_POINT ( 'NONE',  ( 0.2500000000000000000, 3.061616997868382402E-17, 0.09299999999999999933 ) ) ;
#64 = DIRECTION ( 'NONE',  ( -0.0000000000000000000, -0.0000000000000000000, -1.000000000000000000 ) ) ;
#65 = AXIS2_PLACEMENT_3D ( 'NONE', #165, #328, #191 ) ;
#66 = PRESENTATION_LAYER_ASSIGNMENT (  '', '', ( #95 ) ) ;
#67 = CARTESIAN_POINT ( 'NONE',  ( 0.1250000000000001110, 1.530808498934192742E-17, 0.0000000000000000000 ) ) ;
#68 = DIRECTION ( 'NONE',  ( -0.0000000000000000000, -0.0000000000000000000, -1.000000000000000000 ) ) ;
#69 = DIRECTION ( 'NONE',  ( 1.000000000000000000, 0.0000000000000000000, -0.0000000000000000000 ) ) ;
#70 = CARTESIAN_POINT ( 'NONE',  ( 0.2500000000000000000, 3.061616997868382402E-17, 2.985000000000001208 ) ) ;
#71 = CIRCLE ( 'NONE', #141, 0.1250000000000000000 ) ;
#72 = EDGE_LOOP ( 'NONE', ( #198, #232 ) ) ;
#73 = CYLINDRICAL_SURFACE ( 'NONE', #145, 0.1250000000000001110 ) ;
#74 = DIRECTION ( 'NONE',  ( 0.0000000000000000000, 0.0000000000000000000, 1.000000000000000000 ) ) ;
#75 =( LENGTH_UNIT ( ) NAMED_UNIT ( * ) SI_UNIT ( $, .METRE. ) );
#76 = PLANE ( 'NONE',  #155 ) ;
#77 = CARTESIAN_POINT ( 'NONE',  ( 0.0000000000000000000, 0.0000000000000000000, 3.000000000000000444 ) ) ;
#78 = ORIENTED_EDGE ( 'NONE', *, *, #143, .F. ) ;
#79 = CARTESIAN_POINT ( 'NONE',  ( 0.2500000000000000000, 3.061616997868382402E-17, 3.000000000000000444 ) ) ;
#80 = ORIENTED_EDGE ( 'NONE', *, *, #131, .F. ) ;
#81 = VERTEX_POINT ( 'NONE', #228 ) ;
#82 = EDGE_CURVE ( 'NONE', #374, #331, #327, .T. ) ;
#83 = ORIENTED_EDGE ( 'NONE', *, *, #93, .F. ) ;
#84 = DIRECTION ( 'NONE',  ( 1.000000000000000000, 0.0000000000000000000, -0.0000000000000000000 ) ) ;
#85 = CARTESIAN_POINT ( 'NONE',  ( 0.0000000000000000000, 0.0000000000000000000, 3.000000000000000444 ) ) ;
#86 = AXIS2_PLACEMENT_3D ( 'NONE', #273, #245, #15 ) ;
#87 = CONICAL_SURFACE ( 'NONE', #60, 0.2350000000000011524, 0.7853981633974380649 ) ;
#88 = APPLICATION_CONTEXT ( 'automotive_design' ) ;
#89 = DIRECTION ( 'NONE',  ( -1.000000000000000000, 0.0000000000000000000, 0.0000000000000000000 ) ) ;
#90 = PLANE ( 'NONE',  #167 ) ;
#91 = DIRECTION ( 'NONE',  ( -0.0000000000000000000, -0.0000000000000000000, -1.000000000000000000 ) ) ;
#92 = DIRECTION ( 'NONE',  ( -0.0000000000000000000, -0.0000000000000000000, -1.000000000000000000 ) ) ;
#93 = EDGE_CURVE ( 'NONE', #258, #177, #135, .T. ) ;
#94 = VECTOR ( 'NONE', #316, 39.37007874015748854 ) ;
#95 = STYLED_ITEM ( 'NONE', ( #149 ), #235 ) ;
#96 = ORIENTED_EDGE ( 'NONE', *, *, #82, .T. ) ;
#97 = APPLICATION_CONTEXT ( 'automotive_design' ) ;
#98 = SURFACE_STYLE_USAGE ( .BOTH. , #175 ) ;
#99 = ORIENTED_EDGE ( 'NONE', *, *, #183, .T. ) ;
#100 = VECTOR ( 'NONE', #92, 39.37007874015748143 ) ;
#101 =( GEOMETRIC_REPRESENTATION_CONTEXT ( 3 ) GLOBAL_UNCERTAINTY_ASSIGNED_CONTEXT ( ( #14 ) ) GLOBAL_UNIT_ASSIGNED_CONTEXT ( ( #125, #137, #187 ) ) REPRESENTATION_CONTEXT ( 'NONE', 'WORKASPACE' ) );
#102 = LENGTH_MEASURE_WITH_UNIT ( LENGTH_MEASURE( 0.02539999999999999897 ), #372 );
#103 =( CONVERSION_BASED_UNIT ( 'INCH', #240 ) LENGTH_UNIT ( ) NAMED_UNIT ( #186 ) );
#104 = ORIENTED_EDGE ( 'NONE', *, *, #113, .T. ) ;
#105 = AXIS2_PLACEMENT_3D ( 'NONE', #326, #68, #117 ) ;
#106 = CARTESIAN_POINT ( 'NONE',  ( 0.0000000000000000000, 0.0000000000000000000, 0.09300000000000002709 ) ) ;
#107 = DIRECTION ( 'NONE',  ( -1.000000000000000000, 0.0000000000000000000, 0.0000000000000000000 ) ) ;
#108 = FACE_BOUND ( 'NONE', #21, .T. ) ;
#109 = CYLINDRICAL_SURFACE ( 'NONE', #356, 0.2500000000000000000 ) ;
#110 = COLOUR_RGB ( '',0.7921568627450980005, 0.8196078431372548767, 0.9333333333333333481 ) ;
#111 = FACE_OUTER_BOUND ( 'NONE', #280, .T. ) ;
#112 = DIMENSIONAL_EXPONENTS ( 1.000000000000000000, 0.0000000000000000000, 0.0000000000000000000, 0.0000000000000000000, 0.0000000000000000000, 0.0000000000000000000, 0.0000000000000000000 ) ;
#113 = EDGE_CURVE ( 'NONE', #340, #238, #58, .T. ) ;
#114 = CARTESIAN_POINT ( 'NONE',  ( -0.1250000000000001110, 0.0000000000000000000, 0.0000000000000000000 ) ) ;
#115 = VECTOR ( 'NONE', #181, 39.37007874015748143 ) ;
#116 = EDGE_LOOP ( 'NONE', ( #55, #132 ) ) ;
#117 = DIRECTION ( 'NONE',  ( 1.000000000000000000, 0.0000000000000000000, 0.0000000000000000000 ) ) ;
#118 = PRODUCT_DEFINITION ( 'UNKNOWN', '', #284, #369 ) ;
#119 = EDGE_CURVE ( 'NONE', #158, #374, #9, .T. ) ;
#120 = EDGE_LOOP ( 'NONE', ( #295, #3, #96, #371 ) ) ;
#121 = APPLICATION_PROTOCOL_DEFINITION ( 'draft international standard', 'automotive_design', 1998, #88 ) ;
#122 = VECTOR ( 'NONE', #333, 39.37007874015748143 ) ;
#123 = SURFACE_STYLE_USAGE ( .BOTH. , #268 ) ;
#124 = ORIENTED_EDGE ( 'NONE', *, *, #253, .T. ) ;
#125 =( CONVERSION_BASED_UNIT ( 'INCH', #18 ) LENGTH_UNIT ( ) NAMED_UNIT ( #112 ) );
#126 = EDGE_LOOP ( 'NONE', ( #80, #25 ) ) ;
#127 = EDGE_LOOP ( 'NONE', ( #261, #343, #233, #247 ) ) ;
#128 = CIRCLE ( 'NONE', #350, 0.2500000000000000000 ) ;
#129 = CONICAL_SURFACE ( 'NONE', #229, 0.2350000000000011524, 0.7853981633974380649 ) ;
#130 = CARTESIAN_POINT ( 'NONE',  ( 0.0000000000000000000, 0.0000000000000000000, 0.0000000000000000000 ) ) ;
#131 = EDGE_CURVE ( 'NONE', #214, #335, #128, .T. ) ;
#132 = ORIENTED_EDGE ( 'NONE', *, *, #195, .T. ) ;
#133 = DIRECTION ( 'NONE',  ( 1.000000000000000000, 0.0000000000000000000, 0.0000000000000000000 ) ) ;
#134 = ORIENTED_EDGE ( 'NONE', *, *, #43, .F. ) ;
#135 = LINE ( 'NONE', #185, #94 ) ;
#136 = VECTOR ( 'NONE', #164, 39.37007874015748143 ) ;
#137 =( NAMED_UNIT ( * ) PLANE_ANGLE_UNIT ( ) SI_UNIT ( $, .RADIAN. ) );
#138 = CIRCLE ( 'NONE', #162, 0.2500000000000000000 ) ;
#139 = ADVANCED_FACE ( 'NONE', ( #323 ), #189, .T. ) ;
#140 = CARTESIAN_POINT ( 'NONE',  ( -0.2500000000000000000, 0.0000000000000000000, 1.624999999999999556 ) ) ;
#141 = AXIS2_PLACEMENT_3D ( 'NONE', #180, #209, #364 ) ;
#142 = PRODUCT_DEFINITION_SHAPE ( 'NONE', 'NONE',  #118 ) ;
#143 = EDGE_CURVE ( 'NONE', #331, #292, #178, .T. ) ;
#144 = AXIS2_PLACEMENT_3D ( 'NONE', #6, #230, #349 ) ;
#145 = AXIS2_PLACEMENT_3D ( 'NONE', #130, #365, #46 ) ;
#146 = SURFACE_STYLE_FILL_AREA ( #342 ) ;
#147 = APPLICATION_PROTOCOL_DEFINITION ( 'draft international standard', 'automotive_design', 1998, #97 ) ;
#148 = CONICAL_SURFACE ( 'NONE', #355, 0.1250000000000001943, 0.7853981633974500554 ) ;
#149 = PRESENTATION_STYLE_ASSIGNMENT (( #123 ) ) ;
#150 = CARTESIAN_POINT ( 'NONE',  ( 0.2500000000000000000, 3.061616997868382402E-17, 3.000000000000000444 ) ) ;
#151 = DIRECTION ( 'NONE',  ( -0.0000000000000000000, -0.0000000000000000000, -1.000000000000000000 ) ) ;
#152 = ADVANCED_FACE ( 'NONE', ( #291 ), #148, .T. ) ;
#153 = AXIS2_PLACEMENT_3D ( 'NONE', #7, #354, #69 ) ;
#154 = AXIS2_PLACEMENT_3D ( 'NONE', #28, #62, #320 ) ;
#155 = AXIS2_PLACEMENT_3D ( 'NONE', #202, #74, #49 ) ;
#156 = DIRECTION ( 'NONE',  ( 0.0000000000000000000, 0.0000000000000000000, -1.000000000000000000 ) ) ;
#157 = DIRECTION ( 'NONE',  ( 0.0000000000000000000, 0.0000000000000000000, -1.000000000000000000 ) ) ;
#158 = VERTEX_POINT ( 'NONE', #358 ) ;
#159 = VERTEX_POINT ( 'NONE', #293 ) ;
#160 = CIRCLE ( 'NONE', #144, 0.2350000000000011524 ) ;
#161 = DIRECTION ( 'NONE',  ( 0.0000000000000000000, 0.0000000000000000000, -1.000000000000000000 ) ) ;
#162 = AXIS2_PLACEMENT_3D ( 'NONE', #308, #151, #51 ) ;
#163 = DIRECTION ( 'NONE',  ( -1.000000000000000000, 0.0000000000000000000, 0.0000000000000000000 ) ) ;
#164 = DIRECTION ( 'NONE',  ( -0.0000000000000000000, -0.0000000000000000000, -1.000000000000000000 ) ) ;
#165 = CARTESIAN_POINT ( 'NONE',  ( 0.0000000000000000000, 0.0000000000000000000, 3.000000000000000444 ) ) ;
#166 = DIRECTION ( 'NONE',  ( 1.000000000000000000, 0.0000000000000000000, 0.0000000000000000000 ) ) ;
#167 = AXIS2_PLACEMENT_3D ( 'NONE', #287, #184, #84 ) ;
#168 = ORIENTED_EDGE ( 'NONE', *, *, #341, .T. ) ;
#169 = LINE ( 'NONE', #300, #368 ) ;
#170 =( CONVERSION_BASED_UNIT ( 'INCH', #102 ) LENGTH_UNIT ( ) NAMED_UNIT ( #192 ) );
#171 = EDGE_CURVE ( 'NONE', #335, #214, #45, .T. ) ;
#172 = EDGE_LOOP ( 'NONE', ( #200, #41, #99, #271 ) ) ;
#173 = VECTOR ( 'NONE', #334, 39.37007874015748143 ) ;
#174 = ORIENTED_EDGE ( 'NONE', *, *, #188, .T. ) ;
#175 = SURFACE_SIDE_STYLE ('',( #366 ) ) ;
#176 = LINE ( 'NONE', #150, #173 ) ;
#177 = VERTEX_POINT ( 'NONE', #70 ) ;
#178 = CIRCLE ( 'NONE', #105, 0.2500000000000000000 ) ;
#179 = ORIENTED_EDGE ( 'NONE', *, *, #56, .F. ) ;
#180 = CARTESIAN_POINT ( 'NONE',  ( 0.0000000000000000000, 0.0000000000000000000, 0.09300000000000002709 ) ) ;
#181 = DIRECTION ( 'NONE',  ( -0.0000000000000000000, -0.0000000000000000000, -1.000000000000000000 ) ) ;
#182 = EDGE_LOOP ( 'NONE', ( #12, #174, #201, #309 ) ) ;
#183 = EDGE_CURVE ( 'NONE', #81, #159, #251, .T. ) ;
#184 = DIRECTION ( 'NONE',  ( 0.0000000000000000000, 0.0000000000000000000, 1.000000000000000000 ) ) ;
#185 = CARTESIAN_POINT ( 'NONE',  ( 0.2350000000000011524, 2.877919977996294002E-17, 3.000000000000000444 ) ) ;
#186 = DIMENSIONAL_EXPONENTS ( 1.000000000000000000, 0.0000000000000000000, 0.0000000000000000000, 0.0000000000000000000, 0.0000000000000000000, 0.0000000000000000000, 0.0000000000000000000 ) ;
#187 =( NAMED_UNIT ( * ) SI_UNIT ( $, .STERADIAN. ) SOLID_ANGLE_UNIT ( ) );
#188 = EDGE_CURVE ( 'NONE', #265, #313, #325, .T. ) ;
#189 = CYLINDRICAL_SURFACE ( 'NONE', #193, 0.2500000000000000000 ) ;
#190 = PRODUCT ( 'Micro_KC-500-1500-093', 'Micro_KC-500-1500-093', '', ( #19 ) ) ;
#191 = DIRECTION ( 'NONE',  ( 1.000000000000000000, 0.0000000000000000000, 0.0000000000000000000 ) ) ;
#192 = DIMENSIONAL_EXPONENTS ( 1.000000000000000000, 0.0000000000000000000, 0.0000000000000000000, 0.0000000000000000000, 0.0000000000000000000, 0.0000000000000000000, 0.0000000000000000000 ) ;
#193 = AXIS2_PLACEMENT_3D ( 'NONE', #11, #64, #194 ) ;
#194 = DIRECTION ( 'NONE',  ( -1.000000000000000000, 0.0000000000000000000, 0.0000000000000000000 ) ) ;
#195 = EDGE_CURVE ( 'NONE', #258, #158, #160, .T. ) ;
#196 = CARTESIAN_POINT ( 'NONE',  ( 0.0000000000000000000, 0.0000000000000000000, 1.500000000000000222 ) ) ;
#197 = DIRECTION ( 'NONE',  ( -0.0000000000000000000, -0.0000000000000000000, -1.000000000000000000 ) ) ;
#198 = ORIENTED_EDGE ( 'NONE', *, *, #262, .F. ) ;
#199 = EDGE_CURVE ( 'NONE', #340, #265, #59, .T. ) ;
#200 = ORIENTED_EDGE ( 'NONE', *, *, #131, .T. ) ;
#201 = ORIENTED_EDGE ( 'NONE', *, *, #341, .F. ) ;
#202 = CARTESIAN_POINT ( 'NONE',  ( 0.0000000000000000000, 0.0000000000000000000, 0.0000000000000000000 ) ) ;
#203 = CARTESIAN_POINT ( 'NONE',  ( 0.0000000000000000000, 0.0000000000000000000, 3.000000000000000444 ) ) ;
#204 = ADVANCED_FACE ( 'NONE', ( #274 ), #289, .T. ) ;
#205 = UNCERTAINTY_MEASURE_WITH_UNIT (LENGTH_MEASURE( 1.000000000000000082E-05 ), #170, 'distance_accuracy_value', 'NONE');
#206 = LINE ( 'NONE', #79, #122 ) ;
#207 = ORIENTED_EDGE ( 'NONE', *, *, #223, .T. ) ;
#208 = EDGE_CURVE ( 'NONE', #265, #292, #169, .T. ) ;
#209 = DIRECTION ( 'NONE',  ( -0.0000000000000000000, -0.0000000000000000000, -1.000000000000000000 ) ) ;
#210 = ORIENTED_EDGE ( 'NONE', *, *, #195, .F. ) ;
#211 = AXIS2_PLACEMENT_3D ( 'NONE', #252, #2, #89 ) ;
#212 = CONICAL_SURFACE ( 'NONE', #154, 0.1250000000000001943, 0.7853981633974500554 ) ;
#213 = EDGE_CURVE ( 'NONE', #335, #81, #206, .T. ) ;
#214 = VERTEX_POINT ( 'NONE', #303 ) ;
#215 = CARTESIAN_POINT ( 'NONE',  ( 0.0000000000000000000, 0.0000000000000000000, 2.985000000000001208 ) ) ;
#216 = DIRECTION ( 'NONE',  ( -0.7071067811865486830, 8.659560562354947649E-17, 0.7071067811865462405 ) ) ;
#217 = DIRECTION ( 'NONE',  ( -0.0000000000000000000, -0.0000000000000000000, -1.000000000000000000 ) ) ;
#218 = EDGE_CURVE ( 'NONE', #177, #292, #176, .T. ) ;
#219 = DIRECTION ( 'NONE',  ( 0.0000000000000000000, 0.0000000000000000000, -1.000000000000000000 ) ) ;
#220 = FACE_OUTER_BOUND ( 'NONE', #301, .T. ) ;
#221 = CARTESIAN_POINT ( 'NONE',  ( 0.2350000000000011524, 2.969768487932338510E-17, 3.000000000000000444 ) ) ;
#222 = DIRECTION ( 'NONE',  ( -0.0000000000000000000, -0.0000000000000000000, -1.000000000000000000 ) ) ;
#223 = EDGE_CURVE ( 'NONE', #292, #331, #138, .T. ) ;
#224 = CLOSED_SHELL ( 'NONE', ( #61, #226, #152, #297, #139, #204, #32, #373, #290, #30, #263, #378, #279 ) ) ;
#225 = MECHANICAL_DESIGN_GEOMETRIC_PRESENTATION_REPRESENTATION (  '', ( #24 ), #255 ) ;
#226 = ADVANCED_FACE ( 'NONE', ( #23 ), #73, .T. ) ;
#227 = ORIENTED_EDGE ( 'NONE', *, *, #56, .T. ) ;
#228 = CARTESIAN_POINT ( 'NONE',  ( 0.2500000000000000000, 3.061616997868382402E-17, 0.0000000000000000000 ) ) ;
#229 = AXIS2_PLACEMENT_3D ( 'NONE', #77, #157, #306 ) ;
#230 = DIRECTION ( 'NONE',  ( 0.0000000000000000000, 0.0000000000000000000, 1.000000000000000000 ) ) ;
#231 = CARTESIAN_POINT ( 'NONE',  ( 0.0000000000000000000, 0.0000000000000000000, 0.09299999999999999933 ) ) ;
#232 = ORIENTED_EDGE ( 'NONE', *, *, #183, .F. ) ;
#233 = ORIENTED_EDGE ( 'NONE', *, *, #143, .T. ) ;
#234 =( GEOMETRIC_REPRESENTATION_CONTEXT ( 3 ) GLOBAL_UNCERTAINTY_ASSIGNED_CONTEXT ( ( #321 ) ) GLOBAL_UNIT_ASSIGNED_CONTEXT ( ( #103, #338, #339 ) ) REPRESENTATION_CONTEXT ( 'NONE', 'WORKASPACE' ) );
#235 = MANIFOLD_SOLID_BREP ( 'Cut-Revolve1', #224 ) ;
#236 = ORIENTED_EDGE ( 'NONE', *, *, #119, .F. ) ;
#237 =( LENGTH_UNIT ( ) NAMED_UNIT ( * ) SI_UNIT ( $, .METRE. ) );
#238 = VERTEX_POINT ( 'NONE', #249 ) ;
#239 = CYLINDRICAL_SURFACE ( 'NONE', #267, 0.2500000000000000000 ) ;
#240 = LENGTH_MEASURE_WITH_UNIT ( LENGTH_MEASURE( 0.02539999999999999897 ), #237 );
#241 = CIRCLE ( 'NONE', #276, 0.2500000000000000000 ) ;
#242 = FILL_AREA_STYLE_COLOUR ( '', #110 ) ;
#243 = ORIENTED_EDGE ( 'NONE', *, *, #93, .T. ) ;
#244 =( NAMED_UNIT ( * ) PLANE_ANGLE_UNIT ( ) SI_UNIT ( $, .RADIAN. ) );
#245 = DIRECTION ( 'NONE',  ( -0.0000000000000000000, -0.0000000000000000000, -1.000000000000000000 ) ) ;
#246 = CARTESIAN_POINT ( 'NONE',  ( -0.2500000000000000000, 0.0000000000000000000, 3.000000000000000444 ) ) ;
#247 = ORIENTED_EDGE ( 'NONE', *, *, #208, .F. ) ;
#248 = EDGE_CURVE ( 'NONE', #313, #238, #318, .T. ) ;
#249 = CARTESIAN_POINT ( 'NONE',  ( -0.1250000000000000000, 0.0000000000000000000, 0.09300000000000002709 ) ) ;
#250 = CARTESIAN_POINT ( 'NONE',  ( -0.1250000000000001943, 1.530808498934193974E-17, 1.500000000000000222 ) ) ;
#251 = CIRCLE ( 'NONE', #337, 0.2500000000000000000 ) ;
#252 = CARTESIAN_POINT ( 'NONE',  ( 0.0000000000000000000, 0.0000000000000000000, 0.0000000000000000000 ) ) ;
#253 = EDGE_CURVE ( 'NONE', #374, #177, #324, .T. ) ;
#254 = CARTESIAN_POINT ( 'NONE',  ( 0.1250000000000001943, 0.0000000000000000000, 1.500000000000000222 ) ) ;
#255 =( GEOMETRIC_REPRESENTATION_CONTEXT ( 3 ) GLOBAL_UNCERTAINTY_ASSIGNED_CONTEXT ( ( #205 ) ) GLOBAL_UNIT_ASSIGNED_CONTEXT ( ( #170, #244, #375 ) ) REPRESENTATION_CONTEXT ( 'NONE', 'WORKASPACE' ) );
#256 = CARTESIAN_POINT ( 'NONE',  ( 0.1250000000000000000, 1.530808498934192125E-17, 0.09300000000000002709 ) ) ;
#257 = PLANE ( 'NONE',  #153 ) ;
#258 = VERTEX_POINT ( 'NONE', #221 ) ;
#259 = AXIS2_PLACEMENT_3D ( 'NONE', #353, #359, #357 ) ;
#260 = EDGE_LOOP ( 'NONE', ( #270, #179, #39, #207 ) ) ;
#261 = ORIENTED_EDGE ( 'NONE', *, *, #199, .F. ) ;
#262 = EDGE_CURVE ( 'NONE', #159, #81, #5, .T. ) ;
#263 = ADVANCED_FACE ( 'NONE', ( #108, #282 ), #90, .T. ) ;
#264 = ORIENTED_EDGE ( 'NONE', *, *, #262, .T. ) ;
#265 = VERTEX_POINT ( 'NONE', #254 ) ;
#266 = ORIENTED_EDGE ( 'NONE', *, *, #213, .F. ) ;
#267 = AXIS2_PLACEMENT_3D ( 'NONE', #203, #307, #163 ) ;
#268 = SURFACE_SIDE_STYLE ('',( #146 ) ) ;
#269 = FACE_OUTER_BOUND ( 'NONE', #72, .T. ) ;
#270 = ORIENTED_EDGE ( 'NONE', *, *, #22, .F. ) ;
#271 = ORIENTED_EDGE ( 'NONE', *, *, #1, .F. ) ;
#272 = PRESENTATION_STYLE_ASSIGNMENT (( #98 ) ) ;
#273 = CARTESIAN_POINT ( 'NONE',  ( 0.0000000000000000000, 0.0000000000000000000, 3.000000000000000444 ) ) ;
#274 = FACE_OUTER_BOUND ( 'NONE', #120, .T. ) ;
#275 = CARTESIAN_POINT ( 'NONE',  ( -0.2500000000000000000, 0.0000000000000000000, 2.985000000000001208 ) ) ;
#276 = AXIS2_PLACEMENT_3D ( 'NONE', #53, #156, #20 ) ;
#277 = DIRECTION ( 'NONE',  ( 1.000000000000000000, 0.0000000000000000000, 0.0000000000000000000 ) ) ;
#278 = CARTESIAN_POINT ( 'NONE',  ( 0.0000000000000000000, 0.0000000000000000000, 1.500000000000000222 ) ) ;
#279 = ADVANCED_FACE ( 'NONE', ( #111 ), #109, .T. ) ;
#280 = EDGE_LOOP ( 'NONE', ( #266, #57, #329, #264 ) ) ;
#281 = DIRECTION ( 'NONE',  ( -0.0000000000000000000, -0.0000000000000000000, -1.000000000000000000 ) ) ;
#282 = FACE_OUTER_BOUND ( 'NONE', #126, .T. ) ;
#283 = DIRECTION ( 'NONE',  ( 0.0000000000000000000, 0.0000000000000000000, 1.000000000000000000 ) ) ;
#284 = PRODUCT_DEFINITION_FORMATION_WITH_SPECIFIED_SOURCE ( 'ANY', '', #190, .NOT_KNOWN. ) ;
#285 = DIRECTION ( 'NONE',  ( 1.000000000000000000, 0.0000000000000000000, 0.0000000000000000000 ) ) ;
#286 = DIRECTION ( 'NONE',  ( -1.000000000000000000, 0.0000000000000000000, 0.0000000000000000000 ) ) ;
#287 = CARTESIAN_POINT ( 'NONE',  ( 0.2500000000000000000, 0.0000000000000000000, 0.09299999999999999933 ) ) ;
#288 = DIRECTION ( 'NONE',  ( -1.000000000000000000, 0.0000000000000000000, 0.0000000000000000000 ) ) ;
#289 = CYLINDRICAL_SURFACE ( 'NONE', #86, 0.2500000000000000000 ) ;
#290 = ADVANCED_FACE ( 'NONE', ( #346 ), #212, .T. ) ;
#291 = FACE_OUTER_BOUND ( 'NONE', #127, .T. ) ;
#292 = VERTEX_POINT ( 'NONE', #4 ) ;
#293 = CARTESIAN_POINT ( 'NONE',  ( -0.2500000000000000000, 0.0000000000000000000, 0.0000000000000000000 ) ) ;
#294 = AXIS2_PLACEMENT_3D ( 'NONE', #311, #54, #277 ) ;
#295 = ORIENTED_EDGE ( 'NONE', *, *, #218, .F. ) ;
#296 = CARTESIAN_POINT ( 'NONE',  ( 0.0000000000000000000, 0.0000000000000000000, 0.0000000000000000000 ) ) ;
#297 = ADVANCED_FACE ( 'NONE', ( #347 ), #87, .T. ) ;
#298 = ORIENTED_EDGE ( 'NONE', *, *, #218, .T. ) ;
#299 = DIRECTION ( 'NONE',  ( 1.000000000000000000, 0.0000000000000000000, 0.0000000000000000000 ) ) ;
#300 = CARTESIAN_POINT ( 'NONE',  ( 0.1250000000000001943, 0.0000000000000000000, 1.500000000000000222 ) ) ;
#301 = EDGE_LOOP ( 'NONE', ( #16, #227, #104, #40 ) ) ;
#302 = VECTOR ( 'NONE', #281, 39.37007874015748143 ) ;
#303 = CARTESIAN_POINT ( 'NONE',  ( -0.2500000000000000000, 0.0000000000000000000, 0.09299999999999999933 ) ) ;
#304 = COLOUR_RGB ( '',0.7921568627450980005, 0.8196078431372548767, 0.9333333333333333481 ) ;
#305 = FILL_AREA_STYLE ('',( #47 ) ) ;
#306 = DIRECTION ( 'NONE',  ( -1.000000000000000000, 0.0000000000000000000, 0.0000000000000000000 ) ) ;
#307 = DIRECTION ( 'NONE',  ( -0.0000000000000000000, -0.0000000000000000000, -1.000000000000000000 ) ) ;
#308 = CARTESIAN_POINT ( 'NONE',  ( 0.0000000000000000000, 0.0000000000000000000, 1.624999999999999556 ) ) ;
#309 = ORIENTED_EDGE ( 'NONE', *, *, #113, .F. ) ;
#310 = CARTESIAN_POINT ( 'NONE',  ( -0.2500000000000000000, 0.0000000000000000000, 3.000000000000000444 ) ) ;
#311 = CARTESIAN_POINT ( 'NONE',  ( 0.0000000000000000000, 0.0000000000000000000, 0.0000000000000000000 ) ) ;
#312 = MECHANICAL_DESIGN_GEOMETRIC_PRESENTATION_REPRESENTATION (  '', ( #95 ), #101 ) ;
#313 = VERTEX_POINT ( 'NONE', #256 ) ;
#314 = DIRECTION ( 'NONE',  ( -0.0000000000000000000, -0.0000000000000000000, -1.000000000000000000 ) ) ;
#315 = CARTESIAN_POINT ( 'NONE',  ( 0.0000000000000000000, 0.0000000000000000000, 0.0000000000000000000 ) ) ;
#316 = DIRECTION ( 'NONE',  ( 0.7071067811865402453, 8.659560562354845344E-17, -0.7071067811865546782 ) ) ;
#317 = VECTOR ( 'NONE', #34, 39.37007874015748854 ) ;
#318 = CIRCLE ( 'NONE', #360, 0.1250000000000000000 ) ;
#319 = CARTESIAN_POINT ( 'NONE',  ( 0.0000000000000000000, 0.0000000000000000000, 3.000000000000000444 ) ) ;
#320 = DIRECTION ( 'NONE',  ( 1.000000000000000000, 0.0000000000000000000, 0.0000000000000000000 ) ) ;
#321 = UNCERTAINTY_MEASURE_WITH_UNIT (LENGTH_MEASURE( 1.000000000000000082E-05 ), #103, 'distance_accuracy_value', 'NONE');
#322 = CARTESIAN_POINT ( 'NONE',  ( 0.0000000000000000000, 0.0000000000000000000, 0.09299999999999999933 ) ) ;
#323 = FACE_OUTER_BOUND ( 'NONE', #44, .T. ) ;
#324 = CIRCLE ( 'NONE', #344, 0.2500000000000000000 ) ;
#325 = LINE ( 'NONE', #67, #136 ) ;
#326 = CARTESIAN_POINT ( 'NONE',  ( 0.0000000000000000000, 0.0000000000000000000, 1.624999999999999556 ) ) ;
#327 = LINE ( 'NONE', #246, #115 ) ;
#328 = DIRECTION ( 'NONE',  ( 0.0000000000000000000, 0.0000000000000000000, 1.000000000000000000 ) ) ;
#329 = ORIENTED_EDGE ( 'NONE', *, *, #1, .T. ) ;
#330 = DIRECTION ( 'NONE',  ( -1.000000000000000000, 0.0000000000000000000, 0.0000000000000000000 ) ) ;
#331 = VERTEX_POINT ( 'NONE', #140 ) ;
#332 = AXIS2_PLACEMENT_3D ( 'NONE', #315, #283, #285 ) ;
#333 = DIRECTION ( 'NONE',  ( -0.0000000000000000000, -0.0000000000000000000, -1.000000000000000000 ) ) ;
#334 = DIRECTION ( 'NONE',  ( -0.0000000000000000000, -0.0000000000000000000, -1.000000000000000000 ) ) ;
#335 = VERTEX_POINT ( 'NONE', #63 ) ;
#336 = DIRECTION ( 'NONE',  ( -1.000000000000000000, 0.0000000000000000000, 0.0000000000000000000 ) ) ;
#337 = AXIS2_PLACEMENT_3D ( 'NONE', #296, #37, #299 ) ;
#338 =( NAMED_UNIT ( * ) PLANE_ANGLE_UNIT ( ) SI_UNIT ( $, .RADIAN. ) );
#339 =( NAMED_UNIT ( * ) SI_UNIT ( $, .STERADIAN. ) SOLID_ANGLE_UNIT ( ) );
#340 = VERTEX_POINT ( 'NONE', #352 ) ;
#341 = EDGE_CURVE ( 'NONE', #238, #313, #71, .T. ) ;
#342 = FILL_AREA_STYLE ('',( #242 ) ) ;
#343 = ORIENTED_EDGE ( 'NONE', *, *, #22, .T. ) ;
#344 = AXIS2_PLACEMENT_3D ( 'NONE', #215, #219, #133 ) ;
#345 = ORIENTED_EDGE ( 'NONE', *, *, #82, .F. ) ;
#346 = FACE_OUTER_BOUND ( 'NONE', #260, .T. ) ;
#347 = FACE_OUTER_BOUND ( 'NONE', #363, .T. ) ;
#348 = FACE_OUTER_BOUND ( 'NONE', #172, .T. ) ;
#349 = DIRECTION ( 'NONE',  ( 1.000000000000000000, 0.0000000000000000000, 0.0000000000000000000 ) ) ;
#350 = AXIS2_PLACEMENT_3D ( 'NONE', #231, #91, #288 ) ;
#351 = EDGE_CURVE ( 'NONE', #177, #374, #241, .T. ) ;
#352 = CARTESIAN_POINT ( 'NONE',  ( -0.1250000000000001943, 2.296212748401288342E-17, 1.500000000000000222 ) ) ;
#353 = CARTESIAN_POINT ( 'NONE',  ( 0.0000000000000000000, 0.0000000000000000000, 1.500000000000000222 ) ) ;
#354 = DIRECTION ( 'NONE',  ( 0.0000000000000000000, 0.0000000000000000000, 1.000000000000000000 ) ) ;
#355 = AXIS2_PLACEMENT_3D ( 'NONE', #196, #33, #166 ) ;
#356 = AXIS2_PLACEMENT_3D ( 'NONE', #319, #217, #26 ) ;
#357 = DIRECTION ( 'NONE',  ( -1.000000000000000000, 0.0000000000000000000, 0.0000000000000000000 ) ) ;
#358 = CARTESIAN_POINT ( 'NONE',  ( -0.2350000000000011524, 0.0000000000000000000, 3.000000000000000444 ) ) ;
#359 = DIRECTION ( 'NONE',  ( -0.0000000000000000000, -0.0000000000000000000, -1.000000000000000000 ) ) ;
#360 = AXIS2_PLACEMENT_3D ( 'NONE', #106, #314, #107 ) ;
#361 = SHAPE_DEFINITION_REPRESENTATION ( #142, #362 ) ;
#362 = ADVANCED_BREP_SHAPE_REPRESENTATION ( 'Micro_KC-500-1500-093', ( #235, #294 ), #234 ) ;
#363 = EDGE_LOOP ( 'NONE', ( #210, #243, #377, #236 ) ) ;
#364 = DIRECTION ( 'NONE',  ( -1.000000000000000000, 0.0000000000000000000, 0.0000000000000000000 ) ) ;
#365 = DIRECTION ( 'NONE',  ( -0.0000000000000000000, -0.0000000000000000000, -1.000000000000000000 ) ) ;
#366 = SURFACE_STYLE_FILL_AREA ( #305 ) ;
#367 = FACE_OUTER_BOUND ( 'NONE', #50, .T. ) ;
#368 = VECTOR ( 'NONE', #370, 39.37007874015748854 ) ;
#369 = PRODUCT_DEFINITION_CONTEXT ( 'detailed design', #88, 'design' ) ;
#370 = DIRECTION ( 'NONE',  ( 0.7071067811865486830, 0.0000000000000000000, 0.7071067811865462405 ) ) ;
#371 = ORIENTED_EDGE ( 'NONE', *, *, #223, .F. ) ;
#372 =( LENGTH_UNIT ( ) NAMED_UNIT ( * ) SI_UNIT ( $, .METRE. ) );
#373 = ADVANCED_FACE ( 'NONE', ( #367 ), #129, .T. ) ;
#374 = VERTEX_POINT ( 'NONE', #275 ) ;
#375 =( NAMED_UNIT ( * ) SI_UNIT ( $, .STERADIAN. ) SOLID_ANGLE_UNIT ( ) );
#376 = LINE ( 'NONE', #250, #52 ) ;
#377 = ORIENTED_EDGE ( 'NONE', *, *, #253, .F. ) ;
#378 = ADVANCED_FACE ( 'NONE', ( #269 ), #76, .F. ) ;
#379 = AXIS2_PLACEMENT_3D ( 'NONE', #278, #222, #336 ) ;
ENDSEC;
END-ISO-10303-21;
