ISO-10303-21;
HEADER;
FILE_DESCRIPTION (( 'STEP AP214' ),
    '1' );
FILE_NAME ('Micro_EMS-625-4.STEP',
    '2021-09-01T18:03:28',
    ( '' ),
    ( '' ),
    'SwSTEP 2.0',
    'SolidWorks 2020',
    '' );
FILE_SCHEMA (( 'AUTOMOTIVE_DESIGN' ));
ENDSEC;

DATA;
#1 = AXIS2_PLACEMENT_3D ( 'NONE', #127, #283, #175 ) ;
#2 = DIRECTION ( 'NONE',  ( 1.224646799147353207E-16, 0.0000000000000000000, 1.000000000000000000 ) ) ;
#3 = CARTESIAN_POINT ( 'NONE',  ( 0.3121875000000000622, 0.0000000000000000000, 1.250000000000000000 ) ) ;
#4 = EDGE_LOOP ( 'NONE', ( #141, #206 ) ) ;
#5 = CARTESIAN_POINT ( 'NONE',  ( 1.530808498934191571E-16, 0.0000000000000000000, 1.250000000000000000 ) ) ;
#6 = PRODUCT_RELATED_PRODUCT_CATEGORY ( 'part', '', ( #275 ) ) ;
#7 = ADVANCED_FACE ( 'NONE', ( #59 ), #15, .F. ) ;
#8 = CIRCLE ( 'NONE', #251, 0.3121874999999998956 ) ;
#9 =( NAMED_UNIT ( * ) PLANE_ANGLE_UNIT ( ) SI_UNIT ( $, .RADIAN. ) );
#10 = ORIENTED_EDGE ( 'NONE', *, *, #49, .T. ) ;
#11 = SURFACE_SIDE_STYLE ('',( #267 ) ) ;
#12 = ORIENTED_EDGE ( 'NONE', *, *, #90, .T. ) ;
#13 =( GEOMETRIC_REPRESENTATION_CONTEXT ( 3 ) GLOBAL_UNCERTAINTY_ASSIGNED_CONTEXT ( ( #99 ) ) GLOBAL_UNIT_ASSIGNED_CONTEXT ( ( #65, #226, #161 ) ) REPRESENTATION_CONTEXT ( 'NONE', 'WORKASPACE' ) );
#14 = FACE_OUTER_BOUND ( 'NONE', #118, .T. ) ;
#15 = PLANE ( 'NONE',  #69 ) ;
#16 = SURFACE_STYLE_USAGE ( .BOTH. , #11 ) ;
#17 = ORIENTED_EDGE ( 'NONE', *, *, #74, .F. ) ;
#18 = EDGE_CURVE ( 'NONE', #160, #231, #122, .T. ) ;
#19 = ADVANCED_FACE ( 'NONE', ( #14 ), #289, .T. ) ;
#20 = PRESENTATION_STYLE_ASSIGNMENT (( #16 ) ) ;
#21 = VECTOR ( 'NONE', #100, 39.37007874015748143 ) ;
#22 = VERTEX_POINT ( 'NONE', #183 ) ;
#23 = DIRECTION ( 'NONE',  ( -0.0000000000000000000, -0.0000000000000000000, -1.000000000000000000 ) ) ;
#24 = PRODUCT_DEFINITION_CONTEXT ( 'detailed design', #97, 'design' ) ;
#25 = EDGE_CURVE ( 'NONE', #290, #87, #116, .T. ) ;
#26 = FACE_OUTER_BOUND ( 'NONE', #4, .T. ) ;
#27 = DIRECTION ( 'NONE',  ( 0.0000000000000000000, 0.0000000000000000000, -1.000000000000000000 ) ) ;
#28 = CIRCLE ( 'NONE', #195, 0.3125000000000000000 ) ;
#29 = UNCERTAINTY_MEASURE_WITH_UNIT (LENGTH_MEASURE( 1.000000000000000082E-05 ), #201, 'distance_accuracy_value', 'NONE');
#30 = DIRECTION ( 'NONE',  ( -1.000000000000000000, 0.0000000000000000000, 0.0000000000000000000 ) ) ;
#31 = FACE_OUTER_BOUND ( 'NONE', #140, .T. ) ;
#32 = CLOSED_SHELL ( 'NONE', ( #280, #224, #89, #146, #151, #78, #19, #232, #294, #7 ) ) ;
#33 = LINE ( 'NONE', #108, #262 ) ;
#34 = AXIS2_PLACEMENT_3D ( 'NONE', #295, #96, #218 ) ;
#35 = DIRECTION ( 'NONE',  ( -1.224646799147353207E-16, -0.0000000000000000000, -1.000000000000000000 ) ) ;
#36 =( NAMED_UNIT ( * ) PLANE_ANGLE_UNIT ( ) SI_UNIT ( $, .RADIAN. ) );
#37 = AXIS2_PLACEMENT_3D ( 'NONE', #55, #2, #202 ) ;
#38 =( LENGTH_UNIT ( ) NAMED_UNIT ( * ) SI_UNIT ( $, .METRE. ) );
#39 = EDGE_CURVE ( 'NONE', #187, #250, #276, .T. ) ;
#40 = DIRECTION ( 'NONE',  ( 1.000000000000000000, 0.0000000000000000000, 0.0000000000000000000 ) ) ;
#41 = ORIENTED_EDGE ( 'NONE', *, *, #126, .F. ) ;
#42 = CARTESIAN_POINT ( 'NONE',  ( 0.0000000000000000000, 0.0000000000000000000, 3.500000000000000000 ) ) ;
#43 = ORIENTED_EDGE ( 'NONE', *, *, #119, .F. ) ;
#44 = ORIENTED_EDGE ( 'NONE', *, *, #185, .F. ) ;
#45 = VECTOR ( 'NONE', #253, 39.37007874015748143 ) ;
#46 = VERTEX_POINT ( 'NONE', #124 ) ;
#47 = EDGE_CURVE ( 'NONE', #231, #187, #167, .T. ) ;
#48 = FILL_AREA_STYLE ('',( #212 ) ) ;
#49 = EDGE_CURVE ( 'NONE', #115, #87, #123, .T. ) ;
#50 = CARTESIAN_POINT ( 'NONE',  ( -0.2975000000000003197, 0.0000000000000000000, 3.500000000000000000 ) ) ;
#51 = CARTESIAN_POINT ( 'NONE',  ( -0.3121874999999998956, 0.0000000000000000000, 3.823194226088142147E-17 ) ) ;
#52 = VECTOR ( 'NONE', #104, 39.37007874015748143 ) ;
#53 = CARTESIAN_POINT ( 'NONE',  ( 0.3121875000000000622, 0.0000000000000000000, 1.250000000000000000 ) ) ;
#54 = LINE ( 'NONE', #239, #273 ) ;
#55 = CARTESIAN_POINT ( 'NONE',  ( 1.530808498934191571E-16, 0.0000000000000000000, 1.250000000000000000 ) ) ;
#56 = STYLED_ITEM ( 'NONE', ( #192 ), #181 ) ;
#57 = DIRECTION ( 'NONE',  ( -1.000000000000000000, 0.0000000000000000000, 0.0000000000000000000 ) ) ;
#58 = CARTESIAN_POINT ( 'NONE',  ( 0.0000000000000000000, 0.0000000000000000000, 3.500000000000000000 ) ) ;
#59 = FACE_OUTER_BOUND ( 'NONE', #271, .T. ) ;
#60 = ADVANCED_BREP_SHAPE_REPRESENTATION ( 'Micro_EMS-625-4', ( #181, #95 ), #137 ) ;
#61 = DIRECTION ( 'NONE',  ( 0.0000000000000000000, 0.0000000000000000000, 1.000000000000000000 ) ) ;
#62 = ORIENTED_EDGE ( 'NONE', *, *, #238, .F. ) ;
#63 = VECTOR ( 'NONE', #169, 39.37007874015748143 ) ;
#64 = EDGE_CURVE ( 'NONE', #115, #250, #54, .T. ) ;
#65 =( CONVERSION_BASED_UNIT ( 'INCH', #179 ) LENGTH_UNIT ( ) NAMED_UNIT ( #105 ) );
#66 = CARTESIAN_POINT ( 'NONE',  ( 4.682062571497486343E-33, 0.0000000000000000000, 3.823194226088142147E-17 ) ) ;
#67 = EDGE_LOOP ( 'NONE', ( #178, #88, #12, #288 ) ) ;
#68 = ORIENTED_EDGE ( 'NONE', *, *, #90, .F. ) ;
#69 = AXIS2_PLACEMENT_3D ( 'NONE', #156, #246, #245 ) ;
#70 = AXIS2_PLACEMENT_3D ( 'NONE', #77, #35, #57 ) ;
#71 = CARTESIAN_POINT ( 'NONE',  ( 0.2975000000000003197, 3.735172737399428256E-17, 3.500000000000000000 ) ) ;
#72 = CYLINDRICAL_SURFACE ( 'NONE', #159, 0.3125000000000000000 ) ;
#73 = DIRECTION ( 'NONE',  ( -1.224646799147353207E-16, -0.0000000000000000000, -1.000000000000000000 ) ) ;
#74 = EDGE_CURVE ( 'NONE', #115, #204, #142, .T. ) ;
#75 = CARTESIAN_POINT ( 'NONE',  ( 1.530808498934191571E-16, 0.0000000000000000000, 1.250000000000000000 ) ) ;
#76 = DIRECTION ( 'NONE',  ( -0.0000000000000000000, -0.0000000000000000000, -1.000000000000000000 ) ) ;
#77 = CARTESIAN_POINT ( 'NONE',  ( 1.530808498934191571E-16, 0.0000000000000000000, 1.250000000000000000 ) ) ;
#78 = ADVANCED_FACE ( 'NONE', ( #26 ), #237, .T. ) ;
#79 = FACE_OUTER_BOUND ( 'NONE', #286, .T. ) ;
#80 = APPLICATION_CONTEXT ( 'automotive_design' ) ;
#81 = EDGE_LOOP ( 'NONE', ( #17, #113, #132, #68 ) ) ;
#82 = PRODUCT_DEFINITION_FORMATION_WITH_SPECIFIED_SOURCE ( 'ANY', '', #275, .NOT_KNOWN. ) ;
#83 = DIRECTION ( 'NONE',  ( 0.7071067811865346942, 8.659560562354773853E-17, -0.7071067811865603403 ) ) ;
#84 = CARTESIAN_POINT ( 'NONE',  ( 4.682062571497486343E-33, 0.0000000000000000000, 3.823194226088142147E-17 ) ) ;
#85 = DIRECTION ( 'NONE',  ( -1.224646799147353207E-16, -0.0000000000000000000, -1.000000000000000000 ) ) ;
#86 = PRESENTATION_LAYER_ASSIGNMENT (  '', '', ( #112 ) ) ;
#87 = VERTEX_POINT ( 'NONE', #277 ) ;
#88 = ORIENTED_EDGE ( 'NONE', *, *, #297, .F. ) ;
#89 = ADVANCED_FACE ( 'NONE', ( #31 ), #236, .T. ) ;
#90 = EDGE_CURVE ( 'NONE', #204, #22, #298, .T. ) ;
#91 = DIRECTION ( 'NONE',  ( -1.000000000000000000, 0.0000000000000000000, 0.0000000000000000000 ) ) ;
#92 = ORIENTED_EDGE ( 'NONE', *, *, #39, .F. ) ;
#93 = ORIENTED_EDGE ( 'NONE', *, *, #47, .F. ) ;
#94 = DIRECTION ( 'NONE',  ( -1.224646799147353207E-16, -0.0000000000000000000, -1.000000000000000000 ) ) ;
#95 = AXIS2_PLACEMENT_3D ( 'NONE', #270, #61, #40 ) ;
#96 = DIRECTION ( 'NONE',  ( 0.0000000000000000000, 0.0000000000000000000, -1.000000000000000000 ) ) ;
#97 = APPLICATION_CONTEXT ( 'automotive_design' ) ;
#98 = DIRECTION ( 'NONE',  ( 1.000000000000000000, 0.0000000000000000000, 0.0000000000000000000 ) ) ;
#99 = UNCERTAINTY_MEASURE_WITH_UNIT (LENGTH_MEASURE( 1.000000000000000082E-05 ), #65, 'distance_accuracy_value', 'NONE');
#100 = DIRECTION ( 'NONE',  ( -0.7071067811865346942, 0.0000000000000000000, -0.7071067811865603403 ) ) ;
#101 = CARTESIAN_POINT ( 'NONE',  ( -0.3125000000000000000, 0.0000000000000000000, 3.500000000000000000 ) ) ;
#102 = AXIS2_PLACEMENT_3D ( 'NONE', #120, #94, #274 ) ;
#103 = LINE ( 'NONE', #220, #52 ) ;
#104 = DIRECTION ( 'NONE',  ( -1.224646799147353207E-16, -0.0000000000000000000, -1.000000000000000000 ) ) ;
#105 = DIMENSIONAL_EXPONENTS ( 1.000000000000000000, 0.0000000000000000000, 0.0000000000000000000, 0.0000000000000000000, 0.0000000000000000000, 0.0000000000000000000, 0.0000000000000000000 ) ;
#106 =( CONVERSION_BASED_UNIT ( 'INCH', #242 ) LENGTH_UNIT ( ) NAMED_UNIT ( #260 ) );
#107 = AXIS2_PLACEMENT_3D ( 'NONE', #193, #27, #98 ) ;
#108 = CARTESIAN_POINT ( 'NONE',  ( 0.2975000000000003197, 3.643324227463378817E-17, 3.500000000000000000 ) ) ;
#109 = CYLINDRICAL_SURFACE ( 'NONE', #117, 0.3121874999999998956 ) ;
#110 = ORIENTED_EDGE ( 'NONE', *, *, #39, .T. ) ;
#111 = VECTOR ( 'NONE', #125, 39.37007874015748143 ) ;
#112 = STYLED_ITEM ( 'NONE', ( #20 ), #60 ) ;
#113 = ORIENTED_EDGE ( 'NONE', *, *, #64, .T. ) ;
#114 = ORIENTED_EDGE ( 'NONE', *, *, #135, .T. ) ;
#115 = VERTEX_POINT ( 'NONE', #150 ) ;
#116 = CIRCLE ( 'NONE', #299, 0.3121874999999998956 ) ;
#117 = AXIS2_PLACEMENT_3D ( 'NONE', #225, #85, #222 ) ;
#118 = EDGE_LOOP ( 'NONE', ( #44, #62, #264, #43 ) ) ;
#119 = EDGE_CURVE ( 'NONE', #46, #187, #214, .T. ) ;
#120 = CARTESIAN_POINT ( 'NONE',  ( 1.532978910536522803E-16, 0.0000000000000000000, 1.251772275568631132 ) ) ;
#121 = DIRECTION ( 'NONE',  ( 1.000000000000000000, 0.0000000000000000000, 0.0000000000000000000 ) ) ;
#122 = CIRCLE ( 'NONE', #131, 0.2975000000000003197 ) ;
#123 = LINE ( 'NONE', #51, #111 ) ;
#124 = CARTESIAN_POINT ( 'NONE',  ( 0.3125000000000000000, 3.827021247335478926E-17, 3.484999999999999432 ) ) ;
#125 = DIRECTION ( 'NONE',  ( -1.224646799147353207E-16, -0.0000000000000000000, -1.000000000000000000 ) ) ;
#126 = EDGE_CURVE ( 'NONE', #250, #22, #28, .T. ) ;
#127 = CARTESIAN_POINT ( 'NONE',  ( 0.0000000000000000000, 0.0000000000000000000, 0.0000000000000000000 ) ) ;
#128 = DIRECTION ( 'NONE',  ( -1.000000000000000000, 0.0000000000000000000, 1.224646799147353207E-16 ) ) ;
#129 = FACE_OUTER_BOUND ( 'NONE', #67, .T. ) ;
#130 = LENGTH_MEASURE_WITH_UNIT ( LENGTH_MEASURE( 0.02539999999999999897 ), #38 );
#131 = AXIS2_PLACEMENT_3D ( 'NONE', #136, #227, #205 ) ;
#132 = ORIENTED_EDGE ( 'NONE', *, *, #126, .T. ) ;
#133 = AXIS2_PLACEMENT_3D ( 'NONE', #5, #198, #259 ) ;
#134 = DIRECTION ( 'NONE',  ( 1.000000000000000000, 0.0000000000000000000, 0.0000000000000000000 ) ) ;
#135 = EDGE_CURVE ( 'NONE', #187, #46, #285, .T. ) ;
#136 = CARTESIAN_POINT ( 'NONE',  ( 0.0000000000000000000, 0.0000000000000000000, 3.500000000000000000 ) ) ;
#137 =( GEOMETRIC_REPRESENTATION_CONTEXT ( 3 ) GLOBAL_UNCERTAINTY_ASSIGNED_CONTEXT ( ( #216 ) ) GLOBAL_UNIT_ASSIGNED_CONTEXT ( ( #106, #36, #265 ) ) REPRESENTATION_CONTEXT ( 'NONE', 'WORKASPACE' ) );
#138 = APPLICATION_PROTOCOL_DEFINITION ( 'draft international standard', 'automotive_design', 1998, #80 ) ;
#139 = DIRECTION ( 'NONE',  ( 0.0000000000000000000, 0.0000000000000000000, -1.000000000000000000 ) ) ;
#140 = EDGE_LOOP ( 'NONE', ( #291, #228, #247, #93 ) ) ;
#141 = ORIENTED_EDGE ( 'NONE', *, *, #238, .T. ) ;
#142 = CIRCLE ( 'NONE', #200, 0.3121874999999998956 ) ;
#143 = AXIS2_PLACEMENT_3D ( 'NONE', #58, #263, #134 ) ;
#144 = ORIENTED_EDGE ( 'NONE', *, *, #221, .F. ) ;
#145 = CARTESIAN_POINT ( 'NONE',  ( 0.0000000000000000000, 0.0000000000000000000, 3.500000000000000000 ) ) ;
#146 = ADVANCED_FACE ( 'NONE', ( #296 ), #196, .T. ) ;
#147 = DIRECTION ( 'NONE',  ( -1.224646799147353207E-16, -0.0000000000000000000, -1.000000000000000000 ) ) ;
#148 = AXIS2_PLACEMENT_3D ( 'NONE', #145, #292, #279 ) ;
#149 = DIRECTION ( 'NONE',  ( -0.1736481776669311639, 2.126576849575782392E-17, 0.9848077530122080203 ) ) ;
#150 = CARTESIAN_POINT ( 'NONE',  ( -0.3121874999999997846, 3.825107736711810845E-17, 1.250000000000000000 ) ) ;
#151 = ADVANCED_FACE ( 'NONE', ( #256 ), #72, .T. ) ;
#152 = FACE_OUTER_BOUND ( 'NONE', #229, .T. ) ;
#153 = ORIENTED_EDGE ( 'NONE', *, *, #25, .F. ) ;
#154 = CIRCLE ( 'NONE', #70, 0.3121874999999998956 ) ;
#155 = APPLICATION_PROTOCOL_DEFINITION ( 'draft international standard', 'automotive_design', 1998, #97 ) ;
#156 = CARTESIAN_POINT ( 'NONE',  ( 0.0000000000000000000, 0.0000000000000000000, 0.0000000000000000000 ) ) ;
#157 = EDGE_CURVE ( 'NONE', #22, #250, #191, .T. ) ;
#158 = EDGE_LOOP ( 'NONE', ( #144, #243, #110, #180 ) ) ;
#159 = AXIS2_PLACEMENT_3D ( 'NONE', #233, #23, #252 ) ;
#160 = VERTEX_POINT ( 'NONE', #71 ) ;
#161 =( NAMED_UNIT ( * ) SI_UNIT ( $, .STERADIAN. ) SOLID_ANGLE_UNIT ( ) );
#162 = ORIENTED_EDGE ( 'NONE', *, *, #221, .T. ) ;
#163 = EDGE_LOOP ( 'NONE', ( #114, #162, #41, #92 ) ) ;
#164 = PRESENTATION_LAYER_ASSIGNMENT (  '', '', ( #56 ) ) ;
#165 = CARTESIAN_POINT ( 'NONE',  ( -0.3125000000000000000, 0.0000000000000000000, 3.484999999999999432 ) ) ;
#166 = SURFACE_STYLE_USAGE ( .BOTH. , #254 ) ;
#167 = LINE ( 'NONE', #50, #21 ) ;
#168 = CONICAL_SURFACE ( 'NONE', #37, 0.3121874999999998956, 0.1745329251994338360 ) ;
#169 = DIRECTION ( 'NONE',  ( 0.1736481776669313304, 0.0000000000000000000, 0.9848077530122077983 ) ) ;
#170 = DIRECTION ( 'NONE',  ( -1.000000000000000000, 0.0000000000000000000, 0.0000000000000000000 ) ) ;
#171 =( LENGTH_UNIT ( ) NAMED_UNIT ( * ) SI_UNIT ( $, .METRE. ) );
#172 = MECHANICAL_DESIGN_GEOMETRIC_PRESENTATION_REPRESENTATION (  '', ( #56 ), #208 ) ;
#173 = FACE_OUTER_BOUND ( 'NONE', #81, .T. ) ;
#174 = PRODUCT_DEFINITION ( 'UNKNOWN', '', #82, #24 ) ;
#175 = DIRECTION ( 'NONE',  ( -1.000000000000000000, 0.0000000000000000000, 1.224646799147353207E-16 ) ) ;
#176 = LINE ( 'NONE', #197, #223 ) ;
#177 = CARTESIAN_POINT ( 'NONE',  ( 0.3121874999999998956, 3.823194226088142147E-17, 0.0000000000000000000 ) ) ;
#178 = ORIENTED_EDGE ( 'NONE', *, *, #64, .F. ) ;
#179 = LENGTH_MEASURE_WITH_UNIT ( LENGTH_MEASURE( 0.02539999999999999897 ), #186 );
#180 = ORIENTED_EDGE ( 'NONE', *, *, #157, .F. ) ;
#181 = MANIFOLD_SOLID_BREP ( 'Cut-Revolve1', #32 ) ;
#182 = SHAPE_DEFINITION_REPRESENTATION ( #244, #60 ) ;
#183 = CARTESIAN_POINT ( 'NONE',  ( 0.3125000000000001665, 3.827021247335480159E-17, 1.251772275568631132 ) ) ;
#184 = AXIS2_PLACEMENT_3D ( 'NONE', #211, #255, #121 ) ;
#185 = EDGE_CURVE ( 'NONE', #160, #46, #33, .T. ) ;
#186 =( LENGTH_UNIT ( ) NAMED_UNIT ( * ) SI_UNIT ( $, .METRE. ) );
#187 = VERTEX_POINT ( 'NONE', #165 ) ;
#188 = ORIENTED_EDGE ( 'NONE', *, *, #213, .F. ) ;
#189 = DIRECTION ( 'NONE',  ( -1.000000000000000000, 0.0000000000000000000, 1.224646799147353207E-16 ) ) ;
#190 = EDGE_CURVE ( 'NONE', #87, #290, #8, .T. ) ;
#191 = CIRCLE ( 'NONE', #102, 0.3125000000000000000 ) ;
#192 = PRESENTATION_STYLE_ASSIGNMENT (( #166 ) ) ;
#193 = CARTESIAN_POINT ( 'NONE',  ( 0.0000000000000000000, 0.0000000000000000000, 3.484999999999999432 ) ) ;
#194 = DIRECTION ( 'NONE',  ( -1.224646799147353207E-16, -0.0000000000000000000, -1.000000000000000000 ) ) ;
#195 = AXIS2_PLACEMENT_3D ( 'NONE', #217, #147, #215 ) ;
#196 = CYLINDRICAL_SURFACE ( 'NONE', #268, 0.3125000000000000000 ) ;
#197 = CARTESIAN_POINT ( 'NONE',  ( 0.3125000000000000000, 3.827021247335478926E-17, 3.500000000000000000 ) ) ;
#198 = DIRECTION ( 'NONE',  ( 1.224646799147353207E-16, 0.0000000000000000000, 1.000000000000000000 ) ) ;
#199 = DIMENSIONAL_EXPONENTS ( 1.000000000000000000, 0.0000000000000000000, 0.0000000000000000000, 0.0000000000000000000, 0.0000000000000000000, 0.0000000000000000000, 0.0000000000000000000 ) ;
#200 = AXIS2_PLACEMENT_3D ( 'NONE', #75, #194, #30 ) ;
#201 =( CONVERSION_BASED_UNIT ( 'INCH', #130 ) LENGTH_UNIT ( ) NAMED_UNIT ( #199 ) );
#202 = DIRECTION ( 'NONE',  ( 1.000000000000000000, 0.0000000000000000000, 0.0000000000000000000 ) ) ;
#203 = CIRCLE ( 'NONE', #143, 0.2975000000000003197 ) ;
#204 = VERTEX_POINT ( 'NONE', #3 ) ;
#205 = DIRECTION ( 'NONE',  ( 1.000000000000000000, 0.0000000000000000000, 0.0000000000000000000 ) ) ;
#206 = ORIENTED_EDGE ( 'NONE', *, *, #18, .T. ) ;
#207 = ORIENTED_EDGE ( 'NONE', *, *, #25, .T. ) ;
#208 =( GEOMETRIC_REPRESENTATION_CONTEXT ( 3 ) GLOBAL_UNCERTAINTY_ASSIGNED_CONTEXT ( ( #29 ) ) GLOBAL_UNIT_ASSIGNED_CONTEXT ( ( #201, #9, #241 ) ) REPRESENTATION_CONTEXT ( 'NONE', 'WORKASPACE' ) );
#209 = FILL_AREA_STYLE_COLOUR ( '', #219 ) ;
#210 = ORIENTED_EDGE ( 'NONE', *, *, #74, .T. ) ;
#211 = CARTESIAN_POINT ( 'NONE',  ( 0.0000000000000000000, 0.0000000000000000000, 3.484999999999999432 ) ) ;
#212 = FILL_AREA_STYLE_COLOUR ( '', #257 ) ;
#213 = EDGE_CURVE ( 'NONE', #204, #290, #103, .T. ) ;
#214 = CIRCLE ( 'NONE', #184, 0.3125000000000000000 ) ;
#215 = DIRECTION ( 'NONE',  ( 1.000000000000000000, 0.0000000000000000000, 0.0000000000000000000 ) ) ;
#216 = UNCERTAINTY_MEASURE_WITH_UNIT (LENGTH_MEASURE( 1.000000000000000082E-05 ), #106, 'distance_accuracy_value', 'NONE');
#217 = CARTESIAN_POINT ( 'NONE',  ( 1.532978910536522803E-16, 0.0000000000000000000, 1.251772275568631132 ) ) ;
#218 = DIRECTION ( 'NONE',  ( -1.000000000000000000, 0.0000000000000000000, 0.0000000000000000000 ) ) ;
#219 = COLOUR_RGB ( '',0.7921568627450980005, 0.8196078431372548767, 0.9333333333333333481 ) ;
#220 = CARTESIAN_POINT ( 'NONE',  ( 0.3121874999999998956, 3.823194226088142147E-17, -3.823194226088142147E-17 ) ) ;
#221 = EDGE_CURVE ( 'NONE', #46, #22, #176, .T. ) ;
#222 = DIRECTION ( 'NONE',  ( -1.000000000000000000, 0.0000000000000000000, 1.224646799147353207E-16 ) ) ;
#223 = VECTOR ( 'NONE', #284, 39.37007874015748143 ) ;
#224 = ADVANCED_FACE ( 'NONE', ( #173 ), #278, .T. ) ;
#225 = CARTESIAN_POINT ( 'NONE',  ( 0.0000000000000000000, 0.0000000000000000000, 0.0000000000000000000 ) ) ;
#226 =( NAMED_UNIT ( * ) PLANE_ANGLE_UNIT ( ) SI_UNIT ( $, .RADIAN. ) );
#227 = DIRECTION ( 'NONE',  ( 0.0000000000000000000, 0.0000000000000000000, 1.000000000000000000 ) ) ;
#228 = ORIENTED_EDGE ( 'NONE', *, *, #185, .T. ) ;
#229 = EDGE_LOOP ( 'NONE', ( #188, #287, #10, #153 ) ) ;
#230 = FILL_AREA_STYLE ('',( #209 ) ) ;
#231 = VERTEX_POINT ( 'NONE', #258 ) ;
#232 = ADVANCED_FACE ( 'NONE', ( #129 ), #168, .T. ) ;
#233 = CARTESIAN_POINT ( 'NONE',  ( 0.0000000000000000000, 0.0000000000000000000, 3.500000000000000000 ) ) ;
#234 = SURFACE_STYLE_FILL_AREA ( #48 ) ;
#235 = CARTESIAN_POINT ( 'NONE',  ( 0.0000000000000000000, 0.0000000000000000000, 3.500000000000000000 ) ) ;
#236 = CONICAL_SURFACE ( 'NONE', #34, 0.2975000000000003197, 0.7853981633974300713 ) ;
#237 = PLANE ( 'NONE',  #148 ) ;
#238 = EDGE_CURVE ( 'NONE', #231, #160, #203, .T. ) ;
#239 = CARTESIAN_POINT ( 'NONE',  ( -0.3121874999999997846, 3.823194226088142147E-17, 1.250000000000000000 ) ) ;
#240 = CYLINDRICAL_SURFACE ( 'NONE', #1, 0.3121874999999998956 ) ;
#241 =( NAMED_UNIT ( * ) SI_UNIT ( $, .STERADIAN. ) SOLID_ANGLE_UNIT ( ) );
#242 = LENGTH_MEASURE_WITH_UNIT ( LENGTH_MEASURE( 0.02539999999999999897 ), #171 );
#243 = ORIENTED_EDGE ( 'NONE', *, *, #119, .T. ) ;
#244 = PRODUCT_DEFINITION_SHAPE ( 'NONE', 'NONE',  #174 ) ;
#245 = DIRECTION ( 'NONE',  ( 1.000000000000000000, 0.0000000000000000000, -0.0000000000000000000 ) ) ;
#246 = DIRECTION ( 'NONE',  ( 0.0000000000000000000, 0.0000000000000000000, 1.000000000000000000 ) ) ;
#247 = ORIENTED_EDGE ( 'NONE', *, *, #135, .F. ) ;
#248 = PRODUCT_CONTEXT ( 'NONE', #80, 'mechanical' ) ;
#249 = ORIENTED_EDGE ( 'NONE', *, *, #49, .F. ) ;
#250 = VERTEX_POINT ( 'NONE', #282 ) ;
#251 = AXIS2_PLACEMENT_3D ( 'NONE', #84, #281, #128 ) ;
#252 = DIRECTION ( 'NONE',  ( -1.000000000000000000, 0.0000000000000000000, 0.0000000000000000000 ) ) ;
#253 = DIRECTION ( 'NONE',  ( -0.0000000000000000000, -0.0000000000000000000, -1.000000000000000000 ) ) ;
#254 = SURFACE_SIDE_STYLE ('',( #234 ) ) ;
#255 = DIRECTION ( 'NONE',  ( 0.0000000000000000000, 0.0000000000000000000, -1.000000000000000000 ) ) ;
#256 = FACE_OUTER_BOUND ( 'NONE', #158, .T. ) ;
#257 = COLOUR_RGB ( '',0.7921568627450980005, 0.8196078431372548767, 0.9333333333333333481 ) ;
#258 = CARTESIAN_POINT ( 'NONE',  ( -0.2975000000000003197, 0.0000000000000000000, 3.500000000000000000 ) ) ;
#259 = DIRECTION ( 'NONE',  ( 1.000000000000000000, 0.0000000000000000000, 0.0000000000000000000 ) ) ;
#260 = DIMENSIONAL_EXPONENTS ( 1.000000000000000000, 0.0000000000000000000, 0.0000000000000000000, 0.0000000000000000000, 0.0000000000000000000, 0.0000000000000000000, 0.0000000000000000000 ) ;
#261 = AXIS2_PLACEMENT_3D ( 'NONE', #42, #139, #91 ) ;
#262 = VECTOR ( 'NONE', #83, 39.37007874015748143 ) ;
#263 = DIRECTION ( 'NONE',  ( 0.0000000000000000000, 0.0000000000000000000, 1.000000000000000000 ) ) ;
#264 = ORIENTED_EDGE ( 'NONE', *, *, #47, .T. ) ;
#265 =( NAMED_UNIT ( * ) SI_UNIT ( $, .STERADIAN. ) SOLID_ANGLE_UNIT ( ) );
#266 = ORIENTED_EDGE ( 'NONE', *, *, #213, .T. ) ;
#267 = SURFACE_STYLE_FILL_AREA ( #230 ) ;
#268 = AXIS2_PLACEMENT_3D ( 'NONE', #235, #76, #170 ) ;
#269 = ORIENTED_EDGE ( 'NONE', *, *, #190, .F. ) ;
#270 = CARTESIAN_POINT ( 'NONE',  ( 0.0000000000000000000, 0.0000000000000000000, 0.0000000000000000000 ) ) ;
#271 = EDGE_LOOP ( 'NONE', ( #272, #207 ) ) ;
#272 = ORIENTED_EDGE ( 'NONE', *, *, #190, .T. ) ;
#273 = VECTOR ( 'NONE', #149, 39.37007874015747433 ) ;
#274 = DIRECTION ( 'NONE',  ( 1.000000000000000000, 0.0000000000000000000, 0.0000000000000000000 ) ) ;
#275 = PRODUCT ( 'Micro_EMS-625-4', 'Micro_EMS-625-4', '', ( #248 ) ) ;
#276 = LINE ( 'NONE', #101, #45 ) ;
#277 = CARTESIAN_POINT ( 'NONE',  ( -0.3121874999999998956, 0.0000000000000000000, 7.646388452176284293E-17 ) ) ;
#278 = CONICAL_SURFACE ( 'NONE', #133, 0.3121874999999998956, 0.1745329251994338360 ) ;
#279 = DIRECTION ( 'NONE',  ( 1.000000000000000000, 0.0000000000000000000, -0.0000000000000000000 ) ) ;
#280 = ADVANCED_FACE ( 'NONE', ( #79 ), #109, .T. ) ;
#281 = DIRECTION ( 'NONE',  ( -1.224646799147353207E-16, -0.0000000000000000000, -1.000000000000000000 ) ) ;
#282 = CARTESIAN_POINT ( 'NONE',  ( -0.3124999999999998890, 0.0000000000000000000, 1.251772275568631132 ) ) ;
#283 = DIRECTION ( 'NONE',  ( -1.224646799147353207E-16, -0.0000000000000000000, -1.000000000000000000 ) ) ;
#284 = DIRECTION ( 'NONE',  ( -0.0000000000000000000, -0.0000000000000000000, -1.000000000000000000 ) ) ;
#285 = CIRCLE ( 'NONE', #107, 0.3125000000000000000 ) ;
#286 = EDGE_LOOP ( 'NONE', ( #210, #266, #269, #249 ) ) ;
#287 = ORIENTED_EDGE ( 'NONE', *, *, #297, .T. ) ;
#288 = ORIENTED_EDGE ( 'NONE', *, *, #157, .T. ) ;
#289 = CONICAL_SURFACE ( 'NONE', #261, 0.2975000000000003197, 0.7853981633974300713 ) ;
#290 = VERTEX_POINT ( 'NONE', #177 ) ;
#291 = ORIENTED_EDGE ( 'NONE', *, *, #18, .F. ) ;
#292 = DIRECTION ( 'NONE',  ( 0.0000000000000000000, 0.0000000000000000000, 1.000000000000000000 ) ) ;
#293 = MECHANICAL_DESIGN_GEOMETRIC_PRESENTATION_REPRESENTATION (  '', ( #112 ), #13 ) ;
#294 = ADVANCED_FACE ( 'NONE', ( #152 ), #240, .T. ) ;
#295 = CARTESIAN_POINT ( 'NONE',  ( 0.0000000000000000000, 0.0000000000000000000, 3.500000000000000000 ) ) ;
#296 = FACE_OUTER_BOUND ( 'NONE', #163, .T. ) ;
#297 = EDGE_CURVE ( 'NONE', #204, #115, #154, .T. ) ;
#298 = LINE ( 'NONE', #53, #63 ) ;
#299 = AXIS2_PLACEMENT_3D ( 'NONE', #66, #73, #189 ) ;
ENDSEC;
END-ISO-10303-21;
