ISO-10303-21;
HEADER;
FILE_DESCRIPTION (( 'STEP AP214' ),
    '1' );
FILE_NAME ('Micro_AEMM-120-4.STEP',
    '2022-03-15T14:31:32',
    ( '' ),
    ( '' ),
    'SwSTEP 2.0',
    'SolidWorks 2022',
    '' );
FILE_SCHEMA (( 'AUTOMOTIVE_DESIGN' ));
ENDSEC;

DATA;
#1 = LINE ( 'NONE', #118, #140 ) ;
#2 = DIRECTION ( 'NONE',  ( -1.000000000000000000, 0.000000000000000000, 0.000000000000000000 ) ) ;
#3 = DIRECTION ( 'NONE',  ( -0.000000000000000000, -0.000000000000000000, -1.000000000000000000 ) ) ;
#4 =( LENGTH_UNIT ( ) NAMED_UNIT ( * ) SI_UNIT ( $, .METRE. ) );
#5 = ORIENTED_EDGE ( 'NONE', *, *, #194, .F. ) ;
#6 = ADVANCED_FACE ( 'NONE', ( #230 ), #110, .T. ) ;
#7 = CARTESIAN_POINT ( 'NONE',  ( 1.446432783766537492E-16, 0.000000000000000000, 1.181102000000000096 ) ) ;
#8 = UNCERTAINTY_MEASURE_WITH_UNIT (LENGTH_MEASURE( 1.000000000000000082E-05 ), #23, 'distance_accuracy_value', 'NONE');
#9 = EDGE_CURVE ( 'NONE', #198, #116, #24, .T. ) ;
#10 = ORIENTED_EDGE ( 'NONE', *, *, #151, .F. ) ;
#11 = VECTOR ( 'NONE', #210, 39.37007874015748143 ) ;
#12 = CIRCLE ( 'NONE', #74, 0.2212205000000019295 ) ;
#13 = LINE ( 'NONE', #232, #11 ) ;
#14 = FILL_AREA_STYLE_COLOUR ( '', #155 ) ;
#15 = ORIENTED_EDGE ( 'NONE', *, *, #258, .T. ) ;
#16 = EDGE_LOOP ( 'NONE', ( #86, #102, #226, #38 ) ) ;
#17 = CARTESIAN_POINT ( 'NONE',  ( 0.000000000000000000, 0.000000000000000000, 3.267717000000000649 ) ) ;
#18 = VECTOR ( 'NONE', #85, 39.37007874015748143 ) ;
#19 = DIRECTION ( 'NONE',  ( 1.000000000000000000, 0.000000000000000000, 0.000000000000000000 ) ) ;
#20 = DIRECTION ( 'NONE',  ( -0.1736481776669311916, 2.126576849575783316E-17, 0.9848077530122080203 ) ) ;
#21 = DIRECTION ( 'NONE',  ( 1.000000000000000000, 0.000000000000000000, -0.000000000000000000 ) ) ;
#22 = DIRECTION ( 'NONE',  ( 0.000000000000000000, 0.000000000000000000, -1.000000000000000000 ) ) ;
#23 =( CONVERSION_BASED_UNIT ( 'INCH', #193 ) LENGTH_UNIT ( ) NAMED_UNIT ( #212 ) );
#24 = CIRCLE ( 'NONE', #152, 0.2362204999999999999 ) ;
#25 =( NAMED_UNIT ( * ) SI_UNIT ( $, .STERADIAN. ) SOLID_ANGLE_UNIT ( ) );
#26 = SHAPE_DEFINITION_REPRESENTATION ( #107, #184 ) ;
#27 = EDGE_CURVE ( 'NONE', #265, #198, #13, .T. ) ;
#28 = PRODUCT ( 'Micro_AEMM-120-4', 'Micro_AEMM-120-4', '', ( #150 ) ) ;
#29 = DIRECTION ( 'NONE',  ( -1.000000000000000000, 0.000000000000000000, 1.224646799147353454E-16 ) ) ;
#30 = CARTESIAN_POINT ( 'NONE',  ( -0.2212205000000019295, 0.000000000000000000, 3.267717000000000649 ) ) ;
#31 = EDGE_LOOP ( 'NONE', ( #5, #90, #15, #182 ) ) ;
#32 = DIRECTION ( 'NONE',  ( 1.224646799147353454E-16, 0.000000000000000000, 1.000000000000000000 ) ) ;
#33 = AXIS2_PLACEMENT_3D ( 'NONE', #7, #248, #135 ) ;
#34 = EDGE_LOOP ( 'NONE', ( #50, #138, #130, #80 ) ) ;
#35 = CARTESIAN_POINT ( 'NONE',  ( 0.000000000000000000, 0.000000000000000000, 3.267717000000000649 ) ) ;
#36 = ORIENTED_EDGE ( 'NONE', *, *, #9, .T. ) ;
#37 = DIRECTION ( 'NONE',  ( 0.000000000000000000, 0.000000000000000000, 1.000000000000000000 ) ) ;
#38 = ORIENTED_EDGE ( 'NONE', *, *, #258, .F. ) ;
#39 = CARTESIAN_POINT ( 'NONE',  ( 0.2359842795000001436, 0.000000000000000000, 1.181102000000000096 ) ) ;
#40 = VECTOR ( 'NONE', #209, 39.37007874015748854 ) ;
#41 = DIRECTION ( 'NONE',  ( 0.000000000000000000, 0.000000000000000000, -1.000000000000000000 ) ) ;
#42 = DIRECTION ( 'NONE',  ( -1.224646799147353454E-16, -0.000000000000000000, -1.000000000000000000 ) ) ;
#43 = CARTESIAN_POINT ( 'NONE',  ( 0.000000000000000000, 0.000000000000000000, 3.267717000000000649 ) ) ;
#44 = DIRECTION ( 'NONE',  ( 0.000000000000000000, 0.000000000000000000, 1.000000000000000000 ) ) ;
#45 = DIRECTION ( 'NONE',  ( -1.224646799147353454E-16, -0.000000000000000000, -1.000000000000000000 ) ) ;
#46 = VECTOR ( 'NONE', #142, 39.37007874015748143 ) ;
#47 = MECHANICAL_DESIGN_GEOMETRIC_PRESENTATION_REPRESENTATION (  '', ( #286 ), #126 ) ;
#48 =( NAMED_UNIT ( * ) PLANE_ANGLE_UNIT ( ) SI_UNIT ( $, .RADIAN. ) );
#49 = CARTESIAN_POINT ( 'NONE',  ( -0.2359842795000000049, 0.000000000000000000, 5.779947850775388659E-17 ) ) ;
#50 = ORIENTED_EDGE ( 'NONE', *, *, #98, .T. ) ;
#51 = FILL_AREA_STYLE ('',( #225 ) ) ;
#52 = CONICAL_SURFACE ( 'NONE', #214, 0.2212205000000019295, 0.7853981633974482790 ) ;
#53 = VECTOR ( 'NONE', #72, 39.37007874015748854 ) ;
#54 = CARTESIAN_POINT ( 'NONE',  ( 1.448073410051043844E-16, 0.000000000000000000, 1.182441673027071039 ) ) ;
#55 = DIRECTION ( 'NONE',  ( 1.000000000000000000, 0.000000000000000000, 0.000000000000000000 ) ) ;
#56 = VERTEX_POINT ( 'NONE', #295 ) ;
#57 = EDGE_CURVE ( 'NONE', #298, #250, #192, .T. ) ;
#58 = ORIENTED_EDGE ( 'NONE', *, *, #27, .F. ) ;
#59 = PRESENTATION_STYLE_ASSIGNMENT (( #269 ) ) ;
#60 = CONICAL_SURFACE ( 'NONE', #113, 0.2212205000000019295, 0.7853981633974482790 ) ;
#61 = ORIENTED_EDGE ( 'NONE', *, *, #217, .T. ) ;
#62 = FACE_OUTER_BOUND ( 'NONE', #242, .T. ) ;
#63 = ORIENTED_EDGE ( 'NONE', *, *, #151, .T. ) ;
#64 = DIRECTION ( 'NONE',  ( -0.000000000000000000, -0.000000000000000000, -1.000000000000000000 ) ) ;
#65 = CARTESIAN_POINT ( 'NONE',  ( 0.2362205000000001665, 2.892866792179874496E-17, 1.182441673027071039 ) ) ;
#66 = CLOSED_SHELL ( 'NONE', ( #261, #6, #281, #189, #78, #201, #228, #243, #169, #270 ) ) ;
#67 = AXIS2_PLACEMENT_3D ( 'NONE', #164, #238, #218 ) ;
#68 =( NAMED_UNIT ( * ) SI_UNIT ( $, .STERADIAN. ) SOLID_ANGLE_UNIT ( ) );
#69 = LINE ( 'NONE', #144, #53 ) ;
#70 = LINE ( 'NONE', #257, #280 ) ;
#71 = LENGTH_MEASURE_WITH_UNIT ( LENGTH_MEASURE( 0.02539999999999999897 ), #4 );
#72 = DIRECTION ( 'NONE',  ( 0.7071067811865474617, 8.659560562354932858E-17, -0.7071067811865474617 ) ) ;
#73 = SURFACE_STYLE_USAGE ( .BOTH. , #127 ) ;
#74 = AXIS2_PLACEMENT_3D ( 'NONE', #35, #227, #207 ) ;
#75 = EDGE_CURVE ( 'NONE', #158, #116, #276, .T. ) ;
#76 = AXIS2_PLACEMENT_3D ( 'NONE', #235, #41, #215 ) ;
#77 = UNCERTAINTY_MEASURE_WITH_UNIT (LENGTH_MEASURE( 1.000000000000000082E-05 ), #166, 'distance_accuracy_value', 'NONE');
#78 = ADVANCED_FACE ( 'NONE', ( #191 ), #147, .T. ) ;
#79 = EDGE_CURVE ( 'NONE', #298, #56, #69, .T. ) ;
#80 = ORIENTED_EDGE ( 'NONE', *, *, #128, .F. ) ;
#81 = CIRCLE ( 'NONE', #104, 0.2359842795000000049 ) ;
#82 = EDGE_LOOP ( 'NONE', ( #252, #187, #292, #58 ) ) ;
#83 = FACE_OUTER_BOUND ( 'NONE', #31, .T. ) ;
#84 = ORIENTED_EDGE ( 'NONE', *, *, #89, .T. ) ;
#85 = DIRECTION ( 'NONE',  ( -0.000000000000000000, -0.000000000000000000, -1.000000000000000000 ) ) ;
#86 = ORIENTED_EDGE ( 'NONE', *, *, #105, .T. ) ;
#87 = PLANE ( 'NONE',  #95 ) ;
#88 = CIRCLE ( 'NONE', #76, 0.2362204999999999999 ) ;
#89 = EDGE_CURVE ( 'NONE', #287, #161, #179, .T. ) ;
#90 = ORIENTED_EDGE ( 'NONE', *, *, #237, .T. ) ;
#91 =( NAMED_UNIT ( * ) PLANE_ANGLE_UNIT ( ) SI_UNIT ( $, .RADIAN. ) );
#92 = PRODUCT_RELATED_PRODUCT_CATEGORY ( 'part', '', ( #28 ) ) ;
#93 = PLANE ( 'NONE',  #112 ) ;
#94 =( LENGTH_UNIT ( ) NAMED_UNIT ( * ) SI_UNIT ( $, .METRE. ) );
#95 = AXIS2_PLACEMENT_3D ( 'NONE', #186, #139, #272 ) ;
#96 = COLOUR_RGB ( '',0.7921568627450980005, 0.8196078431372548767, 0.9333333333333333481 ) ;
#97 = CARTESIAN_POINT ( 'NONE',  ( -0.2359842794999998661, 2.889973925387693713E-17, 1.181102000000000096 ) ) ;
#98 = EDGE_CURVE ( 'NONE', #205, #56, #103, .T. ) ;
#99 = DIRECTION ( 'NONE',  ( -1.224646799147353454E-16, -0.000000000000000000, -1.000000000000000000 ) ) ;
#100 =( NAMED_UNIT ( * ) PLANE_ANGLE_UNIT ( ) SI_UNIT ( $, .RADIAN. ) );
#101 = CARTESIAN_POINT ( 'NONE',  ( 0.000000000000000000, 0.000000000000000000, 0.000000000000000000 ) ) ;
#102 = ORIENTED_EDGE ( 'NONE', *, *, #194, .T. ) ;
#103 = CIRCLE ( 'NONE', #246, 0.2362204999999999999 ) ;
#104 = AXIS2_PLACEMENT_3D ( 'NONE', #247, #245, #29 ) ;
#105 = EDGE_CURVE ( 'NONE', #158, #265, #185, .T. ) ;
#106 = ORIENTED_EDGE ( 'NONE', *, *, #57, .T. ) ;
#107 = PRODUCT_DEFINITION_SHAPE ( 'NONE', 'NONE',  #273 ) ;
#108 = DIRECTION ( 'NONE',  ( -1.000000000000000000, 0.000000000000000000, 1.224646799147353454E-16 ) ) ;
#109 = ORIENTED_EDGE ( 'NONE', *, *, #79, .F. ) ;
#110 = CONICAL_SURFACE ( 'NONE', #277, 0.2359842795000000049, 0.1745329251994338915 ) ;
#111 = AXIS2_PLACEMENT_3D ( 'NONE', #289, #129, #108 ) ;
#112 = AXIS2_PLACEMENT_3D ( 'NONE', #284, #37, #21 ) ;
#113 = AXIS2_PLACEMENT_3D ( 'NONE', #17, #123, #176 ) ;
#114 = ORIENTED_EDGE ( 'NONE', *, *, #244, .F. ) ;
#115 = SURFACE_STYLE_FILL_AREA ( #267 ) ;
#116 = VERTEX_POINT ( 'NONE', #251 ) ;
#117 = EDGE_CURVE ( 'NONE', #116, #198, #219, .T. ) ;
#118 = CARTESIAN_POINT ( 'NONE',  ( 0.2362204999999999999, 2.892866792179872647E-17, 3.267717000000000649 ) ) ;
#119 = EDGE_LOOP ( 'NONE', ( #175, #274, #290, #36 ) ) ;
#120 = CARTESIAN_POINT ( 'NONE',  ( 0.2359842795000000049, 2.889973925387693713E-17, -2.889973925387694330E-17 ) ) ;
#121 = MECHANICAL_DESIGN_GEOMETRIC_PRESENTATION_REPRESENTATION (  '', ( #153 ), #165 ) ;
#122 = SURFACE_STYLE_FILL_AREA ( #51 ) ;
#123 = DIRECTION ( 'NONE',  ( 0.000000000000000000, 0.000000000000000000, -1.000000000000000000 ) ) ;
#124 = DIRECTION ( 'NONE',  ( -1.000000000000000000, 0.000000000000000000, 0.000000000000000000 ) ) ;
#125 = CARTESIAN_POINT ( 'NONE',  ( 0.000000000000000000, 0.000000000000000000, 0.000000000000000000 ) ) ;
#126 =( GEOMETRIC_REPRESENTATION_CONTEXT ( 3 ) GLOBAL_UNCERTAINTY_ASSIGNED_CONTEXT ( ( #203 ) ) GLOBAL_UNIT_ASSIGNED_CONTEXT ( ( #170, #48, #25 ) ) REPRESENTATION_CONTEXT ( 'NONE', 'WORKASPACE' ) );
#127 = SURFACE_SIDE_STYLE ('',( #122 ) ) ;
#128 = EDGE_CURVE ( 'NONE', #205, #116, #262, .T. ) ;
#129 = DIRECTION ( 'NONE',  ( -1.224646799147353454E-16, -0.000000000000000000, -1.000000000000000000 ) ) ;
#130 = ORIENTED_EDGE ( 'NONE', *, *, #117, .F. ) ;
#131 = CARTESIAN_POINT ( 'NONE',  ( 1.448073410051043844E-16, 0.000000000000000000, 1.182441673027071039 ) ) ;
#132 = EDGE_LOOP ( 'NONE', ( #84, #178 ) ) ;
#133 = AXIS2_PLACEMENT_3D ( 'NONE', #220, #256, #19 ) ;
#134 = DIRECTION ( 'NONE',  ( -1.224646799147353454E-16, -0.000000000000000000, -1.000000000000000000 ) ) ;
#135 = DIRECTION ( 'NONE',  ( -1.000000000000000000, 0.000000000000000000, 0.000000000000000000 ) ) ;
#136 = ORIENTED_EDGE ( 'NONE', *, *, #79, .T. ) ;
#137 = DIRECTION ( 'NONE',  ( -1.224646799147353454E-16, -0.000000000000000000, -1.000000000000000000 ) ) ;
#138 = ORIENTED_EDGE ( 'NONE', *, *, #244, .T. ) ;
#139 = DIRECTION ( 'NONE',  ( 0.000000000000000000, 0.000000000000000000, 1.000000000000000000 ) ) ;
#140 = VECTOR ( 'NONE', #148, 39.37007874015748143 ) ;
#141 = AXIS2_PLACEMENT_3D ( 'NONE', #101, #44, #143 ) ;
#142 = DIRECTION ( 'NONE',  ( -1.224646799147353454E-16, -0.000000000000000000, -1.000000000000000000 ) ) ;
#143 = DIRECTION ( 'NONE',  ( 1.000000000000000000, 0.000000000000000000, 0.000000000000000000 ) ) ;
#144 = CARTESIAN_POINT ( 'NONE',  ( 0.2212205000000019295, 2.709169772307794108E-17, 3.267717000000000649 ) ) ;
#145 = FACE_OUTER_BOUND ( 'NONE', #16, .T. ) ;
#146 = CARTESIAN_POINT ( 'NONE',  ( 0.2212205000000019295, 2.801018282243833685E-17, 3.267717000000000649 ) ) ;
#147 = CYLINDRICAL_SURFACE ( 'NONE', #223, 0.2362204999999999999 ) ;
#148 = DIRECTION ( 'NONE',  ( -0.000000000000000000, -0.000000000000000000, -1.000000000000000000 ) ) ;
#149 =( GEOMETRIC_REPRESENTATION_CONTEXT ( 3 ) GLOBAL_UNCERTAINTY_ASSIGNED_CONTEXT ( ( #77 ) ) GLOBAL_UNIT_ASSIGNED_CONTEXT ( ( #166, #100, #68 ) ) REPRESENTATION_CONTEXT ( 'NONE', 'WORKASPACE' ) );
#150 = PRODUCT_CONTEXT ( 'NONE', #288, 'mechanical' ) ;
#151 = EDGE_CURVE ( 'NONE', #250, #298, #12, .T. ) ;
#152 = AXIS2_PLACEMENT_3D ( 'NONE', #54, #134, #236 ) ;
#153 = STYLED_ITEM ( 'NONE', ( #59 ), #188 ) ;
#154 = DIRECTION ( 'NONE',  ( 1.000000000000000000, 0.000000000000000000, 0.000000000000000000 ) ) ;
#155 = COLOUR_RGB ( '',0.7921568627450980005, 0.8196078431372548767, 0.9333333333333333481 ) ;
#156 = CARTESIAN_POINT ( 'NONE',  ( -0.2362204999999999999, 0.000000000000000000, 3.267717000000000649 ) ) ;
#157 = ORIENTED_EDGE ( 'NONE', *, *, #57, .F. ) ;
#158 = VERTEX_POINT ( 'NONE', #233 ) ;
#159 = CONICAL_SURFACE ( 'NONE', #67, 0.2359842795000000049, 0.1745329251994338915 ) ;
#160 = EDGE_CURVE ( 'NONE', #161, #287, #81, .T. ) ;
#161 = VERTEX_POINT ( 'NONE', #202 ) ;
#162 =( NAMED_UNIT ( * ) SI_UNIT ( $, .STERADIAN. ) SOLID_ANGLE_UNIT ( ) );
#163 = DIRECTION ( 'NONE',  ( 1.000000000000000000, 0.000000000000000000, 0.000000000000000000 ) ) ;
#164 = CARTESIAN_POINT ( 'NONE',  ( 1.446432783766537492E-16, 0.000000000000000000, 1.181102000000000096 ) ) ;
#165 =( GEOMETRIC_REPRESENTATION_CONTEXT ( 3 ) GLOBAL_UNCERTAINTY_ASSIGNED_CONTEXT ( ( #8 ) ) GLOBAL_UNIT_ASSIGNED_CONTEXT ( ( #23, #91, #162 ) ) REPRESENTATION_CONTEXT ( 'NONE', 'WORKASPACE' ) );
#166 =( CONVERSION_BASED_UNIT ( 'INCH', #71 ) LENGTH_UNIT ( ) NAMED_UNIT ( #259 ) );
#167 = CARTESIAN_POINT ( 'NONE',  ( -0.2362204999999999999, 0.000000000000000000, 3.252717000000002301 ) ) ;
#168 = FACE_OUTER_BOUND ( 'NONE', #119, .T. ) ;
#169 = ADVANCED_FACE ( 'NONE', ( #83 ), #181, .T. ) ;
#170 =( CONVERSION_BASED_UNIT ( 'INCH', #196 ) LENGTH_UNIT ( ) NAMED_UNIT ( #294 ) );
#171 = CARTESIAN_POINT ( 'NONE',  ( 3.539197317345352573E-33, 0.000000000000000000, 2.889973925387694330E-17 ) ) ;
#172 = CIRCLE ( 'NONE', #285, 0.2359842795000000049 ) ;
#173 = PRESENTATION_STYLE_ASSIGNMENT (( #73 ) ) ;
#174 =( LENGTH_UNIT ( ) NAMED_UNIT ( * ) SI_UNIT ( $, .METRE. ) );
#175 = ORIENTED_EDGE ( 'NONE', *, *, #75, .F. ) ;
#176 = DIRECTION ( 'NONE',  ( -1.000000000000000000, 0.000000000000000000, 0.000000000000000000 ) ) ;
#177 = EDGE_CURVE ( 'NONE', #250, #205, #224, .T. ) ;
#178 = ORIENTED_EDGE ( 'NONE', *, *, #160, .T. ) ;
#179 = CIRCLE ( 'NONE', #297, 0.2359842795000000049 ) ;
#180 = ORIENTED_EDGE ( 'NONE', *, *, #98, .F. ) ;
#181 = CYLINDRICAL_SURFACE ( 'NONE', #111, 0.2359842795000000049 ) ;
#182 = ORIENTED_EDGE ( 'NONE', *, *, #160, .F. ) ;
#183 = ORIENTED_EDGE ( 'NONE', *, *, #9, .F. ) ;
#184 = ADVANCED_BREP_SHAPE_REPRESENTATION ( 'Micro_AEMM-120-4', ( #188, #141 ), #149 ) ;
#185 = CIRCLE ( 'NONE', #33, 0.2359842795000000049 ) ;
#186 = CARTESIAN_POINT ( 'NONE',  ( 0.000000000000000000, 0.000000000000000000, 0.000000000000000000 ) ) ;
#187 = ORIENTED_EDGE ( 'NONE', *, *, #75, .T. ) ;
#188 = MANIFOLD_SOLID_BREP ( 'Cut-Revolve1', #66 ) ;
#189 = ADVANCED_FACE ( 'NONE', ( #240 ), #204, .T. ) ;
#190 = CARTESIAN_POINT ( 'NONE',  ( -0.2212205000000019295, 0.000000000000000000, 3.267717000000000649 ) ) ;
#191 = FACE_OUTER_BOUND ( 'NONE', #213, .T. ) ;
#192 = CIRCLE ( 'NONE', #133, 0.2212205000000019295 ) ;
#193 = LENGTH_MEASURE_WITH_UNIT ( LENGTH_MEASURE( 0.02539999999999999897 ), #94 );
#194 = EDGE_CURVE ( 'NONE', #265, #161, #195, .T. ) ;
#195 = LINE ( 'NONE', #120, #46 ) ;
#196 = LENGTH_MEASURE_WITH_UNIT ( LENGTH_MEASURE( 0.02539999999999999897 ), #174 );
#197 = APPLICATION_PROTOCOL_DEFINITION ( 'draft international standard', 'automotive_design', 1998, #288 ) ;
#198 = VERTEX_POINT ( 'NONE', #65 ) ;
#199 = PRESENTATION_LAYER_ASSIGNMENT (  '', '', ( #286 ) ) ;
#200 = VECTOR ( 'NONE', #20, 39.37007874015747433 ) ;
#201 = ADVANCED_FACE ( 'NONE', ( #211 ), #93, .T. ) ;
#202 = CARTESIAN_POINT ( 'NONE',  ( 0.2359842795000000049, 2.889973925387693713E-17, 0.000000000000000000 ) ) ;
#203 = UNCERTAINTY_MEASURE_WITH_UNIT (LENGTH_MEASURE( 1.000000000000000082E-05 ), #170, 'distance_accuracy_value', 'NONE');
#204 = CYLINDRICAL_SURFACE ( 'NONE', #206, 0.2362204999999999999 ) ;
#205 = VERTEX_POINT ( 'NONE', #167 ) ;
#206 = AXIS2_PLACEMENT_3D ( 'NONE', #43, #64, #2 ) ;
#207 = DIRECTION ( 'NONE',  ( 1.000000000000000000, 0.000000000000000000, 0.000000000000000000 ) ) ;
#208 = ORIENTED_EDGE ( 'NONE', *, *, #177, .F. ) ;
#209 = DIRECTION ( 'NONE',  ( -0.7071067811865474617, 0.000000000000000000, -0.7071067811865474617 ) ) ;
#210 = DIRECTION ( 'NONE',  ( 0.1736481776669313859, 0.000000000000000000, 0.9848077530122077983 ) ) ;
#211 = FACE_OUTER_BOUND ( 'NONE', #254, .T. ) ;
#212 = DIMENSIONAL_EXPONENTS ( 1.000000000000000000, 0.000000000000000000, 0.000000000000000000, 0.000000000000000000, 0.000000000000000000, 0.000000000000000000, 0.000000000000000000 ) ;
#213 = EDGE_LOOP ( 'NONE', ( #114, #61, #234, #183 ) ) ;
#214 = AXIS2_PLACEMENT_3D ( 'NONE', #282, #253, #275 ) ;
#215 = DIRECTION ( 'NONE',  ( 1.000000000000000000, 0.000000000000000000, 0.000000000000000000 ) ) ;
#216 = FACE_OUTER_BOUND ( 'NONE', #268, .T. ) ;
#217 = EDGE_CURVE ( 'NONE', #56, #205, #88, .T. ) ;
#218 = DIRECTION ( 'NONE',  ( 1.000000000000000000, 0.000000000000000000, 0.000000000000000000 ) ) ;
#219 = CIRCLE ( 'NONE', #263, 0.2362204999999999999 ) ;
#220 = CARTESIAN_POINT ( 'NONE',  ( 0.000000000000000000, 0.000000000000000000, 3.267717000000000649 ) ) ;
#221 = APPLICATION_CONTEXT ( 'automotive_design' ) ;
#222 = CARTESIAN_POINT ( 'NONE',  ( 0.000000000000000000, 0.000000000000000000, 3.252717000000002301 ) ) ;
#223 = AXIS2_PLACEMENT_3D ( 'NONE', #283, #3, #279 ) ;
#224 = LINE ( 'NONE', #30, #40 ) ;
#225 = FILL_AREA_STYLE_COLOUR ( '', #96 ) ;
#226 = ORIENTED_EDGE ( 'NONE', *, *, #89, .F. ) ;
#227 = DIRECTION ( 'NONE',  ( 0.000000000000000000, 0.000000000000000000, 1.000000000000000000 ) ) ;
#228 = ADVANCED_FACE ( 'NONE', ( #216 ), #52, .T. ) ;
#229 = AXIS2_PLACEMENT_3D ( 'NONE', #125, #137, #241 ) ;
#230 = FACE_OUTER_BOUND ( 'NONE', #82, .T. ) ;
#231 = DIRECTION ( 'NONE',  ( -1.224646799147353454E-16, -0.000000000000000000, -1.000000000000000000 ) ) ;
#232 = CARTESIAN_POINT ( 'NONE',  ( 0.2359842795000001436, 0.000000000000000000, 1.181102000000000096 ) ) ;
#233 = CARTESIAN_POINT ( 'NONE',  ( -0.2359842794999998661, 2.891420358783783796E-17, 1.181102000000000096 ) ) ;
#234 = ORIENTED_EDGE ( 'NONE', *, *, #128, .T. ) ;
#235 = CARTESIAN_POINT ( 'NONE',  ( 0.000000000000000000, 0.000000000000000000, 3.252717000000002301 ) ) ;
#236 = DIRECTION ( 'NONE',  ( 1.000000000000000000, 0.000000000000000000, 0.000000000000000000 ) ) ;
#237 = EDGE_CURVE ( 'NONE', #265, #158, #172, .T. ) ;
#238 = DIRECTION ( 'NONE',  ( 1.224646799147353454E-16, 0.000000000000000000, 1.000000000000000000 ) ) ;
#239 = DIRECTION ( 'NONE',  ( -1.000000000000000000, 0.000000000000000000, 1.224646799147353454E-16 ) ) ;
#240 = FACE_OUTER_BOUND ( 'NONE', #34, .T. ) ;
#241 = DIRECTION ( 'NONE',  ( -1.000000000000000000, 0.000000000000000000, 1.224646799147353454E-16 ) ) ;
#242 = EDGE_LOOP ( 'NONE', ( #157, #136, #180, #208 ) ) ;
#243 = ADVANCED_FACE ( 'NONE', ( #168 ), #159, .T. ) ;
#244 = EDGE_CURVE ( 'NONE', #56, #198, #1, .T. ) ;
#245 = DIRECTION ( 'NONE',  ( -1.224646799147353454E-16, -0.000000000000000000, -1.000000000000000000 ) ) ;
#246 = AXIS2_PLACEMENT_3D ( 'NONE', #222, #22, #55 ) ;
#247 = CARTESIAN_POINT ( 'NONE',  ( 3.539197317345352573E-33, 0.000000000000000000, 2.889973925387694330E-17 ) ) ;
#248 = DIRECTION ( 'NONE',  ( -1.224646799147353454E-16, -0.000000000000000000, -1.000000000000000000 ) ) ;
#249 = CARTESIAN_POINT ( 'NONE',  ( 1.446432783766537492E-16, 0.000000000000000000, 1.181102000000000096 ) ) ;
#250 = VERTEX_POINT ( 'NONE', #190 ) ;
#251 = CARTESIAN_POINT ( 'NONE',  ( -0.2362204999999998611, 0.000000000000000000, 1.182441673027071039 ) ) ;
#252 = ORIENTED_EDGE ( 'NONE', *, *, #105, .F. ) ;
#253 = DIRECTION ( 'NONE',  ( 0.000000000000000000, 0.000000000000000000, -1.000000000000000000 ) ) ;
#254 = EDGE_LOOP ( 'NONE', ( #63, #106 ) ) ;
#255 = CYLINDRICAL_SURFACE ( 'NONE', #229, 0.2359842795000000049 ) ;
#256 = DIRECTION ( 'NONE',  ( 0.000000000000000000, 0.000000000000000000, 1.000000000000000000 ) ) ;
#257 = CARTESIAN_POINT ( 'NONE',  ( -0.2359842795000000049, 0.000000000000000000, 2.889973925387694330E-17 ) ) ;
#258 = EDGE_CURVE ( 'NONE', #158, #287, #70, .T. ) ;
#259 = DIMENSIONAL_EXPONENTS ( 1.000000000000000000, 0.000000000000000000, 0.000000000000000000, 0.000000000000000000, 0.000000000000000000, 0.000000000000000000, 0.000000000000000000 ) ;
#260 = PRODUCT_DEFINITION_FORMATION_WITH_SPECIFIED_SOURCE ( 'ANY', '', #28, .NOT_KNOWN. ) ;
#261 = ADVANCED_FACE ( 'NONE', ( #145 ), #255, .T. ) ;
#262 = LINE ( 'NONE', #156, #18 ) ;
#263 = AXIS2_PLACEMENT_3D ( 'NONE', #131, #231, #154 ) ;
#264 = PRODUCT_DEFINITION_CONTEXT ( 'detailed design', #221, 'design' ) ;
#265 = VERTEX_POINT ( 'NONE', #39 ) ;
#266 = ORIENTED_EDGE ( 'NONE', *, *, #217, .F. ) ;
#267 = FILL_AREA_STYLE ('',( #14 ) ) ;
#268 = EDGE_LOOP ( 'NONE', ( #109, #10, #271, #266 ) ) ;
#269 = SURFACE_STYLE_USAGE ( .BOTH. , #293 ) ;
#270 = ADVANCED_FACE ( 'NONE', ( #296 ), #87, .F. ) ;
#271 = ORIENTED_EDGE ( 'NONE', *, *, #177, .T. ) ;
#272 = DIRECTION ( 'NONE',  ( 1.000000000000000000, 0.000000000000000000, -0.000000000000000000 ) ) ;
#273 = PRODUCT_DEFINITION ( 'UNKNOWN', '', #260, #264 ) ;
#274 = ORIENTED_EDGE ( 'NONE', *, *, #237, .F. ) ;
#275 = DIRECTION ( 'NONE',  ( -1.000000000000000000, 0.000000000000000000, 0.000000000000000000 ) ) ;
#276 = LINE ( 'NONE', #97, #200 ) ;
#277 = AXIS2_PLACEMENT_3D ( 'NONE', #249, #32, #163 ) ;
#278 = APPLICATION_PROTOCOL_DEFINITION ( 'draft international standard', 'automotive_design', 1998, #221 ) ;
#279 = DIRECTION ( 'NONE',  ( -1.000000000000000000, 0.000000000000000000, 0.000000000000000000 ) ) ;
#280 = VECTOR ( 'NONE', #42, 39.37007874015748143 ) ;
#281 = ADVANCED_FACE ( 'NONE', ( #62 ), #60, .T. ) ;
#282 = CARTESIAN_POINT ( 'NONE',  ( 0.000000000000000000, 0.000000000000000000, 3.267717000000000649 ) ) ;
#283 = CARTESIAN_POINT ( 'NONE',  ( 0.000000000000000000, 0.000000000000000000, 3.267717000000000649 ) ) ;
#284 = CARTESIAN_POINT ( 'NONE',  ( 0.000000000000000000, 0.000000000000000000, 3.267717000000000649 ) ) ;
#285 = AXIS2_PLACEMENT_3D ( 'NONE', #299, #99, #124 ) ;
#286 = STYLED_ITEM ( 'NONE', ( #173 ), #184 ) ;
#287 = VERTEX_POINT ( 'NONE', #49 ) ;
#288 = APPLICATION_CONTEXT ( 'automotive_design' ) ;
#289 = CARTESIAN_POINT ( 'NONE',  ( 0.000000000000000000, 0.000000000000000000, 0.000000000000000000 ) ) ;
#290 = ORIENTED_EDGE ( 'NONE', *, *, #27, .T. ) ;
#291 = PRESENTATION_LAYER_ASSIGNMENT (  '', '', ( #153 ) ) ;
#292 = ORIENTED_EDGE ( 'NONE', *, *, #117, .T. ) ;
#293 = SURFACE_SIDE_STYLE ('',( #115 ) ) ;
#294 = DIMENSIONAL_EXPONENTS ( 1.000000000000000000, 0.000000000000000000, 0.000000000000000000, 0.000000000000000000, 0.000000000000000000, 0.000000000000000000, 0.000000000000000000 ) ;
#295 = CARTESIAN_POINT ( 'NONE',  ( 0.2362204999999999999, 2.892866792179872647E-17, 3.252717000000002301 ) ) ;
#296 = FACE_OUTER_BOUND ( 'NONE', #132, .T. ) ;
#297 = AXIS2_PLACEMENT_3D ( 'NONE', #171, #45, #239 ) ;
#298 = VERTEX_POINT ( 'NONE', #146 ) ;
#299 = CARTESIAN_POINT ( 'NONE',  ( 1.446432783766537492E-16, 0.000000000000000000, 1.181102000000000096 ) ) ;
ENDSEC;
END-ISO-10303-21;
