ISO-10303-21;
HEADER;
FILE_DESCRIPTION (( 'STEP AP214' ),
    '1' );
FILE_NAME ('Micro_BEM-375-03.STEP',
    '2021-09-03T13:12:45',
    ( '' ),
    ( '' ),
    'SwSTEP 2.0',
    'SolidWorks 2020',
    '' );
FILE_SCHEMA (( 'AUTOMOTIVE_DESIGN' ));
ENDSEC;

DATA;
#1 = AXIS2_PLACEMENT_3D ( 'NONE', #239, #9, #188 ) ;
#2 = EDGE_CURVE ( 'NONE', #47, #50, #281, .T. ) ;
#3 = ORIENTED_EDGE ( 'NONE', *, *, #153, .F. ) ;
#4 = DIMENSIONAL_EXPONENTS ( 1.000000000000000000, 0.0000000000000000000, 0.0000000000000000000, 0.0000000000000000000, 0.0000000000000000000, 0.0000000000000000000, 0.0000000000000000000 ) ;
#5 = PRESENTATION_STYLE_ASSIGNMENT (( #174 ) ) ;
#6 = ORIENTED_EDGE ( 'NONE', *, *, #107, .T. ) ;
#7 = ORIENTED_EDGE ( 'NONE', *, *, #32, .F. ) ;
#8 = PRESENTATION_LAYER_ASSIGNMENT (  '', '', ( #255 ) ) ;
#9 = DIRECTION ( 'NONE',  ( 1.224646799147353207E-16, 0.0000000000000000000, 1.000000000000000000 ) ) ;
#10 = CARTESIAN_POINT ( 'NONE',  ( 1.071565949253934025E-16, 0.0000000000000000000, 0.8750000000000000000 ) ) ;
#11 = ORIENTED_EDGE ( 'NONE', *, *, #248, .T. ) ;
#12 = CARTESIAN_POINT ( 'NONE',  ( 0.0000000000000000000, 0.0000000000000000000, 2.500000000000000000 ) ) ;
#13 = EDGE_CURVE ( 'NONE', #205, #146, #30, .T. ) ;
#14 = FACE_OUTER_BOUND ( 'NONE', #71, .T. ) ;
#15 = PRODUCT_RELATED_PRODUCT_CATEGORY ( 'part', '', ( #234 ) ) ;
#16 = AXIS2_PLACEMENT_3D ( 'NONE', #310, #214, #83 ) ;
#17 =( GEOMETRIC_REPRESENTATION_CONTEXT ( 3 ) GLOBAL_UNCERTAINTY_ASSIGNED_CONTEXT ( ( #307 ) ) GLOBAL_UNIT_ASSIGNED_CONTEXT ( ( #73, #100, #241 ) ) REPRESENTATION_CONTEXT ( 'NONE', 'WORKASPACE' ) );
#18 = CARTESIAN_POINT ( 'NONE',  ( 1.071565949253934025E-16, 0.0000000000000000000, 0.8750000000000000000 ) ) ;
#19 = CARTESIAN_POINT ( 'NONE',  ( 3.440874803479328548E-17, 0.0000000000000000000, 0.0000000000000000000 ) ) ;
#20 = CARTESIAN_POINT ( 'NONE',  ( 0.1873124999999999929, 2.293916535652885596E-17, -2.293916535652885596E-17 ) ) ;
#21 = CARTESIAN_POINT ( 'NONE',  ( -0.1875000000000000278, 0.0000000000000000000, 2.484999999999999432 ) ) ;
#22 = ADVANCED_FACE ( 'NONE', ( #132 ), #31, .T. ) ;
#23 = VERTEX_POINT ( 'NONE', #133 ) ;
#24 =( NAMED_UNIT ( * ) PLANE_ANGLE_UNIT ( ) SI_UNIT ( $, .RADIAN. ) );
#25 = ORIENTED_EDGE ( 'NONE', *, *, #314, .F. ) ;
#26 = VECTOR ( 'NONE', #79, 39.37007874015747433 ) ;
#27 = ORIENTED_EDGE ( 'NONE', *, *, #107, .F. ) ;
#28 = ORIENTED_EDGE ( 'NONE', *, *, #32, .T. ) ;
#29 = ORIENTED_EDGE ( 'NONE', *, *, #318, .F. ) ;
#30 = CIRCLE ( 'NONE', #294, 0.1873124999999999929 ) ;
#31 = CYLINDRICAL_SURFACE ( 'NONE', #283, 0.1875000000000000278 ) ;
#32 = EDGE_CURVE ( 'NONE', #201, #47, #235, .T. ) ;
#33 = DIRECTION ( 'NONE',  ( -0.0000000000000000000, -0.0000000000000000000, -1.000000000000000000 ) ) ;
#34 = PLANE ( 'NONE',  #91 ) ;
#35 = AXIS2_PLACEMENT_3D ( 'NONE', #171, #65, #316 ) ;
#36 = DIRECTION ( 'NONE',  ( 0.0000000000000000000, 0.0000000000000000000, 1.000000000000000000 ) ) ;
#37 = DIRECTION ( 'NONE',  ( 1.224646799147353207E-16, 1.000000000000000000, -0.0000000000000000000 ) ) ;
#38 = DIRECTION ( 'NONE',  ( 0.0000000000000000000, 0.0000000000000000000, -1.000000000000000000 ) ) ;
#39 = CONICAL_SURFACE ( 'NONE', #206, 0.1724999999999995981, 0.7853981633974357335 ) ;
#40 = CARTESIAN_POINT ( 'NONE',  ( 0.1875000000000000278, 2.296212748401287726E-17, 2.500000000000000000 ) ) ;
#41 = DIRECTION ( 'NONE',  ( 1.224646799147353207E-16, 0.0000000000000000000, 1.000000000000000000 ) ) ;
#42 = DIRECTION ( 'NONE',  ( 1.000000000000000000, 0.0000000000000000000, 0.0000000000000000000 ) ) ;
#43 = DIRECTION ( 'NONE',  ( -0.0000000000000000000, -0.0000000000000000000, -1.000000000000000000 ) ) ;
#44 = EDGE_LOOP ( 'NONE', ( #129, #304 ) ) ;
#45 = VERTEX_POINT ( 'NONE', #157 ) ;
#46 = SURFACE_STYLE_FILL_AREA ( #49 ) ;
#47 = VERTEX_POINT ( 'NONE', #256 ) ;
#48 = VECTOR ( 'NONE', #298, 39.37007874015748854 ) ;
#49 = FILL_AREA_STYLE ('',( #252 ) ) ;
#50 = VERTEX_POINT ( 'NONE', #215 ) ;
#51 = ORIENTED_EDGE ( 'NONE', *, *, #2, .T. ) ;
#52 = DIRECTION ( 'NONE',  ( -0.0000000000000000000, -0.0000000000000000000, -1.000000000000000000 ) ) ;
#53 = ADVANCED_FACE ( 'NONE', ( #312 ), #260, .T. ) ;
#54 = CIRCLE ( 'NONE', #266, 0.1875000000000000278 ) ;
#55 = AXIS2_PLACEMENT_3D ( 'NONE', #264, #63, #242 ) ;
#56 = DIMENSIONAL_EXPONENTS ( 1.000000000000000000, 0.0000000000000000000, 0.0000000000000000000, 0.0000000000000000000, 0.0000000000000000000, 0.0000000000000000000, 0.0000000000000000000 ) ;
#57 = DIRECTION ( 'NONE',  ( 0.1736481776669313859, 0.0000000000000000000, 0.9848077530122077983 ) ) ;
#58 = DIRECTION ( 'NONE',  ( -1.000000000000000000, 0.0000000000000000000, 0.0000000000000000000 ) ) ;
#59 = CARTESIAN_POINT ( 'NONE',  ( -0.1873124999999999096, 2.293916535652885904E-17, 0.8750000000000000000 ) ) ;
#60 = AXIS2_PLACEMENT_3D ( 'NONE', #134, #61, #209 ) ;
#61 = DIRECTION ( 'NONE',  ( 0.0000000000000000000, 0.0000000000000000000, 1.000000000000000000 ) ) ;
#62 = EDGE_CURVE ( 'NONE', #225, #230, #176, .T. ) ;
#63 = DIRECTION ( 'NONE',  ( -1.224646799147353207E-16, -0.0000000000000000000, -1.000000000000000000 ) ) ;
#64 = CARTESIAN_POINT ( 'NONE',  ( -0.1724999999999995981, 0.0000000000000000000, 2.500000000000000000 ) ) ;
#65 = DIRECTION ( 'NONE',  ( 0.0000000000000000000, -1.000000000000000000, 0.0000000000000000000 ) ) ;
#66 = CARTESIAN_POINT ( 'NONE',  ( 1.071565949253934025E-16, 0.0000000000000000000, 0.8750000000000000000 ) ) ;
#67 = FACE_OUTER_BOUND ( 'NONE', #175, .T. ) ;
#68 = CIRCLE ( 'NONE', #110, 0.1873125000000000207 ) ;
#69 =( NAMED_UNIT ( * ) SI_UNIT ( $, .STERADIAN. ) SOLID_ANGLE_UNIT ( ) );
#70 = PRODUCT_DEFINITION ( 'UNKNOWN', '', #289, #84 ) ;
#71 = EDGE_LOOP ( 'NONE', ( #74, #164, #96, #25 ) ) ;
#72 =( LENGTH_UNIT ( ) NAMED_UNIT ( * ) SI_UNIT ( $, .METRE. ) );
#73 =( CONVERSION_BASED_UNIT ( 'INCH', #323 ) LENGTH_UNIT ( ) NAMED_UNIT ( #4 ) );
#74 = ORIENTED_EDGE ( 'NONE', *, *, #165, .T. ) ;
#75 = EDGE_LOOP ( 'NONE', ( #112, #253, #155 ) ) ;
#76 = SURFACE_SIDE_STYLE ('',( #46 ) ) ;
#77 = ORIENTED_EDGE ( 'NONE', *, *, #2, .F. ) ;
#78 = EDGE_CURVE ( 'NONE', #280, #146, #288, .T. ) ;
#79 = DIRECTION ( 'NONE',  ( -0.1736481776669311916, 2.126576849575783316E-17, 0.9848077530122080203 ) ) ;
#80 = DIRECTION ( 'NONE',  ( 1.000000000000000000, 0.0000000000000000000, 0.0000000000000000000 ) ) ;
#81 = DIRECTION ( 'NONE',  ( 1.000000000000000000, 0.0000000000000000000, 0.0000000000000000000 ) ) ;
#82 = CIRCLE ( 'NONE', #265, 0.1875000000000000278 ) ;
#83 = DIRECTION ( 'NONE',  ( 1.000000000000000000, 0.0000000000000000000, 0.0000000000000000000 ) ) ;
#84 = PRODUCT_DEFINITION_CONTEXT ( 'detailed design', #212, 'design' ) ;
#85 = CARTESIAN_POINT ( 'NONE',  ( 2.293916535652885596E-17, 0.0000000000000000000, 0.1873124999999999929 ) ) ;
#86 = DIRECTION ( 'NONE',  ( -1.224646799147353207E-16, -0.0000000000000000000, -1.000000000000000000 ) ) ;
#87 = CARTESIAN_POINT ( 'NONE',  ( 0.0000000000000000000, 0.0000000000000000000, 2.500000000000000000 ) ) ;
#88 = DIRECTION ( 'NONE',  ( 0.0000000000000000000, 0.0000000000000000000, -1.000000000000000000 ) ) ;
#89 = CARTESIAN_POINT ( 'NONE',  ( 0.0000000000000000000, 0.0000000000000000000, 2.500000000000000000 ) ) ;
#90 = AXIS2_PLACEMENT_3D ( 'NONE', #282, #86, #311 ) ;
#91 = AXIS2_PLACEMENT_3D ( 'NONE', #186, #136, #284 ) ;
#92 = DIRECTION ( 'NONE',  ( -1.224646799147353207E-16, -0.0000000000000000000, -1.000000000000000000 ) ) ;
#93 = DIRECTION ( 'NONE',  ( -1.224646799147353207E-16, -0.0000000000000000000, -1.000000000000000000 ) ) ;
#94 = EDGE_CURVE ( 'NONE', #45, #50, #211, .T. ) ;
#95 = SURFACE_STYLE_USAGE ( .BOTH. , #121 ) ;
#96 = ORIENTED_EDGE ( 'NONE', *, *, #78, .T. ) ;
#97 = CLOSED_SHELL ( 'NONE', ( #126, #308, #167, #279, #257, #22, #104, #216, #189, #286, #53 ) ) ;
#98 = AXIS2_PLACEMENT_3D ( 'NONE', #12, #36, #81 ) ;
#99 = ORIENTED_EDGE ( 'NONE', *, *, #153, .T. ) ;
#100 =( NAMED_UNIT ( * ) PLANE_ANGLE_UNIT ( ) SI_UNIT ( $, .RADIAN. ) );
#101 = ORIENTED_EDGE ( 'NONE', *, *, #130, .T. ) ;
#102 = VECTOR ( 'NONE', #52, 39.37007874015748143 ) ;
#103 = ORIENTED_EDGE ( 'NONE', *, *, #116, .F. ) ;
#104 = ADVANCED_FACE ( 'NONE', ( #217 ), #34, .T. ) ;
#105 = UNCERTAINTY_MEASURE_WITH_UNIT (LENGTH_MEASURE( 1.000000000000000082E-05 ), #181, 'distance_accuracy_value', 'NONE');
#106 = DIRECTION ( 'NONE',  ( 0.7071067811865385799, 8.659560562354823157E-17, -0.7071067811865563435 ) ) ;
#107 = EDGE_CURVE ( 'NONE', #225, #23, #161, .T. ) ;
#108 = CARTESIAN_POINT ( 'NONE',  ( -0.1875000000000000278, 0.0000000000000000000, 2.500000000000000000 ) ) ;
#109 = SPHERICAL_SURFACE ( 'NONE', #16, 0.1873124999999999929 ) ;
#110 = AXIS2_PLACEMENT_3D ( 'NONE', #18, #92, #292 ) ;
#111 = DIRECTION ( 'NONE',  ( 0.0000000000000000000, 1.000000000000000000, 0.0000000000000000000 ) ) ;
#112 = ORIENTED_EDGE ( 'NONE', *, *, #193, .F. ) ;
#113 = CARTESIAN_POINT ( 'NONE',  ( 1.072868196215332272E-16, 0.0000000000000000000, 0.8760633653411783461 ) ) ;
#114 = CONICAL_SURFACE ( 'NONE', #156, 0.1724999999999995981, 0.7853981633974357335 ) ;
#115 = CIRCLE ( 'NONE', #151, 0.1875000000000000278 ) ;
#116 = EDGE_CURVE ( 'NONE', #230, #225, #236, .T. ) ;
#117 = CYLINDRICAL_SURFACE ( 'NONE', #55, 0.1873124999999999929 ) ;
#118 = FACE_OUTER_BOUND ( 'NONE', #180, .T. ) ;
#119 = DIRECTION ( 'NONE',  ( 1.000000000000000000, 0.0000000000000000000, 0.0000000000000000000 ) ) ;
#120 = CARTESIAN_POINT ( 'NONE',  ( 0.1873125000000000207, 2.293916535652885596E-17, 0.1873124999999999374 ) ) ;
#121 = SURFACE_SIDE_STYLE ('',( #276 ) ) ;
#122 = EDGE_CURVE ( 'NONE', #272, #47, #287, .T. ) ;
#123 =( LENGTH_UNIT ( ) NAMED_UNIT ( * ) SI_UNIT ( $, .METRE. ) );
#124 = ORIENTED_EDGE ( 'NONE', *, *, #122, .F. ) ;
#125 = AXIS2_PLACEMENT_3D ( 'NONE', #322, #296, #195 ) ;
#126 = ADVANCED_FACE ( 'NONE', ( #183 ), #109, .T. ) ;
#127 = EDGE_LOOP ( 'NONE', ( #277, #99, #77, #7 ) ) ;
#128 = EDGE_LOOP ( 'NONE', ( #274, #101, #204, #305 ) ) ;
#129 = ORIENTED_EDGE ( 'NONE', *, *, #116, .T. ) ;
#130 = EDGE_CURVE ( 'NONE', #45, #272, #185, .T. ) ;
#131 = AXIS2_PLACEMENT_3D ( 'NONE', #85, #111, #137 ) ;
#132 = FACE_OUTER_BOUND ( 'NONE', #152, .T. ) ;
#133 = CARTESIAN_POINT ( 'NONE',  ( 0.1875000000000000278, 2.296212748401287726E-17, 2.484999999999999432 ) ) ;
#134 = CARTESIAN_POINT ( 'NONE',  ( 0.0000000000000000000, 0.0000000000000000000, 2.500000000000000000 ) ) ;
#135 = COLOUR_RGB ( '',0.7921568627450980005, 0.8196078431372548767, 0.9333333333333333481 ) ;
#136 = DIRECTION ( 'NONE',  ( 0.0000000000000000000, 0.0000000000000000000, 1.000000000000000000 ) ) ;
#137 = DIRECTION ( 'NONE',  ( 1.000000000000000000, 0.0000000000000000000, 0.0000000000000000000 ) ) ;
#138 = LINE ( 'NONE', #145, #48 ) ;
#139 = CIRCLE ( 'NONE', #35, 0.1873124999999999929 ) ;
#140 =( GEOMETRIC_REPRESENTATION_CONTEXT ( 3 ) GLOBAL_UNCERTAINTY_ASSIGNED_CONTEXT ( ( #105 ) ) GLOBAL_UNIT_ASSIGNED_CONTEXT ( ( #181, #228, #69 ) ) REPRESENTATION_CONTEXT ( 'NONE', 'WORKASPACE' ) );
#141 = CARTESIAN_POINT ( 'NONE',  ( 0.1724999999999995981, 2.204364238465233357E-17, 2.500000000000000000 ) ) ;
#142 = DIRECTION ( 'NONE',  ( 1.000000000000000000, 0.0000000000000000000, 0.0000000000000000000 ) ) ;
#143 = DIRECTION ( 'NONE',  ( 0.0000000000000000000, 0.0000000000000000000, -1.000000000000000000 ) ) ;
#144 = VECTOR ( 'NONE', #57, 39.37007874015748143 ) ;
#145 = CARTESIAN_POINT ( 'NONE',  ( -0.1724999999999995981, 0.0000000000000000000, 2.500000000000000000 ) ) ;
#146 = VERTEX_POINT ( 'NONE', #160 ) ;
#147 = PRODUCT_DEFINITION_SHAPE ( 'NONE', 'NONE',  #70 ) ;
#148 =( LENGTH_UNIT ( ) NAMED_UNIT ( * ) SI_UNIT ( $, .METRE. ) );
#149 = ORIENTED_EDGE ( 'NONE', *, *, #94, .T. ) ;
#150 = VECTOR ( 'NONE', #106, 39.37007874015748854 ) ;
#151 = AXIS2_PLACEMENT_3D ( 'NONE', #267, #143, #142 ) ;
#152 = EDGE_LOOP ( 'NONE', ( #3, #324, #28, #159 ) ) ;
#153 = EDGE_CURVE ( 'NONE', #23, #50, #237, .T. ) ;
#154 = ORIENTED_EDGE ( 'NONE', *, *, #193, .T. ) ;
#155 = ORIENTED_EDGE ( 'NONE', *, *, #78, .F. ) ;
#156 = AXIS2_PLACEMENT_3D ( 'NONE', #89, #38, #198 ) ;
#157 = CARTESIAN_POINT ( 'NONE',  ( 0.1873125000000001317, 0.0000000000000000000, 0.8750000000000000000 ) ) ;
#158 = MECHANICAL_DESIGN_GEOMETRIC_PRESENTATION_REPRESENTATION (  '', ( #207 ), #17 ) ;
#159 = ORIENTED_EDGE ( 'NONE', *, *, #248, .F. ) ;
#160 = CARTESIAN_POINT ( 'NONE',  ( -0.1873124999999999374, 0.0000000000000000000, 0.1873125000000000207 ) ) ;
#161 = LINE ( 'NONE', #313, #150 ) ;
#162 = APPLICATION_CONTEXT ( 'automotive_design' ) ;
#163 = ADVANCED_BREP_SHAPE_REPRESENTATION ( 'Micro_BEM-375-03', ( #325, #179 ), #140 ) ;
#164 = ORIENTED_EDGE ( 'NONE', *, *, #197, .T. ) ;
#165 = EDGE_CURVE ( 'NONE', #272, #45, #68, .T. ) ;
#166 = CARTESIAN_POINT ( 'NONE',  ( -0.1873124999999999929, 0.0000000000000000000, 2.293916535652885596E-17 ) ) ;
#167 = ADVANCED_FACE ( 'NONE', ( #67 ), #315, .T. ) ;
#168 = DIRECTION ( 'NONE',  ( -1.000000000000000000, 0.0000000000000000000, 0.0000000000000000000 ) ) ;
#169 = CARTESIAN_POINT ( 'NONE',  ( 0.0000000000000000000, 0.0000000000000000000, 2.484999999999999432 ) ) ;
#170 = CYLINDRICAL_SURFACE ( 'NONE', #233, 0.1875000000000000278 ) ;
#171 = CARTESIAN_POINT ( 'NONE',  ( 2.293916535652885596E-17, 0.0000000000000000000, 0.1873124999999999929 ) ) ;
#172 = ORIENTED_EDGE ( 'NONE', *, *, #306, .F. ) ;
#173 = EDGE_LOOP ( 'NONE', ( #208, #6, #182, #29 ) ) ;
#174 = SURFACE_STYLE_USAGE ( .BOTH. , #76 ) ;
#175 = EDGE_LOOP ( 'NONE', ( #232, #299, #51, #275 ) ) ;
#176 = CIRCLE ( 'NONE', #98, 0.1724999999999995981 ) ;
#177 = AXIS2_PLACEMENT_3D ( 'NONE', #223, #93, #199 ) ;
#178 = LENGTH_MEASURE_WITH_UNIT ( LENGTH_MEASURE( 0.02539999999999999897 ), #148 );
#179 = AXIS2_PLACEMENT_3D ( 'NONE', #229, #258, #80 ) ;
#180 = EDGE_LOOP ( 'NONE', ( #124, #249, #149, #11 ) ) ;
#181 =( CONVERSION_BASED_UNIT ( 'INCH', #178 ) LENGTH_UNIT ( ) NAMED_UNIT ( #303 ) );
#182 = ORIENTED_EDGE ( 'NONE', *, *, #301, .F. ) ;
#183 = FACE_OUTER_BOUND ( 'NONE', #75, .T. ) ;
#184 = APPLICATION_PROTOCOL_DEFINITION ( 'draft international standard', 'automotive_design', 1998, #212 ) ;
#185 = CIRCLE ( 'NONE', #213, 0.1873125000000000207 ) ;
#186 = CARTESIAN_POINT ( 'NONE',  ( 0.0000000000000000000, 0.0000000000000000000, 2.500000000000000000 ) ) ;
#187 = DIRECTION ( 'NONE',  ( -1.224646799147353207E-16, -0.0000000000000000000, -1.000000000000000000 ) ) ;
#188 = DIRECTION ( 'NONE',  ( -1.000000000000000000, 0.0000000000000000000, 1.823055050827002517E-16 ) ) ;
#189 = ADVANCED_FACE ( 'NONE', ( #118 ), #191, .T. ) ;
#190 = CARTESIAN_POINT ( 'NONE',  ( 0.0000000000000000000, 0.0000000000000000000, 2.500000000000000000 ) ) ;
#191 = CONICAL_SURFACE ( 'NONE', #226, 0.1873125000000000207, 0.1745329251994338915 ) ;
#192 = SHAPE_DEFINITION_REPRESENTATION ( #147, #163 ) ;
#193 = EDGE_CURVE ( 'NONE', #205, #280, #139, .T. ) ;
#194 = DIRECTION ( 'NONE',  ( 1.000000000000000000, 0.0000000000000000000, 0.0000000000000000000 ) ) ;
#195 = DIRECTION ( 'NONE',  ( -1.000000000000000000, 0.0000000000000000000, 1.823055050827002517E-16 ) ) ;
#196 = FACE_OUTER_BOUND ( 'NONE', #128, .T. ) ;
#197 = EDGE_CURVE ( 'NONE', #45, #280, #291, .T. ) ;
#198 = DIRECTION ( 'NONE',  ( -1.000000000000000000, 0.0000000000000000000, 0.0000000000000000000 ) ) ;
#199 = DIRECTION ( 'NONE',  ( -1.000000000000000000, 0.0000000000000000000, 1.224646799147352961E-16 ) ) ;
#200 = PRESENTATION_STYLE_ASSIGNMENT (( #95 ) ) ;
#201 = VERTEX_POINT ( 'NONE', #21 ) ;
#202 = EDGE_LOOP ( 'NONE', ( #27, #103, #251, #172 ) ) ;
#203 = APPLICATION_PROTOCOL_DEFINITION ( 'draft international standard', 'automotive_design', 1998, #162 ) ;
#204 = ORIENTED_EDGE ( 'NONE', *, *, #314, .T. ) ;
#205 = VERTEX_POINT ( 'NONE', #19 ) ;
#206 = AXIS2_PLACEMENT_3D ( 'NONE', #218, #88, #168 ) ;
#207 = STYLED_ITEM ( 'NONE', ( #200 ), #163 ) ;
#208 = ORIENTED_EDGE ( 'NONE', *, *, #62, .F. ) ;
#209 = DIRECTION ( 'NONE',  ( 1.000000000000000000, 0.0000000000000000000, 0.0000000000000000000 ) ) ;
#210 = UNCERTAINTY_MEASURE_WITH_UNIT (LENGTH_MEASURE( 1.000000000000000082E-05 ), #231, 'distance_accuracy_value', 'NONE');
#211 = LINE ( 'NONE', #290, #144 ) ;
#212 = APPLICATION_CONTEXT ( 'automotive_design' ) ;
#213 = AXIS2_PLACEMENT_3D ( 'NONE', #10, #187, #58 ) ;
#214 = DIRECTION ( 'NONE',  ( 0.0000000000000000000, 1.000000000000000000, 0.0000000000000000000 ) ) ;
#215 = CARTESIAN_POINT ( 'NONE',  ( 0.1875000000000000833, 2.296212748401288650E-17, 0.8760633653411783461 ) ) ;
#216 = ADVANCED_FACE ( 'NONE', ( #321 ), #39, .T. ) ;
#217 = FACE_OUTER_BOUND ( 'NONE', #44, .T. ) ;
#218 = CARTESIAN_POINT ( 'NONE',  ( 0.0000000000000000000, 0.0000000000000000000, 2.500000000000000000 ) ) ;
#219 = VECTOR ( 'NONE', #240, 39.37007874015748143 ) ;
#220 = DIRECTION ( 'NONE',  ( 1.224646799147353207E-16, 0.0000000000000000000, 1.000000000000000000 ) ) ;
#221 = DIRECTION ( 'NONE',  ( -1.000000000000000000, 0.0000000000000000000, 0.0000000000000000000 ) ) ;
#222 = CARTESIAN_POINT ( 'NONE',  ( -0.1873124999999999096, 2.295064642027087123E-17, 0.8750000000000000000 ) ) ;
#223 = CARTESIAN_POINT ( 'NONE',  ( 0.0000000000000000000, 0.0000000000000000000, 0.0000000000000000000 ) ) ;
#224 = FILL_AREA_STYLE ('',( #302 ) ) ;
#225 = VERTEX_POINT ( 'NONE', #141 ) ;
#226 = AXIS2_PLACEMENT_3D ( 'NONE', #293, #41, #119 ) ;
#227 = MECHANICAL_DESIGN_GEOMETRIC_PRESENTATION_REPRESENTATION (  '', ( #255 ), #300 ) ;
#228 =( NAMED_UNIT ( * ) PLANE_ANGLE_UNIT ( ) SI_UNIT ( $, .RADIAN. ) );
#229 = CARTESIAN_POINT ( 'NONE',  ( 0.0000000000000000000, 0.0000000000000000000, 0.0000000000000000000 ) ) ;
#230 = VERTEX_POINT ( 'NONE', #64 ) ;
#231 =( CONVERSION_BASED_UNIT ( 'INCH', #250 ) LENGTH_UNIT ( ) NAMED_UNIT ( #56 ) );
#232 = ORIENTED_EDGE ( 'NONE', *, *, #165, .F. ) ;
#233 = AXIS2_PLACEMENT_3D ( 'NONE', #87, #43, #221 ) ;
#234 = PRODUCT ( 'Micro_BEM-375-03', 'Micro_BEM-375-03', '', ( #244 ) ) ;
#235 = LINE ( 'NONE', #108, #102 ) ;
#236 = CIRCLE ( 'NONE', #60, 0.1724999999999995981 ) ;
#237 = LINE ( 'NONE', #40, #219 ) ;
#238 = COLOUR_RGB ( '',0.7921568627450980005, 0.8196078431372548767, 0.9333333333333333481 ) ;
#239 = CARTESIAN_POINT ( 'NONE',  ( 2.293916535652885596E-17, 0.0000000000000000000, 0.1873124999999999929 ) ) ;
#240 = DIRECTION ( 'NONE',  ( -0.0000000000000000000, -0.0000000000000000000, -1.000000000000000000 ) ) ;
#241 =( NAMED_UNIT ( * ) SI_UNIT ( $, .STERADIAN. ) SOLID_ANGLE_UNIT ( ) );
#242 = DIRECTION ( 'NONE',  ( -1.000000000000000000, 0.0000000000000000000, 1.224646799147352961E-16 ) ) ;
#243 = VECTOR ( 'NONE', #269, 39.37007874015748143 ) ;
#244 = PRODUCT_CONTEXT ( 'NONE', #162, 'mechanical' ) ;
#245 = FACE_OUTER_BOUND ( 'NONE', #127, .T. ) ;
#246 = CYLINDRICAL_SURFACE ( 'NONE', #177, 0.1873124999999999929 ) ;
#247 = DIRECTION ( 'NONE',  ( -1.224646799147353207E-16, -0.0000000000000000000, -1.000000000000000000 ) ) ;
#248 = EDGE_CURVE ( 'NONE', #50, #47, #82, .T. ) ;
#249 = ORIENTED_EDGE ( 'NONE', *, *, #130, .F. ) ;
#250 = LENGTH_MEASURE_WITH_UNIT ( LENGTH_MEASURE( 0.02539999999999999897 ), #72 );
#251 = ORIENTED_EDGE ( 'NONE', *, *, #318, .T. ) ;
#252 = FILL_AREA_STYLE_COLOUR ( '', #238 ) ;
#253 = ORIENTED_EDGE ( 'NONE', *, *, #13, .T. ) ;
#254 = EDGE_LOOP ( 'NONE', ( #309, #154, #259 ) ) ;
#255 = STYLED_ITEM ( 'NONE', ( #5 ), #325 ) ;
#256 = CARTESIAN_POINT ( 'NONE',  ( -0.1874999999999999167, 0.0000000000000000000, 0.8760633653411783461 ) ) ;
#257 = ADVANCED_FACE ( 'NONE', ( #245 ), #170, .T. ) ;
#258 = DIRECTION ( 'NONE',  ( 0.0000000000000000000, 0.0000000000000000000, 1.000000000000000000 ) ) ;
#259 = ORIENTED_EDGE ( 'NONE', *, *, #273, .F. ) ;
#260 = SPHERICAL_SURFACE ( 'NONE', #131, 0.1873124999999999929 ) ;
#261 = DIRECTION ( 'NONE',  ( -1.000000000000000000, 1.224646799147352961E-16, 0.0000000000000000000 ) ) ;
#262 = CARTESIAN_POINT ( 'NONE',  ( 2.293916535652885596E-17, 0.0000000000000000000, 0.1873124999999999929 ) ) ;
#263 = DIRECTION ( 'NONE',  ( -1.224646799147353207E-16, -0.0000000000000000000, -1.000000000000000000 ) ) ;
#264 = CARTESIAN_POINT ( 'NONE',  ( 0.0000000000000000000, 0.0000000000000000000, 0.0000000000000000000 ) ) ;
#265 = AXIS2_PLACEMENT_3D ( 'NONE', #113, #247, #194 ) ;
#266 = AXIS2_PLACEMENT_3D ( 'NONE', #169, #268, #42 ) ;
#267 = CARTESIAN_POINT ( 'NONE',  ( 0.0000000000000000000, 0.0000000000000000000, 2.484999999999999432 ) ) ;
#268 = DIRECTION ( 'NONE',  ( 0.0000000000000000000, 0.0000000000000000000, -1.000000000000000000 ) ) ;
#269 = DIRECTION ( 'NONE',  ( -1.224646799147353207E-16, -0.0000000000000000000, -1.000000000000000000 ) ) ;
#270 = CIRCLE ( 'NONE', #125, 0.1873124999999999929 ) ;
#271 = VECTOR ( 'NONE', #263, 39.37007874015748143 ) ;
#272 = VERTEX_POINT ( 'NONE', #222 ) ;
#273 = EDGE_CURVE ( 'NONE', #146, #280, #270, .T. ) ;
#274 = ORIENTED_EDGE ( 'NONE', *, *, #197, .F. ) ;
#275 = ORIENTED_EDGE ( 'NONE', *, *, #94, .F. ) ;
#276 = SURFACE_STYLE_FILL_AREA ( #224 ) ;
#277 = ORIENTED_EDGE ( 'NONE', *, *, #301, .T. ) ;
#278 =( NAMED_UNIT ( * ) SI_UNIT ( $, .STERADIAN. ) SOLID_ANGLE_UNIT ( ) );
#279 = ADVANCED_FACE ( 'NONE', ( #319 ), #114, .T. ) ;
#280 = VERTEX_POINT ( 'NONE', #120 ) ;
#281 = CIRCLE ( 'NONE', #90, 0.1875000000000000278 ) ;
#282 = CARTESIAN_POINT ( 'NONE',  ( 1.072868196215332272E-16, 0.0000000000000000000, 0.8760633653411783461 ) ) ;
#283 = AXIS2_PLACEMENT_3D ( 'NONE', #190, #33, #285 ) ;
#284 = DIRECTION ( 'NONE',  ( 1.000000000000000000, 0.0000000000000000000, -0.0000000000000000000 ) ) ;
#285 = DIRECTION ( 'NONE',  ( -1.000000000000000000, 0.0000000000000000000, 0.0000000000000000000 ) ) ;
#286 = ADVANCED_FACE ( 'NONE', ( #196 ), #117, .T. ) ;
#287 = LINE ( 'NONE', #59, #26 ) ;
#288 = CIRCLE ( 'NONE', #1, 0.1873124999999999929 ) ;
#289 = PRODUCT_DEFINITION_FORMATION_WITH_SPECIFIED_SOURCE ( 'ANY', '', #234, .NOT_KNOWN. ) ;
#290 = CARTESIAN_POINT ( 'NONE',  ( 0.1873125000000001317, 0.0000000000000000000, 0.8750000000000000000 ) ) ;
#291 = LINE ( 'NONE', #20, #243 ) ;
#292 = DIRECTION ( 'NONE',  ( -1.000000000000000000, 0.0000000000000000000, 0.0000000000000000000 ) ) ;
#293 = CARTESIAN_POINT ( 'NONE',  ( 1.071565949253934025E-16, 0.0000000000000000000, 0.8750000000000000000 ) ) ;
#294 = AXIS2_PLACEMENT_3D ( 'NONE', #262, #37, #261 ) ;
#295 = PRESENTATION_LAYER_ASSIGNMENT (  '', '', ( #207 ) ) ;
#296 = DIRECTION ( 'NONE',  ( 1.224646799147353207E-16, 0.0000000000000000000, 1.000000000000000000 ) ) ;
#297 = LINE ( 'NONE', #166, #271 ) ;
#298 = DIRECTION ( 'NONE',  ( -0.7071067811865385799, 0.0000000000000000000, -0.7071067811865563435 ) ) ;
#299 = ORIENTED_EDGE ( 'NONE', *, *, #122, .T. ) ;
#300 =( GEOMETRIC_REPRESENTATION_CONTEXT ( 3 ) GLOBAL_UNCERTAINTY_ASSIGNED_CONTEXT ( ( #210 ) ) GLOBAL_UNIT_ASSIGNED_CONTEXT ( ( #231, #24, #278 ) ) REPRESENTATION_CONTEXT ( 'NONE', 'WORKASPACE' ) );
#301 = EDGE_CURVE ( 'NONE', #201, #23, #54, .T. ) ;
#302 = FILL_AREA_STYLE_COLOUR ( '', #135 ) ;
#303 = DIMENSIONAL_EXPONENTS ( 1.000000000000000000, 0.0000000000000000000, 0.0000000000000000000, 0.0000000000000000000, 0.0000000000000000000, 0.0000000000000000000, 0.0000000000000000000 ) ;
#304 = ORIENTED_EDGE ( 'NONE', *, *, #62, .T. ) ;
#305 = ORIENTED_EDGE ( 'NONE', *, *, #273, .T. ) ;
#306 = EDGE_CURVE ( 'NONE', #23, #201, #115, .T. ) ;
#307 = UNCERTAINTY_MEASURE_WITH_UNIT (LENGTH_MEASURE( 1.000000000000000082E-05 ), #73, 'distance_accuracy_value', 'NONE');
#308 = ADVANCED_FACE ( 'NONE', ( #14 ), #246, .T. ) ;
#309 = ORIENTED_EDGE ( 'NONE', *, *, #13, .F. ) ;
#310 = CARTESIAN_POINT ( 'NONE',  ( 2.293916535652885596E-17, 0.0000000000000000000, 0.1873124999999999929 ) ) ;
#311 = DIRECTION ( 'NONE',  ( 1.000000000000000000, 0.0000000000000000000, 0.0000000000000000000 ) ) ;
#312 = FACE_OUTER_BOUND ( 'NONE', #254, .T. ) ;
#313 = CARTESIAN_POINT ( 'NONE',  ( 0.1724999999999995981, 2.112515728529179297E-17, 2.500000000000000000 ) ) ;
#314 = EDGE_CURVE ( 'NONE', #272, #146, #297, .T. ) ;
#315 = CONICAL_SURFACE ( 'NONE', #320, 0.1873125000000000207, 0.1745329251994338915 ) ;
#316 = DIRECTION ( 'NONE',  ( 0.0000000000000000000, 0.0000000000000000000, -1.000000000000000000 ) ) ;
#317 = DIRECTION ( 'NONE',  ( 1.000000000000000000, 0.0000000000000000000, 0.0000000000000000000 ) ) ;
#318 = EDGE_CURVE ( 'NONE', #230, #201, #138, .T. ) ;
#319 = FACE_OUTER_BOUND ( 'NONE', #173, .T. ) ;
#320 = AXIS2_PLACEMENT_3D ( 'NONE', #66, #220, #317 ) ;
#321 = FACE_OUTER_BOUND ( 'NONE', #202, .T. ) ;
#322 = CARTESIAN_POINT ( 'NONE',  ( 2.293916535652885596E-17, 0.0000000000000000000, 0.1873124999999999929 ) ) ;
#323 = LENGTH_MEASURE_WITH_UNIT ( LENGTH_MEASURE( 0.02539999999999999897 ), #123 );
#324 = ORIENTED_EDGE ( 'NONE', *, *, #306, .T. ) ;
#325 = MANIFOLD_SOLID_BREP ( 'Fillet1', #97 ) ;
ENDSEC;
END-ISO-10303-21;
