ISO-10303-21;
HEADER;
FILE_DESCRIPTION (( 'STEP AP214' ),
    '1' );
FILE_NAME ('59728.STEP',
    '2023-07-24T15:29:43',
    ( '' ),
    ( '' ),
    'SwSTEP 2.0',
    'SolidWorks 2023',
    '' );
FILE_SCHEMA (( 'AUTOMOTIVE_DESIGN' ));
ENDSEC;

DATA;
#1 = AXIS2_PLACEMENT_3D ( 'NONE', #144, #146, #92 ) ;
#2 = CARTESIAN_POINT ( 'NONE',  ( 0.000000000000000000, 0.5000000000000000000, -2.500000000000000444 ) ) ;
#3 = EDGE_LOOP ( 'NONE', ( #190, #260 ) ) ;
#4 = CARTESIAN_POINT ( 'NONE',  ( 3.184081677783117402E-15, 63.00000000000000000, 0.000000000000000000 ) ) ;
#5 = EDGE_LOOP ( 'NONE', ( #175, #262 ) ) ;
#6 = LINE ( 'NONE', #367, #182 ) ;
#7 = EDGE_CURVE ( 'NONE', #174, #40, #186, .T. ) ;
#8 = VERTEX_POINT ( 'NONE', #38 ) ;
#9 = CARTESIAN_POINT ( 'NONE',  ( 3.184081677783117402E-15, 63.00000000000000000, 0.000000000000000000 ) ) ;
#10 = FILL_AREA_STYLE_COLOUR ( '', #27 ) ;
#11 = DIRECTION ( 'NONE',  ( -0.000000000000000000, -1.000000000000000000, -0.000000000000000000 ) ) ;
#12 =( NAMED_UNIT ( * ) PLANE_ANGLE_UNIT ( ) SI_UNIT ( $, .RADIAN. ) );
#13 = CLOSED_SHELL ( 'NONE', ( #228, #32, #188, #246 ) ) ;
#14 = CARTESIAN_POINT ( 'NONE',  ( 0.000000000000000000, 12.00000000000000000, 0.000000000000000000 ) ) ;
#15 = SURFACE_SIDE_STYLE ('',( #181 ) ) ;
#16 = EDGE_CURVE ( 'NONE', #20, #145, #148, .T. ) ;
#17 = SURFACE_STYLE_USAGE ( .BOTH. , #272 ) ;
#18 =( LENGTH_UNIT ( ) NAMED_UNIT ( * ) SI_UNIT ( .MILLI., .METRE. ) );
#19 = COLOUR_RGB ( '',1.000000000000000000, 0.000000000000000000, 0.000000000000000000 ) ;
#20 = VERTEX_POINT ( 'NONE', #31 ) ;
#21 = UNCERTAINTY_MEASURE_WITH_UNIT (LENGTH_MEASURE( 1.000000000000000082E-05 ), #18, 'distance_accuracy_value', 'NONE');
#22 = STYLED_ITEM ( 'NONE', ( #24 ), #353 ) ;
#23 = FACE_OUTER_BOUND ( 'NONE', #286, .T. ) ;
#24 = PRESENTATION_STYLE_ASSIGNMENT (( #17 ) ) ;
#25 = UNCERTAINTY_MEASURE_WITH_UNIT (LENGTH_MEASURE( 1.000000000000000082E-05 ), #56, 'distance_accuracy_value', 'NONE');
#26 = CARTESIAN_POINT ( 'NONE',  ( 0.000000000000000000, 0.5000000000000000000, -3.000000000000000000 ) ) ;
#27 = COLOUR_RGB ( '',0.7921568627450980005, 0.8196078431372548767, 0.9333333333333333481 ) ;
#28 = SURFACE_STYLE_USAGE ( .BOTH. , #275 ) ;
#29 = UNCERTAINTY_MEASURE_WITH_UNIT (LENGTH_MEASURE( 1.000000000000000082E-05 ), #242, 'distance_accuracy_value', 'NONE');
#30 = PRESENTATION_STYLE_ASSIGNMENT (( #203 ) ) ;
#31 = CARTESIAN_POINT ( 'NONE',  ( 3.673940397442059868E-16, 12.00000000000000000, 3.000000000000000000 ) ) ;
#32 = ADVANCED_FACE ( 'NONE', ( #153 ), #90, .F. ) ;
#33 = PRESENTATION_STYLE_ASSIGNMENT (( #281 ) ) ;
#34 = COLOUR_RGB ( '',1.000000000000000000, 0.000000000000000000, 0.000000000000000000 ) ;
#35 = VERTEX_POINT ( 'NONE', #352 ) ;
#36 = CARTESIAN_POINT ( 'NONE',  ( 0.000000000000000000, 12.00000000000000000, 0.000000000000000000 ) ) ;
#37 = MANIFOLD_SOLID_BREP ( 'Revolve - Tool Body (Straight Shanked)', #13 ) ;
#38 = CARTESIAN_POINT ( 'NONE',  ( 3.000000000000000000, 11.99999999999999645, 3.673940397442054938E-16 ) ) ;
#39 = CARTESIAN_POINT ( 'NONE',  ( 0.000000000000000000, 0.000000000000000000, 0.000000000000000000 ) ) ;
#40 = VERTEX_POINT ( 'NONE', #117 ) ;
#41 = AXIS2_PLACEMENT_3D ( 'NONE', #254, #349, #340 ) ;
#42 = FACE_OUTER_BOUND ( 'NONE', #362, .T. ) ;
#43 = VECTOR ( 'NONE', #49, 1000.000000000000000 ) ;
#44 = DIRECTION ( 'NONE',  ( 1.203932746194552959E-16, -1.000000000000000000, 0.000000000000000000 ) ) ;
#45 = ADVANCED_FACE ( 'NONE', ( #168 ), #100, .T. ) ;
#46 = CARTESIAN_POINT ( 'NONE',  ( 0.000000000000000000, 0.5000000000000000000, 0.000000000000000000 ) ) ;
#47 = AXIS2_PLACEMENT_3D ( 'NONE', #2, #57, #278 ) ;
#48 = COLOUR_RGB ( '',1.000000000000000000, 0.000000000000000000, 0.000000000000000000 ) ;
#49 = DIRECTION ( 'NONE',  ( -0.000000000000000000, -1.000000000000000000, -0.000000000000000000 ) ) ;
#50 = EDGE_CURVE ( 'NONE', #322, #40, #216, .T. ) ;
#51 = PLANE ( 'NONE',  #270 ) ;
#52 = CARTESIAN_POINT ( 'NONE',  ( 0.000000000000000000, 0.5000000000000000000, 0.000000000000000000 ) ) ;
#53 =( GEOMETRIC_REPRESENTATION_CONTEXT ( 3 ) GLOBAL_UNCERTAINTY_ASSIGNED_CONTEXT ( ( #342 ) ) GLOBAL_UNIT_ASSIGNED_CONTEXT ( ( #283, #347, #177 ) ) REPRESENTATION_CONTEXT ( 'NONE', 'WORKASPACE' ) );
#54 = AXIS2_PLACEMENT_3D ( 'NONE', #154, #44, #356 ) ;
#55 = FILL_AREA_STYLE ('',( #249 ) ) ;
#56 =( LENGTH_UNIT ( ) NAMED_UNIT ( * ) SI_UNIT ( .MILLI., .METRE. ) );
#57 = DIRECTION ( 'NONE',  ( -1.000000000000000000, 0.000000000000000000, 0.000000000000000000 ) ) ;
#58 = STYLED_ITEM ( 'NONE', ( #33 ), #37 ) ;
#59 = MECHANICAL_DESIGN_GEOMETRIC_PRESENTATION_REPRESENTATION (  '', ( #74 ), #114 ) ;
#60 = PRODUCT_RELATED_PRODUCT_CATEGORY ( 'part', '', ( #106 ) ) ;
#61 = ORIENTED_EDGE ( 'NONE', *, *, #307, .F. ) ;
#62 = DIRECTION ( 'NONE',  ( -1.203932746194552959E-16, 1.000000000000000000, 0.000000000000000000 ) ) ;
#63 = APPLICATION_CONTEXT ( 'automotive_design' ) ;
#64 = PRODUCT_DEFINITION_SHAPE ( 'NONE', 'NONE',  #129 ) ;
#65 = ORIENTED_EDGE ( 'NONE', *, *, #75, .F. ) ;
#66 = AXIS2_PLACEMENT_3D ( 'NONE', #87, #344, #173 ) ;
#67 = SURFACE_SIDE_STYLE ('',( #345 ) ) ;
#68 = ORIENTED_EDGE ( 'NONE', *, *, #307, .T. ) ;
#69 = CARTESIAN_POINT ( 'NONE',  ( 0.000000000000000000, 0.5000000000000000000, 0.000000000000000000 ) ) ;
#70 = ORIENTED_EDGE ( 'NONE', *, *, #241, .T. ) ;
#71 = APPLICATION_PROTOCOL_DEFINITION ( 'draft international standard', 'automotive_design', 1998, #63 ) ;
#72 = FILL_AREA_STYLE ('',( #324 ) ) ;
#73 = CARTESIAN_POINT ( 'NONE',  ( 3.184081677783117402E-15, 63.00000000000000000, 0.000000000000000000 ) ) ;
#74 = STYLED_ITEM ( 'NONE', ( #301 ), #336 ) ;
#75 = EDGE_CURVE ( 'NONE', #94, #35, #297, .T. ) ;
#76 = ADVANCED_FACE ( 'NONE', ( #123 ), #152, .T. ) ;
#77 = SURFACE_SIDE_STYLE ('',( #136 ) ) ;
#78 =( NAMED_UNIT ( * ) PLANE_ANGLE_UNIT ( ) SI_UNIT ( $, .RADIAN. ) );
#79 = FILL_AREA_STYLE_COLOUR ( '', #258 ) ;
#80 = STYLED_ITEM ( 'NONE', ( #332 ), #45 ) ;
#81 = UNCERTAINTY_MEASURE_WITH_UNIT (LENGTH_MEASURE( 1.000000000000000082E-05 ), #113, 'distance_accuracy_value', 'NONE');
#82 = DIRECTION ( 'NONE',  ( 0.000000000000000000, 0.000000000000000000, -1.000000000000000000 ) ) ;
#83 =( NAMED_UNIT ( * ) SI_UNIT ( $, .STERADIAN. ) SOLID_ANGLE_UNIT ( ) );
#84 = LINE ( 'NONE', #308, #326 ) ;
#85 = EDGE_CURVE ( 'NONE', #259, #174, #197, .T. ) ;
#86 =( NAMED_UNIT ( * ) PLANE_ANGLE_UNIT ( ) SI_UNIT ( $, .RADIAN. ) );
#87 = CARTESIAN_POINT ( 'NONE',  ( 0.000000000000000000, 12.00000000000000000, 0.000000000000000000 ) ) ;
#88 = CIRCLE ( 'NONE', #293, 2.999999999999991562 ) ;
#89 = MECHANICAL_DESIGN_GEOMETRIC_PRESENTATION_REPRESENTATION (  '', ( #22 ), #231 ) ;
#90 = PLANE ( 'NONE',  #165 ) ;
#91 = DIRECTION ( 'NONE',  ( 0.000000000000000000, 0.000000000000000000, 1.000000000000000000 ) ) ;
#92 = DIRECTION ( 'NONE',  ( 0.000000000000000000, 0.000000000000000000, -1.000000000000000000 ) ) ;
#93 = EDGE_CURVE ( 'NONE', #271, #8, #88, .T. ) ;
#94 = VERTEX_POINT ( 'NONE', #261 ) ;
#95 =( NAMED_UNIT ( * ) SI_UNIT ( $, .STERADIAN. ) SOLID_ANGLE_UNIT ( ) );
#96 = DIRECTION ( 'NONE',  ( 0.000000000000000000, -0.000000000000000000, 1.000000000000000000 ) ) ;
#97 = DIRECTION ( 'NONE',  ( 0.000000000000000000, 0.000000000000000000, -1.000000000000000000 ) ) ;
#98 = CARTESIAN_POINT ( 'NONE',  ( 0.000000000000000000, 0.000000000000000000, 0.000000000000000000 ) ) ;
#99 = CARTESIAN_POINT ( 'NONE',  ( 3.367778697655221505E-16, 0.000000000000000000, 2.500000000000000444 ) ) ;
#100 = CYLINDRICAL_SURFACE ( 'NONE', #1, 3.000000000000000000 ) ;
#101 = DIRECTION ( 'NONE',  ( -1.203932746194552959E-16, 1.000000000000000000, -0.000000000000000000 ) ) ;
#102 = EDGE_CURVE ( 'NONE', #8, #94, #6, .T. ) ;
#103 = DIRECTION ( 'NONE',  ( 0.000000000000000000, 0.000000000000000000, -1.000000000000000000 ) ) ;
#104 = CARTESIAN_POINT ( 'NONE',  ( 3.673940397442059868E-16, 0.5000000000000000000, 3.000000000000000000 ) ) ;
#105 =( GEOMETRIC_REPRESENTATION_CONTEXT ( 3 ) GLOBAL_UNCERTAINTY_ASSIGNED_CONTEXT ( ( #25 ) ) GLOBAL_UNIT_ASSIGNED_CONTEXT ( ( #56, #329, #139 ) ) REPRESENTATION_CONTEXT ( 'NONE', 'WORKASPACE' ) );
#106 = PRODUCT ( '59728', '59728', '', ( #205 ) ) ;
#107 = FILL_AREA_STYLE ('',( #79 ) ) ;
#108 = SURFACE_SIDE_STYLE ('',( #358 ) ) ;
#109 = COLOUR_RGB ( '',0.7921568627450980005, 0.8196078431372548767, 0.9333333333333333481 ) ;
#110 = AXIS2_PLACEMENT_3D ( 'NONE', #73, #101, #183 ) ;
#111 =( NAMED_UNIT ( * ) PLANE_ANGLE_UNIT ( ) SI_UNIT ( $, .RADIAN. ) );
#112 =( LENGTH_UNIT ( ) NAMED_UNIT ( * ) SI_UNIT ( .MILLI., .METRE. ) );
#113 =( LENGTH_UNIT ( ) NAMED_UNIT ( * ) SI_UNIT ( .MILLI., .METRE. ) );
#114 =( GEOMETRIC_REPRESENTATION_CONTEXT ( 3 ) GLOBAL_UNCERTAINTY_ASSIGNED_CONTEXT ( ( #191 ) ) GLOBAL_UNIT_ASSIGNED_CONTEXT ( ( #300, #111, #251 ) ) REPRESENTATION_CONTEXT ( 'NONE', 'WORKASPACE' ) );
#115 = AXIS2_PLACEMENT_3D ( 'NONE', #98, #91, #128 ) ;
#116 = DIRECTION ( 'NONE',  ( 0.000000000000000000, 0.000000000000000000, -1.000000000000000000 ) ) ;
#117 = CARTESIAN_POINT ( 'NONE',  ( 0.000000000000000000, 0.000000000000000000, -2.500000000000000444 ) ) ;
#118 =( NAMED_UNIT ( * ) PLANE_ANGLE_UNIT ( ) SI_UNIT ( $, .RADIAN. ) );
#119 = SURFACE_STYLE_FILL_AREA ( #366 ) ;
#120 = DIRECTION ( 'NONE',  ( -1.203932746194552959E-16, 1.000000000000000000, -0.000000000000000000 ) ) ;
#121 = DIRECTION ( 'NONE',  ( 0.000000000000000000, 1.000000000000000000, 0.000000000000000000 ) ) ;
#122 = ORIENTED_EDGE ( 'NONE', *, *, #102, .T. ) ;
#123 = FACE_OUTER_BOUND ( 'NONE', #5, .T. ) ;
#124 = CARTESIAN_POINT ( 'NONE',  ( 0.000000000000000000, 0.000000000000000000, 0.000000000000000000 ) ) ;
#125 = FACE_OUTER_BOUND ( 'NONE', #223, .T. ) ;
#126 = ORIENTED_EDGE ( 'NONE', *, *, #102, .F. ) ;
#127 = CARTESIAN_POINT ( 'NONE',  ( -2.999999999999981792, 11.99999999999999645, 0.000000000000000000 ) ) ;
#128 = DIRECTION ( 'NONE',  ( 1.000000000000000000, 0.000000000000000000, 0.000000000000000000 ) ) ;
#129 = PRODUCT_DEFINITION ( 'UNKNOWN', '', #320, #369 ) ;
#130 = SURFACE_STYLE_USAGE ( .BOTH. , #131 ) ;
#131 = SURFACE_SIDE_STYLE ('',( #184 ) ) ;
#132 =( NAMED_UNIT ( * ) SI_UNIT ( $, .STERADIAN. ) SOLID_ANGLE_UNIT ( ) );
#133 = DIRECTION ( 'NONE',  ( 0.000000000000000000, 0.000000000000000000, -1.000000000000000000 ) ) ;
#134 = DIRECTION ( 'NONE',  ( -1.000000000000000000, 0.000000000000000000, 0.000000000000000000 ) ) ;
#135 = FILL_AREA_STYLE ('',( #338 ) ) ;
#136 = SURFACE_STYLE_FILL_AREA ( #107 ) ;
#137 = PRESENTATION_LAYER_ASSIGNMENT (  '', '', ( #80 ) ) ;
#138 = AXIS2_PLACEMENT_3D ( 'NONE', #162, #140, #134 ) ;
#139 =( NAMED_UNIT ( * ) SI_UNIT ( $, .STERADIAN. ) SOLID_ANGLE_UNIT ( ) );
#140 = DIRECTION ( 'NONE',  ( -1.203932746194552959E-16, 1.000000000000000000, -0.000000000000000000 ) ) ;
#141 = AXIS2_PLACEMENT_3D ( 'NONE', #4, #256, #236 ) ;
#142 = PRESENTATION_LAYER_ASSIGNMENT (  '', '', ( #74 ) ) ;
#143 =( LENGTH_UNIT ( ) NAMED_UNIT ( * ) SI_UNIT ( .MILLI., .METRE. ) );
#144 = CARTESIAN_POINT ( 'NONE',  ( 0.000000000000000000, 0.000000000000000000, 0.000000000000000000 ) ) ;
#145 = VERTEX_POINT ( 'NONE', #280 ) ;
#146 = DIRECTION ( 'NONE',  ( -0.000000000000000000, -1.000000000000000000, -0.000000000000000000 ) ) ;
#147 = EDGE_LOOP ( 'NONE', ( #319, #233 ) ) ;
#148 = CIRCLE ( 'NONE', #66, 3.000000000000000000 ) ;
#149 = PRESENTATION_LAYER_ASSIGNMENT (  '', '', ( #193 ) ) ;
#150 = FILL_AREA_STYLE_COLOUR ( '', #284 ) ;
#151 = ORIENTED_EDGE ( 'NONE', *, *, #370, .T. ) ;
#152 = PLANE ( 'NONE',  #359 ) ;
#153 = FACE_OUTER_BOUND ( 'NONE', #147, .T. ) ;
#154 = CARTESIAN_POINT ( 'NONE',  ( 3.000000000000000000, 63.00000000000000000, 0.000000000000000000 ) ) ;
#155 = ADVANCED_FACE ( 'NONE', ( #125 ), #263, .T. ) ;
#156 = FILL_AREA_STYLE_COLOUR ( '', #109 ) ;
#157 = AXIS2_PLACEMENT_3D ( 'NONE', #69, #288, #239 ) ;
#158 = FILL_AREA_STYLE ('',( #10 ) ) ;
#159 = DIRECTION ( 'NONE',  ( -1.203932746194552959E-16, 1.000000000000000000, -0.000000000000000000 ) ) ;
#160 = DIRECTION ( 'NONE',  ( -1.000000000000000000, 0.000000000000000000, 0.000000000000000000 ) ) ;
#161 = AXIS2_PLACEMENT_3D ( 'NONE', #39, #291, #240 ) ;
#162 = CARTESIAN_POINT ( 'NONE',  ( 3.184081677783117402E-15, 63.00000000000000000, 0.000000000000000000 ) ) ;
#163 = SURFACE_STYLE_FILL_AREA ( #55 ) ;
#164 = ORIENTED_EDGE ( 'NONE', *, *, #219, .F. ) ;
#165 = AXIS2_PLACEMENT_3D ( 'NONE', #202, #62, #237 ) ;
#166 = CIRCLE ( 'NONE', #161, 2.500000000000000444 ) ;
#167 = ORIENTED_EDGE ( 'NONE', *, *, #333, .F. ) ;
#168 = FACE_OUTER_BOUND ( 'NONE', #289, .T. ) ;
#169 = DIRECTION ( 'NONE',  ( -0.000000000000000000, -1.000000000000000000, -0.000000000000000000 ) ) ;
#170 = FILL_AREA_STYLE ('',( #210 ) ) ;
#171 = MECHANICAL_DESIGN_GEOMETRIC_PRESENTATION_REPRESENTATION (  '', ( #317 ), #53 ) ;
#172 = AXIS2_PLACEMENT_3D ( 'NONE', #46, #328, #215 ) ;
#173 = DIRECTION ( 'NONE',  ( 0.000000000000000000, 0.000000000000000000, -1.000000000000000000 ) ) ;
#174 = VERTEX_POINT ( 'NONE', #99 ) ;
#175 = ORIENTED_EDGE ( 'NONE', *, *, #276, .F. ) ;
#176 = TOROIDAL_SURFACE ( 'NONE', #226, 2.500000000000000444, 0.4999999999999997780 ) ;
#177 =( NAMED_UNIT ( * ) SI_UNIT ( $, .STERADIAN. ) SOLID_ANGLE_UNIT ( ) );
#178 = EDGE_LOOP ( 'NONE', ( #302, #315, #232, #279 ) ) ;
#179 = EDGE_CURVE ( 'NONE', #40, #174, #166, .T. ) ;
#180 = DIRECTION ( 'NONE',  ( -0.000000000000000000, -1.000000000000000000, -0.000000000000000000 ) ) ;
#181 = SURFACE_STYLE_FILL_AREA ( #72 ) ;
#182 = VECTOR ( 'NONE', #120, 1000.000000000000000 ) ;
#183 = DIRECTION ( 'NONE',  ( -1.000000000000000000, 0.000000000000000000, 0.000000000000000000 ) ) ;
#184 = SURFACE_STYLE_FILL_AREA ( #158 ) ;
#185 = DIRECTION ( 'NONE',  ( -1.000000000000000000, 0.000000000000000000, 0.000000000000000000 ) ) ;
#186 = CIRCLE ( 'NONE', #274, 2.500000000000000444 ) ;
#187 = CARTESIAN_POINT ( 'NONE',  ( 3.673940397442059868E-16, 0.000000000000000000, 3.000000000000000000 ) ) ;
#188 = ADVANCED_FACE ( 'NONE', ( #264 ), #355, .T. ) ;
#189 = DIRECTION ( 'NONE',  ( -0.000000000000000000, -1.000000000000000000, -0.000000000000000000 ) ) ;
#190 = ORIENTED_EDGE ( 'NONE', *, *, #179, .T. ) ;
#191 = UNCERTAINTY_MEASURE_WITH_UNIT (LENGTH_MEASURE( 1.000000000000000082E-05 ), #300, 'distance_accuracy_value', 'NONE');
#192 = DIRECTION ( 'NONE',  ( 0.000000000000000000, 0.000000000000000000, -1.000000000000000000 ) ) ;
#193 = STYLED_ITEM ( 'NONE', ( #295 ), #266 ) ;
#194 = UNCERTAINTY_MEASURE_WITH_UNIT (LENGTH_MEASURE( 1.000000000000000082E-05 ), #112, 'distance_accuracy_value', 'NONE');
#195 =( NAMED_UNIT ( * ) PLANE_ANGLE_UNIT ( ) SI_UNIT ( $, .RADIAN. ) );
#196 =( LENGTH_UNIT ( ) NAMED_UNIT ( * ) SI_UNIT ( .MILLI., .METRE. ) );
#197 = CIRCLE ( 'NONE', #41, 0.4999999999999995559 ) ;
#198 = CIRCLE ( 'NONE', #138, 2.999999999999996891 ) ;
#199 = ORIENTED_EDGE ( 'NONE', *, *, #7, .F. ) ;
#200 = MECHANICAL_DESIGN_GEOMETRIC_PRESENTATION_REPRESENTATION (  '', ( #360 ), #105 ) ;
#201 =( NAMED_UNIT ( * ) PLANE_ANGLE_UNIT ( ) SI_UNIT ( $, .RADIAN. ) );
#202 = CARTESIAN_POINT ( 'NONE',  ( 9.324138683375338132E-15, 12.00000000000000000, 0.000000000000000000 ) ) ;
#203 = SURFACE_STYLE_USAGE ( .BOTH. , #67 ) ;
#204 = ORIENTED_EDGE ( 'NONE', *, *, #282, .T. ) ;
#205 = PRODUCT_CONTEXT ( 'NONE', #277, 'mechanical' ) ;
#206 = CARTESIAN_POINT ( 'NONE',  ( 9.324138683375338132E-15, 11.99999999999999645, 0.000000000000000000 ) ) ;
#207 = ORIENTED_EDGE ( 'NONE', *, *, #276, .T. ) ;
#208 = CLOSED_SHELL ( 'NONE', ( #45, #292, #353, #155, #336, #76 ) ) ;
#209 =( GEOMETRIC_REPRESENTATION_CONTEXT ( 3 ) GLOBAL_UNCERTAINTY_ASSIGNED_CONTEXT ( ( #364 ) ) GLOBAL_UNIT_ASSIGNED_CONTEXT ( ( #196, #201, #218 ) ) REPRESENTATION_CONTEXT ( 'NONE', 'WORKASPACE' ) );
#210 = FILL_AREA_STYLE_COLOUR ( '', #19 ) ;
#211 = ORIENTED_EDGE ( 'NONE', *, *, #370, .F. ) ;
#212 = SHAPE_DEFINITION_REPRESENTATION ( #64, #290 ) ;
#213 = LINE ( 'NONE', #273, #363 ) ;
#214 = APPLICATION_PROTOCOL_DEFINITION ( 'draft international standard', 'automotive_design', 1998, #277 ) ;
#215 = DIRECTION ( 'NONE',  ( 0.000000000000000000, 0.000000000000000000, -1.000000000000000000 ) ) ;
#216 = CIRCLE ( 'NONE', #47, 0.4999999999999995559 ) ;
#217 = AXIS2_PLACEMENT_3D ( 'NONE', #14, #321, #133 ) ;
#218 =( NAMED_UNIT ( * ) SI_UNIT ( $, .STERADIAN. ) SOLID_ANGLE_UNIT ( ) );
#219 = EDGE_CURVE ( 'NONE', #322, #259, #351, .T. ) ;
#220 = CARTESIAN_POINT ( 'NONE',  ( 0.000000000000000000, 0.000000000000000000, 0.000000000000000000 ) ) ;
#221 = CIRCLE ( 'NONE', #157, 3.000000000000000000 ) ;
#222 = SURFACE_STYLE_USAGE ( .BOTH. , #108 ) ;
#223 = EDGE_LOOP ( 'NONE', ( #346, #204, #268, #199 ) ) ;
#224 = SURFACE_STYLE_USAGE ( .BOTH. , #15 ) ;
#225 = PRESENTATION_LAYER_ASSIGNMENT (  '', '', ( #58 ) ) ;
#226 = AXIS2_PLACEMENT_3D ( 'NONE', #52, #189, #82 ) ;
#227 = EDGE_LOOP ( 'NONE', ( #126, #70, #68, #65 ) ) ;
#228 = ADVANCED_FACE ( 'NONE', ( #245 ), #265, .T. ) ;
#229 = SURFACE_STYLE_FILL_AREA ( #170 ) ;
#230 = STYLED_ITEM ( 'NONE', ( #253 ), #155 ) ;
#231 =( GEOMETRIC_REPRESENTATION_CONTEXT ( 3 ) GLOBAL_UNCERTAINTY_ASSIGNED_CONTEXT ( ( #194 ) ) GLOBAL_UNIT_ASSIGNED_CONTEXT ( ( #112, #86, #337 ) ) REPRESENTATION_CONTEXT ( 'NONE', 'WORKASPACE' ) );
#232 = ORIENTED_EDGE ( 'NONE', *, *, #179, .F. ) ;
#233 = ORIENTED_EDGE ( 'NONE', *, *, #241, .F. ) ;
#234 = FILL_AREA_STYLE ('',( #150 ) ) ;
#235 = ORIENTED_EDGE ( 'NONE', *, *, #282, .F. ) ;
#236 = DIRECTION ( 'NONE',  ( -1.000000000000000000, 0.000000000000000000, 0.000000000000000000 ) ) ;
#237 = DIRECTION ( 'NONE',  ( -1.000000000000000000, -1.203932746194552959E-16, 0.000000000000000000 ) ) ;
#238 = AXIS2_PLACEMENT_3D ( 'NONE', #357, #296, #185 ) ;
#239 = DIRECTION ( 'NONE',  ( 0.000000000000000000, 0.000000000000000000, -1.000000000000000000 ) ) ;
#240 = DIRECTION ( 'NONE',  ( 0.000000000000000000, 0.000000000000000000, -1.000000000000000000 ) ) ;
#241 = EDGE_CURVE ( 'NONE', #8, #271, #285, .T. ) ;
#242 =( LENGTH_UNIT ( ) NAMED_UNIT ( * ) SI_UNIT ( .MILLI., .METRE. ) );
#243 = MECHANICAL_DESIGN_GEOMETRIC_PRESENTATION_REPRESENTATION (  '', ( #58 ), #310 ) ;
#244 = AXIS2_PLACEMENT_3D ( 'NONE', #9, #159, #160 ) ;
#245 = FACE_OUTER_BOUND ( 'NONE', #250, .T. ) ;
#246 = ADVANCED_FACE ( 'NONE', ( #42 ), #327, .F. ) ;
#247 = LINE ( 'NONE', #187, #43 ) ;
#248 = AXIS2_PLACEMENT_3D ( 'NONE', #220, #299, #192 ) ;
#249 = FILL_AREA_STYLE_COLOUR ( '', #48 ) ;
#250 = EDGE_LOOP ( 'NONE', ( #287, #122, #314, #61 ) ) ;
#251 =( NAMED_UNIT ( * ) SI_UNIT ( $, .STERADIAN. ) SOLID_ANGLE_UNIT ( ) );
#252 = PRESENTATION_LAYER_ASSIGNMENT (  '', '', ( #22 ) ) ;
#253 = PRESENTATION_STYLE_ASSIGNMENT (( #28 ) ) ;
#254 = CARTESIAN_POINT ( 'NONE',  ( 3.061616997868383634E-16, 0.5000000000000000000, 2.500000000000000444 ) ) ;
#255 = ORIENTED_EDGE ( 'NONE', *, *, #323, .T. ) ;
#256 = DIRECTION ( 'NONE',  ( -1.203932746194552959E-16, 1.000000000000000000, -0.000000000000000000 ) ) ;
#257 = MECHANICAL_DESIGN_GEOMETRIC_PRESENTATION_REPRESENTATION (  '', ( #230 ), #209 ) ;
#258 = COLOUR_RGB ( '',1.000000000000000000, 0.000000000000000000, 0.000000000000000000 ) ;
#259 = VERTEX_POINT ( 'NONE', #104 ) ;
#260 = ORIENTED_EDGE ( 'NONE', *, *, #7, .T. ) ;
#261 = CARTESIAN_POINT ( 'NONE',  ( 3.000000000000000444, 63.00000000000000000, 3.673940397442054938E-16 ) ) ;
#262 = ORIENTED_EDGE ( 'NONE', *, *, #16, .F. ) ;
#263 = TOROIDAL_SURFACE ( 'NONE', #172, 2.500000000000000444, 0.4999999999999997780 ) ;
#264 = FACE_OUTER_BOUND ( 'NONE', #227, .T. ) ;
#265 = CYLINDRICAL_SURFACE ( 'NONE', #110, 2.999999999999993783 ) ;
#266 = MANIFOLD_SOLID_BREP ( 'Revolve - Cutting Edge', #208 ) ;
#267 = SURFACE_STYLE_USAGE ( .BOTH. , #77 ) ;
#268 = ORIENTED_EDGE ( 'NONE', *, *, #50, .T. ) ;
#269 = PRESENTATION_LAYER_ASSIGNMENT (  '', '', ( #230 ) ) ;
#270 = AXIS2_PLACEMENT_3D ( 'NONE', #339, #309, #116 ) ;
#271 = VERTEX_POINT ( 'NONE', #127 ) ;
#272 = SURFACE_SIDE_STYLE ('',( #163 ) ) ;
#273 = CARTESIAN_POINT ( 'NONE',  ( -2.999999999999991118, 63.00000000000000000, 0.000000000000000000 ) ) ;
#274 = AXIS2_PLACEMENT_3D ( 'NONE', #124, #180, #97 ) ;
#275 = SURFACE_SIDE_STYLE ('',( #229 ) ) ;
#276 = EDGE_CURVE ( 'NONE', #145, #20, #318, .T. ) ;
#277 = APPLICATION_CONTEXT ( 'automotive_design' ) ;
#278 = DIRECTION ( 'NONE',  ( 0.000000000000000000, 0.000000000000000000, 1.000000000000000000 ) ) ;
#279 = ORIENTED_EDGE ( 'NONE', *, *, #50, .F. ) ;
#280 = CARTESIAN_POINT ( 'NONE',  ( 0.000000000000000000, 12.00000000000000000, -3.000000000000000000 ) ) ;
#281 = SURFACE_STYLE_USAGE ( .BOTH. , #341 ) ;
#282 = EDGE_CURVE ( 'NONE', #259, #322, #221, .T. ) ;
#283 =( LENGTH_UNIT ( ) NAMED_UNIT ( * ) SI_UNIT ( .MILLI., .METRE. ) );
#284 = COLOUR_RGB ( '',1.000000000000000000, 0.000000000000000000, 0.000000000000000000 ) ;
#285 = CIRCLE ( 'NONE', #238, 2.999999999999991562 ) ;
#286 = EDGE_LOOP ( 'NONE', ( #167, #368, #151, #235 ) ) ;
#287 = ORIENTED_EDGE ( 'NONE', *, *, #93, .T. ) ;
#288 = DIRECTION ( 'NONE',  ( -0.000000000000000000, -1.000000000000000000, -0.000000000000000000 ) ) ;
#289 = EDGE_LOOP ( 'NONE', ( #207, #348, #164, #211 ) ) ;
#290 = ADVANCED_BREP_SHAPE_REPRESENTATION ( '59728', ( #266, #37, #115 ), #335 ) ;
#291 = DIRECTION ( 'NONE',  ( -0.000000000000000000, -1.000000000000000000, -0.000000000000000000 ) ) ;
#292 = ADVANCED_FACE ( 'NONE', ( #354 ), #176, .T. ) ;
#293 = AXIS2_PLACEMENT_3D ( 'NONE', #206, #365, #316 ) ;
#294 = PRESENTATION_LAYER_ASSIGNMENT (  '', '', ( #360 ) ) ;
#295 = PRESENTATION_STYLE_ASSIGNMENT (( #130 ) ) ;
#296 = DIRECTION ( 'NONE',  ( -1.203932746194552959E-16, 1.000000000000000000, -0.000000000000000000 ) ) ;
#297 = CIRCLE ( 'NONE', #141, 2.999999999999996891 ) ;
#298 = COLOUR_RGB ( '',1.000000000000000000, 0.000000000000000000, 0.000000000000000000 ) ;
#299 = DIRECTION ( 'NONE',  ( -0.000000000000000000, -1.000000000000000000, -0.000000000000000000 ) ) ;
#300 =( LENGTH_UNIT ( ) NAMED_UNIT ( * ) SI_UNIT ( .MILLI., .METRE. ) );
#301 = PRESENTATION_STYLE_ASSIGNMENT (( #267 ) ) ;
#302 = ORIENTED_EDGE ( 'NONE', *, *, #219, .T. ) ;
#303 =( GEOMETRIC_REPRESENTATION_CONTEXT ( 3 ) GLOBAL_UNCERTAINTY_ASSIGNED_CONTEXT ( ( #21 ) ) GLOBAL_UNIT_ASSIGNED_CONTEXT ( ( #18, #78, #311 ) ) REPRESENTATION_CONTEXT ( 'NONE', 'WORKASPACE' ) );
#304 = MECHANICAL_DESIGN_GEOMETRIC_PRESENTATION_REPRESENTATION (  '', ( #193 ), #312 ) ;
#305 = UNCERTAINTY_MEASURE_WITH_UNIT (LENGTH_MEASURE( 1.000000000000000082E-05 ), #143, 'distance_accuracy_value', 'NONE');
#306 = PRESENTATION_STYLE_ASSIGNMENT (( #224 ) ) ;
#307 = EDGE_CURVE ( 'NONE', #271, #35, #213, .T. ) ;
#308 = CARTESIAN_POINT ( 'NONE',  ( 0.000000000000000000, 0.000000000000000000, -3.000000000000000000 ) ) ;
#309 = DIRECTION ( 'NONE',  ( 0.000000000000000000, -1.000000000000000000, -0.000000000000000000 ) ) ;
#310 =( GEOMETRIC_REPRESENTATION_CONTEXT ( 3 ) GLOBAL_UNCERTAINTY_ASSIGNED_CONTEXT ( ( #81 ) ) GLOBAL_UNIT_ASSIGNED_CONTEXT ( ( #113, #195, #83 ) ) REPRESENTATION_CONTEXT ( 'NONE', 'WORKASPACE' ) );
#311 =( NAMED_UNIT ( * ) SI_UNIT ( $, .STERADIAN. ) SOLID_ANGLE_UNIT ( ) );
#312 =( GEOMETRIC_REPRESENTATION_CONTEXT ( 3 ) GLOBAL_UNCERTAINTY_ASSIGNED_CONTEXT ( ( #29 ) ) GLOBAL_UNIT_ASSIGNED_CONTEXT ( ( #242, #12, #132 ) ) REPRESENTATION_CONTEXT ( 'NONE', 'WORKASPACE' ) );
#313 = ORIENTED_EDGE ( 'NONE', *, *, #75, .T. ) ;
#314 = ORIENTED_EDGE ( 'NONE', *, *, #323, .F. ) ;
#315 = ORIENTED_EDGE ( 'NONE', *, *, #85, .T. ) ;
#316 = DIRECTION ( 'NONE',  ( -1.000000000000000000, 0.000000000000000000, 0.000000000000000000 ) ) ;
#317 = STYLED_ITEM ( 'NONE', ( #30 ), #76 ) ;
#318 = CIRCLE ( 'NONE', #217, 3.000000000000000000 ) ;
#319 = ORIENTED_EDGE ( 'NONE', *, *, #93, .F. ) ;
#320 = PRODUCT_DEFINITION_FORMATION_WITH_SPECIFIED_SOURCE ( 'ANY', '', #106, .NOT_KNOWN. ) ;
#321 = DIRECTION ( 'NONE',  ( -0.000000000000000000, -1.000000000000000000, -0.000000000000000000 ) ) ;
#322 = VERTEX_POINT ( 'NONE', #26 ) ;
#323 = EDGE_CURVE ( 'NONE', #35, #94, #198, .T. ) ;
#324 = FILL_AREA_STYLE_COLOUR ( '', #298 ) ;
#325 = CARTESIAN_POINT ( 'NONE',  ( 0.000000000000000000, 0.5000000000000000000, 0.000000000000000000 ) ) ;
#326 = VECTOR ( 'NONE', #169, 1000.000000000000000 ) ;
#327 = PLANE ( 'NONE',  #54 ) ;
#328 = DIRECTION ( 'NONE',  ( -0.000000000000000000, -1.000000000000000000, -0.000000000000000000 ) ) ;
#329 =( NAMED_UNIT ( * ) PLANE_ANGLE_UNIT ( ) SI_UNIT ( $, .RADIAN. ) );
#330 = PRESENTATION_LAYER_ASSIGNMENT (  '', '', ( #317 ) ) ;
#331 = FACE_OUTER_BOUND ( 'NONE', #3, .T. ) ;
#332 = PRESENTATION_STYLE_ASSIGNMENT (( #222 ) ) ;
#333 = EDGE_CURVE ( 'NONE', #20, #259, #247, .T. ) ;
#334 = CYLINDRICAL_SURFACE ( 'NONE', #248, 3.000000000000000000 ) ;
#335 =( GEOMETRIC_REPRESENTATION_CONTEXT ( 3 ) GLOBAL_UNCERTAINTY_ASSIGNED_CONTEXT ( ( #305 ) ) GLOBAL_UNIT_ASSIGNED_CONTEXT ( ( #143, #118, #95 ) ) REPRESENTATION_CONTEXT ( 'NONE', 'WORKASPACE' ) );
#336 = ADVANCED_FACE ( 'NONE', ( #23 ), #334, .T. ) ;
#337 =( NAMED_UNIT ( * ) SI_UNIT ( $, .STERADIAN. ) SOLID_ANGLE_UNIT ( ) );
#338 = FILL_AREA_STYLE_COLOUR ( '', #34 ) ;
#339 = CARTESIAN_POINT ( 'NONE',  ( 0.000000000000000000, 0.000000000000000000, 0.000000000000000000 ) ) ;
#340 = DIRECTION ( 'NONE',  ( -1.224646799147353454E-16, 0.000000000000000000, -1.000000000000000000 ) ) ;
#341 = SURFACE_SIDE_STYLE ('',( #119 ) ) ;
#342 = UNCERTAINTY_MEASURE_WITH_UNIT (LENGTH_MEASURE( 1.000000000000000082E-05 ), #283, 'distance_accuracy_value', 'NONE');
#343 = AXIS2_PLACEMENT_3D ( 'NONE', #325, #11, #103 ) ;
#344 = DIRECTION ( 'NONE',  ( -0.000000000000000000, -1.000000000000000000, -0.000000000000000000 ) ) ;
#345 = SURFACE_STYLE_FILL_AREA ( #234 ) ;
#346 = ORIENTED_EDGE ( 'NONE', *, *, #85, .F. ) ;
#347 =( NAMED_UNIT ( * ) PLANE_ANGLE_UNIT ( ) SI_UNIT ( $, .RADIAN. ) );
#348 = ORIENTED_EDGE ( 'NONE', *, *, #333, .T. ) ;
#349 = DIRECTION ( 'NONE',  ( 1.000000000000000000, 0.000000000000000000, -1.224646799147353207E-16 ) ) ;
#350 = MECHANICAL_DESIGN_GEOMETRIC_PRESENTATION_REPRESENTATION (  '', ( #80 ), #303 ) ;
#351 = CIRCLE ( 'NONE', #343, 3.000000000000000000 ) ;
#352 = CARTESIAN_POINT ( 'NONE',  ( -2.999999999999993783, 63.00000000000000000, 0.000000000000000000 ) ) ;
#353 = ADVANCED_FACE ( 'NONE', ( #331 ), #51, .T. ) ;
#354 = FACE_OUTER_BOUND ( 'NONE', #178, .T. ) ;
#355 = CYLINDRICAL_SURFACE ( 'NONE', #244, 2.999999999999993783 ) ;
#356 = DIRECTION ( 'NONE',  ( 1.000000000000000000, 1.203932746194552959E-16, 0.000000000000000000 ) ) ;
#357 = CARTESIAN_POINT ( 'NONE',  ( 9.324138683375338132E-15, 11.99999999999999645, 0.000000000000000000 ) ) ;
#358 = SURFACE_STYLE_FILL_AREA ( #135 ) ;
#359 = AXIS2_PLACEMENT_3D ( 'NONE', #36, #121, #96 ) ;
#360 = STYLED_ITEM ( 'NONE', ( #306 ), #292 ) ;
#361 = DIRECTION ( 'NONE',  ( -1.203932746194552959E-16, 1.000000000000000000, -0.000000000000000000 ) ) ;
#362 = EDGE_LOOP ( 'NONE', ( #255, #313 ) ) ;
#363 = VECTOR ( 'NONE', #361, 1000.000000000000000 ) ;
#364 = UNCERTAINTY_MEASURE_WITH_UNIT (LENGTH_MEASURE( 1.000000000000000082E-05 ), #196, 'distance_accuracy_value', 'NONE');
#365 = DIRECTION ( 'NONE',  ( -1.203932746194552959E-16, 1.000000000000000000, -0.000000000000000000 ) ) ;
#366 = FILL_AREA_STYLE ('',( #156 ) ) ;
#367 = CARTESIAN_POINT ( 'NONE',  ( 2.999999999999996891, 63.00000000000000000, 3.673940397442052472E-16 ) ) ;
#368 = ORIENTED_EDGE ( 'NONE', *, *, #16, .T. ) ;
#369 = PRODUCT_DEFINITION_CONTEXT ( 'detailed design', #63, 'design' ) ;
#370 = EDGE_CURVE ( 'NONE', #145, #322, #84, .T. ) ;
ENDSEC;
END-ISO-10303-21;
