ISO-10303-21;
HEADER;
FILE_DESCRIPTION (( 'STEP AP214' ),
    '1' );
FILE_NAME ('59557.STEP',
    '2023-07-24T15:48:59',
    ( '' ),
    ( '' ),
    'SwSTEP 2.0',
    'SolidWorks 2023',
    '' );
FILE_SCHEMA (( 'AUTOMOTIVE_DESIGN' ));
ENDSEC;

DATA;
#1 =( GEOMETRIC_REPRESENTATION_CONTEXT ( 3 ) GLOBAL_UNCERTAINTY_ASSIGNED_CONTEXT ( ( #142 ) ) GLOBAL_UNIT_ASSIGNED_CONTEXT ( ( #2, #65, #172 ) ) REPRESENTATION_CONTEXT ( 'NONE', 'WORKASPACE' ) );
#2 =( LENGTH_UNIT ( ) NAMED_UNIT ( * ) SI_UNIT ( .MILLI., .METRE. ) );
#3 =( NAMED_UNIT ( * ) PLANE_ANGLE_UNIT ( ) SI_UNIT ( $, .RADIAN. ) );
#4 = SURFACE_STYLE_FILL_AREA ( #243 ) ;
#5 = FACE_OUTER_BOUND ( 'NONE', #201, .T. ) ;
#6 = AXIS2_PLACEMENT_3D ( 'NONE', #184, #53, #136 ) ;
#7 = EDGE_CURVE ( 'NONE', #24, #165, #175, .T. ) ;
#8 = CARTESIAN_POINT ( 'NONE',  ( 0.000000000000000000, 30.00000000000000000, 0.000000000000000000 ) ) ;
#9 = SURFACE_STYLE_FILL_AREA ( #181 ) ;
#10 = ORIENTED_EDGE ( 'NONE', *, *, #265, .T. ) ;
#11 = CARTESIAN_POINT ( 'NONE',  ( -5.999999999999990230, 75.00000000000000000, 0.000000000000000000 ) ) ;
#12 = UNCERTAINTY_MEASURE_WITH_UNIT (LENGTH_MEASURE( 1.000000000000000082E-05 ), #138, 'distance_accuracy_value', 'NONE');
#13 = CARTESIAN_POINT ( 'NONE',  ( 0.000000000000000000, 0.000000000000000000, 0.000000000000000000 ) ) ;
#14 = ADVANCED_FACE ( 'NONE', ( #137 ), #77, .T. ) ;
#15 =( GEOMETRIC_REPRESENTATION_CONTEXT ( 3 ) GLOBAL_UNCERTAINTY_ASSIGNED_CONTEXT ( ( #238 ) ) GLOBAL_UNIT_ASSIGNED_CONTEXT ( ( #100, #82, #145 ) ) REPRESENTATION_CONTEXT ( 'NONE', 'WORKASPACE' ) );
#16 =( NAMED_UNIT ( * ) SI_UNIT ( $, .STERADIAN. ) SOLID_ANGLE_UNIT ( ) );
#17 = PRODUCT_CONTEXT ( 'NONE', #54, 'mechanical' ) ;
#18 = CARTESIAN_POINT ( 'NONE',  ( 6.000000000000000000, 75.00000000000000000, 0.000000000000000000 ) ) ;
#19 = APPLICATION_CONTEXT ( 'automotive_design' ) ;
#20 = CIRCLE ( 'NONE', #6, 6.000000000000000000 ) ;
#21 =( GEOMETRIC_REPRESENTATION_CONTEXT ( 3 ) GLOBAL_UNCERTAINTY_ASSIGNED_CONTEXT ( ( #79 ) ) GLOBAL_UNIT_ASSIGNED_CONTEXT ( ( #25, #68, #195 ) ) REPRESENTATION_CONTEXT ( 'NONE', 'WORKASPACE' ) );
#22 = CARTESIAN_POINT ( 'NONE',  ( 7.347880794884119736E-16, 0.000000000000000000, 6.000000000000000000 ) ) ;
#23 = FILL_AREA_STYLE_COLOUR ( '', #135 ) ;
#24 = VERTEX_POINT ( 'NONE', #49 ) ;
#25 =( LENGTH_UNIT ( ) NAMED_UNIT ( * ) SI_UNIT ( .MILLI., .METRE. ) );
#26 = EDGE_CURVE ( 'NONE', #112, #155, #95, .T. ) ;
#27 = CIRCLE ( 'NONE', #231, 6.000000000000000000 ) ;
#28 = AXIS2_PLACEMENT_3D ( 'NONE', #81, #80, #149 ) ;
#29 = SURFACE_STYLE_USAGE ( .BOTH. , #85 ) ;
#30 = PRODUCT ( '59557', '59557', '', ( #17 ) ) ;
#31 = FILL_AREA_STYLE_COLOUR ( '', #188 ) ;
#32 = EDGE_CURVE ( 'NONE', #165, #24, #27, .T. ) ;
#33 = ORIENTED_EDGE ( 'NONE', *, *, #94, .F. ) ;
#34 = STYLED_ITEM ( 'NONE', ( #194 ), #241 ) ;
#35 = ORIENTED_EDGE ( 'NONE', *, *, #7, .T. ) ;
#36 = SURFACE_STYLE_FILL_AREA ( #229 ) ;
#37 = CARTESIAN_POINT ( 'NONE',  ( 0.000000000000000000, 30.00000000000000000, 0.000000000000000000 ) ) ;
#38 = MECHANICAL_DESIGN_GEOMETRIC_PRESENTATION_REPRESENTATION (  '', ( #211 ), #107 ) ;
#39 = CIRCLE ( 'NONE', #167, 6.000000000000000000 ) ;
#40 = ORIENTED_EDGE ( 'NONE', *, *, #64, .T. ) ;
#41 = CARTESIAN_POINT ( 'NONE',  ( -7.703719777548943412E-31, 30.00000000000000000, 0.000000000000000000 ) ) ;
#42 = EDGE_CURVE ( 'NONE', #66, #130, #279, .T. ) ;
#43 = SURFACE_SIDE_STYLE ('',( #216 ) ) ;
#44 = FILL_AREA_STYLE_COLOUR ( '', #222 ) ;
#45 = PRESENTATION_STYLE_ASSIGNMENT (( #237 ) ) ;
#46 =( GEOMETRIC_REPRESENTATION_CONTEXT ( 3 ) GLOBAL_UNCERTAINTY_ASSIGNED_CONTEXT ( ( #187 ) ) GLOBAL_UNIT_ASSIGNED_CONTEXT ( ( #174, #245, #87 ) ) REPRESENTATION_CONTEXT ( 'NONE', 'WORKASPACE' ) );
#47 = EDGE_LOOP ( 'NONE', ( #251, #164, #163, #226 ) ) ;
#48 = DIRECTION ( 'NONE',  ( -0.000000000000000000, -1.000000000000000000, -0.000000000000000000 ) ) ;
#49 = CARTESIAN_POINT ( 'NONE',  ( 0.000000000000000000, 30.00000000000000000, -6.000000000000000000 ) ) ;
#50 = AXIS2_PLACEMENT_3D ( 'NONE', #182, #254, #282 ) ;
#51 = AXIS2_PLACEMENT_3D ( 'NONE', #173, #126, #267 ) ;
#52 = CARTESIAN_POINT ( 'NONE',  ( -5.999999999999987566, 75.00000000000000000, 0.000000000000000000 ) ) ;
#53 = DIRECTION ( 'NONE',  ( -0.000000000000000000, -1.000000000000000000, -0.000000000000000000 ) ) ;
#54 = APPLICATION_CONTEXT ( 'automotive_design' ) ;
#55 = SURFACE_SIDE_STYLE ('',( #36 ) ) ;
#56 = DIRECTION ( 'NONE',  ( -0.000000000000000000, -1.000000000000000000, -0.000000000000000000 ) ) ;
#57 = CIRCLE ( 'NONE', #84, 5.999999999999993783 ) ;
#58 = DIRECTION ( 'NONE',  ( -1.000000000000000000, 0.000000000000000000, 0.000000000000000000 ) ) ;
#59 = DIRECTION ( 'NONE',  ( 1.360718665719280903E-16, 1.000000000000000000, -0.000000000000000000 ) ) ;
#60 = LINE ( 'NONE', #215, #147 ) ;
#61 = APPLICATION_PROTOCOL_DEFINITION ( 'draft international standard', 'automotive_design', 1998, #19 ) ;
#62 = MECHANICAL_DESIGN_GEOMETRIC_PRESENTATION_REPRESENTATION (  '', ( #96 ), #46 ) ;
#63 = PRESENTATION_STYLE_ASSIGNMENT (( #239 ) ) ;
#64 = EDGE_CURVE ( 'NONE', #66, #89, #274, .T. ) ;
#65 =( NAMED_UNIT ( * ) PLANE_ANGLE_UNIT ( ) SI_UNIT ( $, .RADIAN. ) );
#66 = VERTEX_POINT ( 'NONE', #256 ) ;
#67 = ORIENTED_EDGE ( 'NONE', *, *, #255, .F. ) ;
#68 =( NAMED_UNIT ( * ) PLANE_ANGLE_UNIT ( ) SI_UNIT ( $, .RADIAN. ) );
#69 = AXIS2_PLACEMENT_3D ( 'NONE', #207, #56, #186 ) ;
#70 = PRESENTATION_LAYER_ASSIGNMENT (  '', '', ( #203 ) ) ;
#71 = FILL_AREA_STYLE ('',( #31 ) ) ;
#72 = ORIENTED_EDGE ( 'NONE', *, *, #42, .F. ) ;
#73 = PLANE ( 'NONE',  #123 ) ;
#74 = ORIENTED_EDGE ( 'NONE', *, *, #26, .F. ) ;
#75 = CARTESIAN_POINT ( 'NONE',  ( -7.703719777548943412E-31, 30.00000000000000000, 0.000000000000000000 ) ) ;
#76 = EDGE_LOOP ( 'NONE', ( #204, #219 ) ) ;
#77 = PLANE ( 'NONE',  #86 ) ;
#78 =( GEOMETRIC_REPRESENTATION_CONTEXT ( 3 ) GLOBAL_UNCERTAINTY_ASSIGNED_CONTEXT ( ( #115 ) ) GLOBAL_UNIT_ASSIGNED_CONTEXT ( ( #158, #3, #247 ) ) REPRESENTATION_CONTEXT ( 'NONE', 'WORKASPACE' ) );
#79 = UNCERTAINTY_MEASURE_WITH_UNIT (LENGTH_MEASURE( 1.000000000000000082E-05 ), #25, 'distance_accuracy_value', 'NONE');
#80 = DIRECTION ( 'NONE',  ( 1.360718665719280903E-16, 1.000000000000000000, -0.000000000000000000 ) ) ;
#81 = CARTESIAN_POINT ( 'NONE',  ( 6.123233995736762930E-15, 75.00000000000000000, 0.000000000000000000 ) ) ;
#82 =( NAMED_UNIT ( * ) PLANE_ANGLE_UNIT ( ) SI_UNIT ( $, .RADIAN. ) );
#83 = DIRECTION ( 'NONE',  ( -1.360718665719280903E-16, -1.000000000000000000, 0.000000000000000000 ) ) ;
#84 = AXIS2_PLACEMENT_3D ( 'NONE', #151, #268, #88 ) ;
#85 = SURFACE_SIDE_STYLE ('',( #170 ) ) ;
#86 = AXIS2_PLACEMENT_3D ( 'NONE', #8, #98, #261 ) ;
#87 =( NAMED_UNIT ( * ) SI_UNIT ( $, .STERADIAN. ) SOLID_ANGLE_UNIT ( ) );
#88 = DIRECTION ( 'NONE',  ( -1.000000000000000000, 0.000000000000000000, 0.000000000000000000 ) ) ;
#89 = VERTEX_POINT ( 'NONE', #258 ) ;
#90 = ORIENTED_EDGE ( 'NONE', *, *, #7, .F. ) ;
#91 = VECTOR ( 'NONE', #227, 1000.000000000000000 ) ;
#92 = DIRECTION ( 'NONE',  ( 1.360718665719280903E-16, 1.000000000000000000, -0.000000000000000000 ) ) ;
#93 = FILL_AREA_STYLE_COLOUR ( '', #197 ) ;
#94 = EDGE_CURVE ( 'NONE', #155, #112, #20, .T. ) ;
#95 = CIRCLE ( 'NONE', #69, 6.000000000000000000 ) ;
#96 = STYLED_ITEM ( 'NONE', ( #131 ), #214 ) ;
#97 = DIRECTION ( 'NONE',  ( 1.360718665719280903E-16, 1.000000000000000000, -0.000000000000000000 ) ) ;
#98 = DIRECTION ( 'NONE',  ( 0.000000000000000000, 1.000000000000000000, 0.000000000000000000 ) ) ;
#99 = DIRECTION ( 'NONE',  ( 1.360718665719280903E-16, 1.000000000000000000, -0.000000000000000000 ) ) ;
#100 =( LENGTH_UNIT ( ) NAMED_UNIT ( * ) SI_UNIT ( .MILLI., .METRE. ) );
#101 = FILL_AREA_STYLE ('',( #141 ) ) ;
#102 = STYLED_ITEM ( 'NONE', ( #45 ), #196 ) ;
#103 = DIRECTION ( 'NONE',  ( -1.000000000000000000, 1.360718665719280903E-16, 0.000000000000000000 ) ) ;
#104 = FILL_AREA_STYLE ('',( #44 ) ) ;
#105 = DIRECTION ( 'NONE',  ( 1.360718665719280903E-16, 1.000000000000000000, -0.000000000000000000 ) ) ;
#106 = MECHANICAL_DESIGN_GEOMETRIC_PRESENTATION_REPRESENTATION (  '', ( #148 ), #250 ) ;
#107 =( GEOMETRIC_REPRESENTATION_CONTEXT ( 3 ) GLOBAL_UNCERTAINTY_ASSIGNED_CONTEXT ( ( #12 ) ) GLOBAL_UNIT_ASSIGNED_CONTEXT ( ( #138, #185, #166 ) ) REPRESENTATION_CONTEXT ( 'NONE', 'WORKASPACE' ) );
#108 = AXIS2_PLACEMENT_3D ( 'NONE', #109, #92, #202 ) ;
#109 = CARTESIAN_POINT ( 'NONE',  ( 6.123233995736762930E-15, 75.00000000000000000, 0.000000000000000000 ) ) ;
#110 = MANIFOLD_SOLID_BREP ( 'Revolve - Tool Body (Straight Shanked)', #284 ) ;
#111 = ORIENTED_EDGE ( 'NONE', *, *, #278, .T. ) ;
#112 = VERTEX_POINT ( 'NONE', #189 ) ;
#113 = PRESENTATION_LAYER_ASSIGNMENT (  '', '', ( #96 ) ) ;
#114 = DIRECTION ( 'NONE',  ( -0.000000000000000000, -1.000000000000000000, -0.000000000000000000 ) ) ;
#115 = UNCERTAINTY_MEASURE_WITH_UNIT (LENGTH_MEASURE( 1.000000000000000082E-05 ), #158, 'distance_accuracy_value', 'NONE');
#116 = MECHANICAL_DESIGN_GEOMETRIC_PRESENTATION_REPRESENTATION (  '', ( #102 ), #1 ) ;
#117 = CARTESIAN_POINT ( 'NONE',  ( 5.554665861710580935E-32, 30.00000000000000000, 0.000000000000000000 ) ) ;
#118 = CARTESIAN_POINT ( 'NONE',  ( 0.000000000000000000, 0.000000000000000000, 0.000000000000000000 ) ) ;
#119 = SHAPE_DEFINITION_REPRESENTATION ( #262, #156 ) ;
#120 = PRODUCT_DEFINITION_CONTEXT ( 'detailed design', #19, 'design' ) ;
#121 = DIRECTION ( 'NONE',  ( -1.000000000000000000, 0.000000000000000000, 0.000000000000000000 ) ) ;
#122 = FACE_OUTER_BOUND ( 'NONE', #153, .T. ) ;
#123 = AXIS2_PLACEMENT_3D ( 'NONE', #117, #105, #103 ) ;
#124 = FACE_OUTER_BOUND ( 'NONE', #76, .T. ) ;
#125 = ORIENTED_EDGE ( 'NONE', *, *, #144, .F. ) ;
#126 = DIRECTION ( 'NONE',  ( 0.000000000000000000, -1.000000000000000000, -0.000000000000000000 ) ) ;
#127 = ORIENTED_EDGE ( 'NONE', *, *, #205, .T. ) ;
#128 = VECTOR ( 'NONE', #97, 1000.000000000000000 ) ;
#129 = MECHANICAL_DESIGN_GEOMETRIC_PRESENTATION_REPRESENTATION (  '', ( #34 ), #78 ) ;
#130 = VERTEX_POINT ( 'NONE', #52 ) ;
#131 = PRESENTATION_STYLE_ASSIGNMENT (( #29 ) ) ;
#132 = CARTESIAN_POINT ( 'NONE',  ( 6.000000000000002665, 75.00000000000000000, 7.347880794884115792E-16 ) ) ;
#133 = ADVANCED_FACE ( 'NONE', ( #122 ), #146, .F. ) ;
#134 = SURFACE_SIDE_STYLE ('',( #9 ) ) ;
#135 = COLOUR_RGB ( '',1.000000000000000000, 0.000000000000000000, 0.000000000000000000 ) ;
#136 = DIRECTION ( 'NONE',  ( 0.000000000000000000, 0.000000000000000000, -1.000000000000000000 ) ) ;
#137 = FACE_OUTER_BOUND ( 'NONE', #223, .T. ) ;
#138 =( LENGTH_UNIT ( ) NAMED_UNIT ( * ) SI_UNIT ( .MILLI., .METRE. ) );
#139 = AXIS2_PLACEMENT_3D ( 'NONE', #75, #99, #228 ) ;
#140 = ORIENTED_EDGE ( 'NONE', *, *, #205, .F. ) ;
#141 = FILL_AREA_STYLE_COLOUR ( '', #183 ) ;
#142 = UNCERTAINTY_MEASURE_WITH_UNIT (LENGTH_MEASURE( 1.000000000000000082E-05 ), #2, 'distance_accuracy_value', 'NONE');
#143 = CARTESIAN_POINT ( 'NONE',  ( 6.000000000000000000, 75.00000000000000000, 7.347880794884117764E-16 ) ) ;
#144 = EDGE_CURVE ( 'NONE', #89, #66, #39, .T. ) ;
#145 =( NAMED_UNIT ( * ) SI_UNIT ( $, .STERADIAN. ) SOLID_ANGLE_UNIT ( ) );
#146 = PLANE ( 'NONE',  #281 ) ;
#147 = VECTOR ( 'NONE', #168, 1000.000000000000000 ) ;
#148 = STYLED_ITEM ( 'NONE', ( #63 ), #110 ) ;
#149 = DIRECTION ( 'NONE',  ( -1.000000000000000000, 0.000000000000000000, 0.000000000000000000 ) ) ;
#150 = FACE_OUTER_BOUND ( 'NONE', #47, .T. ) ;
#151 = CARTESIAN_POINT ( 'NONE',  ( 6.123233995736762930E-15, 75.00000000000000000, 0.000000000000000000 ) ) ;
#152 = PRESENTATION_LAYER_ASSIGNMENT (  '', '', ( #34 ) ) ;
#153 = EDGE_LOOP ( 'NONE', ( #270, #246 ) ) ;
#154 = SURFACE_STYLE_FILL_AREA ( #71 ) ;
#155 = VERTEX_POINT ( 'NONE', #22 ) ;
#156 = ADVANCED_BREP_SHAPE_REPRESENTATION ( '59557', ( #214, #110, #198 ), #15 ) ;
#157 = PRESENTATION_LAYER_ASSIGNMENT (  '', '', ( #211 ) ) ;
#158 =( LENGTH_UNIT ( ) NAMED_UNIT ( * ) SI_UNIT ( .MILLI., .METRE. ) );
#159 = EDGE_LOOP ( 'NONE', ( #35, #10, #74, #140 ) ) ;
#160 = PRODUCT_DEFINITION ( 'UNKNOWN', '', #275, #120 ) ;
#161 = LINE ( 'NONE', #132, #91 ) ;
#162 = ORIENTED_EDGE ( 'NONE', *, *, #64, .F. ) ;
#163 = ORIENTED_EDGE ( 'NONE', *, *, #42, .T. ) ;
#164 = ORIENTED_EDGE ( 'NONE', *, *, #144, .T. ) ;
#165 = VERTEX_POINT ( 'NONE', #192 ) ;
#166 =( NAMED_UNIT ( * ) SI_UNIT ( $, .STERADIAN. ) SOLID_ANGLE_UNIT ( ) );
#167 = AXIS2_PLACEMENT_3D ( 'NONE', #41, #59, #121 ) ;
#168 = DIRECTION ( 'NONE',  ( -0.000000000000000000, -1.000000000000000000, -0.000000000000000000 ) ) ;
#169 = DIRECTION ( 'NONE',  ( 0.000000000000000000, 0.000000000000000000, 1.000000000000000000 ) ) ;
#170 = SURFACE_STYLE_FILL_AREA ( #101 ) ;
#171 = UNCERTAINTY_MEASURE_WITH_UNIT (LENGTH_MEASURE( 1.000000000000000082E-05 ), #240, 'distance_accuracy_value', 'NONE');
#172 =( NAMED_UNIT ( * ) SI_UNIT ( $, .STERADIAN. ) SOLID_ANGLE_UNIT ( ) );
#173 = CARTESIAN_POINT ( 'NONE',  ( 0.000000000000000000, 0.000000000000000000, 0.000000000000000000 ) ) ;
#174 =( LENGTH_UNIT ( ) NAMED_UNIT ( * ) SI_UNIT ( .MILLI., .METRE. ) );
#175 = CIRCLE ( 'NONE', #50, 6.000000000000000000 ) ;
#176 = ORIENTED_EDGE ( 'NONE', *, *, #32, .F. ) ;
#177 = PRESENTATION_LAYER_ASSIGNMENT (  '', '', ( #102 ) ) ;
#178 = PRESENTATION_STYLE_ASSIGNMENT (( #199 ) ) ;
#179 = VERTEX_POINT ( 'NONE', #143 ) ;
#180 = FACE_OUTER_BOUND ( 'NONE', #233, .T. ) ;
#181 = FILL_AREA_STYLE ('',( #93 ) ) ;
#182 = CARTESIAN_POINT ( 'NONE',  ( 0.000000000000000000, 30.00000000000000000, 0.000000000000000000 ) ) ;
#183 = COLOUR_RGB ( '',0.7921568627450980005, 0.8196078431372548767, 0.9333333333333333481 ) ;
#184 = CARTESIAN_POINT ( 'NONE',  ( 0.000000000000000000, 0.000000000000000000, 0.000000000000000000 ) ) ;
#185 =( NAMED_UNIT ( * ) PLANE_ANGLE_UNIT ( ) SI_UNIT ( $, .RADIAN. ) );
#186 = DIRECTION ( 'NONE',  ( 0.000000000000000000, 0.000000000000000000, -1.000000000000000000 ) ) ;
#187 = UNCERTAINTY_MEASURE_WITH_UNIT (LENGTH_MEASURE( 1.000000000000000082E-05 ), #174, 'distance_accuracy_value', 'NONE');
#188 = COLOUR_RGB ( '',1.000000000000000000, 0.000000000000000000, 0.000000000000000000 ) ;
#189 = CARTESIAN_POINT ( 'NONE',  ( 0.000000000000000000, 0.000000000000000000, -6.000000000000000000 ) ) ;
#190 = DIRECTION ( 'NONE',  ( 1.000000000000000000, -1.360718665719280903E-16, 0.000000000000000000 ) ) ;
#191 = DIRECTION ( 'NONE',  ( 1.360718665719280903E-16, 1.000000000000000000, -0.000000000000000000 ) ) ;
#192 = CARTESIAN_POINT ( 'NONE',  ( 7.347880794884119736E-16, 30.00000000000000000, 6.000000000000000000 ) ) ;
#193 = ADVANCED_FACE ( 'NONE', ( #150 ), #210, .T. ) ;
#194 = PRESENTATION_STYLE_ASSIGNMENT (( #221 ) ) ;
#195 =( NAMED_UNIT ( * ) SI_UNIT ( $, .STERADIAN. ) SOLID_ANGLE_UNIT ( ) );
#196 = ADVANCED_FACE ( 'NONE', ( #234 ), #213, .T. ) ;
#197 = COLOUR_RGB ( '',1.000000000000000000, 0.000000000000000000, 0.000000000000000000 ) ;
#198 = AXIS2_PLACEMENT_3D ( 'NONE', #13, #169, #287 ) ;
#199 = SURFACE_STYLE_USAGE ( .BOTH. , #271 ) ;
#200 = LINE ( 'NONE', #253, #217 ) ;
#201 = EDGE_LOOP ( 'NONE', ( #162, #125 ) ) ;
#202 = DIRECTION ( 'NONE',  ( -1.000000000000000000, 0.000000000000000000, 0.000000000000000000 ) ) ;
#203 = STYLED_ITEM ( 'NONE', ( #178 ), #260 ) ;
#204 = ORIENTED_EDGE ( 'NONE', *, *, #26, .T. ) ;
#205 = EDGE_CURVE ( 'NONE', #24, #112, #60, .T. ) ;
#206 = COLOUR_RGB ( '',0.7921568627450980005, 0.8196078431372548767, 0.9333333333333333481 ) ;
#207 = CARTESIAN_POINT ( 'NONE',  ( 0.000000000000000000, 0.000000000000000000, 0.000000000000000000 ) ) ;
#208 = DIRECTION ( 'NONE',  ( 0.000000000000000000, 0.000000000000000000, -1.000000000000000000 ) ) ;
#209 = EDGE_CURVE ( 'NONE', #179, #130, #269, .T. ) ;
#210 = CYLINDRICAL_SURFACE ( 'NONE', #28, 5.999999999999996447 ) ;
#211 = STYLED_ITEM ( 'NONE', ( #230 ), #14 ) ;
#212 = AXIS2_PLACEMENT_3D ( 'NONE', #118, #286, #264 ) ;
#213 = CYLINDRICAL_SURFACE ( 'NONE', #212, 6.000000000000000000 ) ;
#214 = MANIFOLD_SOLID_BREP ( 'Revolve - Cutting Edge', #242 ) ;
#215 = CARTESIAN_POINT ( 'NONE',  ( 0.000000000000000000, 0.000000000000000000, -6.000000000000000000 ) ) ;
#216 = SURFACE_STYLE_FILL_AREA ( #104 ) ;
#217 = VECTOR ( 'NONE', #48, 1000.000000000000000 ) ;
#218 = PRODUCT_RELATED_PRODUCT_CATEGORY ( 'part', '', ( #30 ) ) ;
#219 = ORIENTED_EDGE ( 'NONE', *, *, #94, .T. ) ;
#220 = CYLINDRICAL_SURFACE ( 'NONE', #236, 6.000000000000000000 ) ;
#221 = SURFACE_STYLE_USAGE ( .BOTH. , #225 ) ;
#222 = COLOUR_RGB ( '',1.000000000000000000, 0.000000000000000000, 0.000000000000000000 ) ;
#223 = EDGE_LOOP ( 'NONE', ( #90, #176 ) ) ;
#224 = DIRECTION ( 'NONE',  ( 0.000000000000000000, 0.000000000000000000, -1.000000000000000000 ) ) ;
#225 = SURFACE_SIDE_STYLE ('',( #154 ) ) ;
#226 = ORIENTED_EDGE ( 'NONE', *, *, #209, .F. ) ;
#227 = DIRECTION ( 'NONE',  ( 1.360718665719280903E-16, 1.000000000000000000, -0.000000000000000000 ) ) ;
#228 = DIRECTION ( 'NONE',  ( -1.000000000000000000, 0.000000000000000000, 0.000000000000000000 ) ) ;
#229 = FILL_AREA_STYLE ('',( #259 ) ) ;
#230 = PRESENTATION_STYLE_ASSIGNMENT (( #280 ) ) ;
#231 = AXIS2_PLACEMENT_3D ( 'NONE', #37, #114, #208 ) ;
#232 = MECHANICAL_DESIGN_GEOMETRIC_PRESENTATION_REPRESENTATION (  '', ( #203 ), #21 ) ;
#233 = EDGE_LOOP ( 'NONE', ( #40, #111, #67, #72 ) ) ;
#234 = FACE_OUTER_BOUND ( 'NONE', #159, .T. ) ;
#235 = APPLICATION_PROTOCOL_DEFINITION ( 'draft international standard', 'automotive_design', 1998, #54 ) ;
#236 = AXIS2_PLACEMENT_3D ( 'NONE', #272, #249, #224 ) ;
#237 = SURFACE_STYLE_USAGE ( .BOTH. , #43 ) ;
#238 = UNCERTAINTY_MEASURE_WITH_UNIT (LENGTH_MEASURE( 1.000000000000000082E-05 ), #100, 'distance_accuracy_value', 'NONE');
#239 = SURFACE_STYLE_USAGE ( .BOTH. , #55 ) ;
#240 =( LENGTH_UNIT ( ) NAMED_UNIT ( * ) SI_UNIT ( .MILLI., .METRE. ) );
#241 = ADVANCED_FACE ( 'NONE', ( #124 ), #288, .T. ) ;
#242 = CLOSED_SHELL ( 'NONE', ( #196, #14, #260, #241 ) ) ;
#243 = FILL_AREA_STYLE ('',( #23 ) ) ;
#244 = AXIS2_PLACEMENT_3D ( 'NONE', #263, #191, #58 ) ;
#245 =( NAMED_UNIT ( * ) PLANE_ANGLE_UNIT ( ) SI_UNIT ( $, .RADIAN. ) );
#246 = ORIENTED_EDGE ( 'NONE', *, *, #209, .T. ) ;
#247 =( NAMED_UNIT ( * ) SI_UNIT ( $, .STERADIAN. ) SOLID_ANGLE_UNIT ( ) );
#248 = EDGE_LOOP ( 'NONE', ( #273, #277, #127, #33 ) ) ;
#249 = DIRECTION ( 'NONE',  ( -0.000000000000000000, -1.000000000000000000, -0.000000000000000000 ) ) ;
#250 =( GEOMETRIC_REPRESENTATION_CONTEXT ( 3 ) GLOBAL_UNCERTAINTY_ASSIGNED_CONTEXT ( ( #171 ) ) GLOBAL_UNIT_ASSIGNED_CONTEXT ( ( #240, #266, #16 ) ) REPRESENTATION_CONTEXT ( 'NONE', 'WORKASPACE' ) );
#251 = ORIENTED_EDGE ( 'NONE', *, *, #278, .F. ) ;
#252 = FACE_OUTER_BOUND ( 'NONE', #248, .T. ) ;
#253 = CARTESIAN_POINT ( 'NONE',  ( 7.347880794884119736E-16, 0.000000000000000000, 6.000000000000000000 ) ) ;
#254 = DIRECTION ( 'NONE',  ( -0.000000000000000000, -1.000000000000000000, -0.000000000000000000 ) ) ;
#255 = EDGE_CURVE ( 'NONE', #130, #179, #57, .T. ) ;
#256 = CARTESIAN_POINT ( 'NONE',  ( -6.000000000000000000, 30.00000000000000000, 0.000000000000000000 ) ) ;
#257 = PRESENTATION_LAYER_ASSIGNMENT (  '', '', ( #148 ) ) ;
#258 = CARTESIAN_POINT ( 'NONE',  ( 6.000000000000000000, 30.00000000000000000, 7.347880794884117764E-16 ) ) ;
#259 = FILL_AREA_STYLE_COLOUR ( '', #206 ) ;
#260 = ADVANCED_FACE ( 'NONE', ( #252 ), #220, .T. ) ;
#261 = DIRECTION ( 'NONE',  ( 0.000000000000000000, -0.000000000000000000, 1.000000000000000000 ) ) ;
#262 = PRODUCT_DEFINITION_SHAPE ( 'NONE', 'NONE',  #160 ) ;
#263 = CARTESIAN_POINT ( 'NONE',  ( 6.123233995736762930E-15, 75.00000000000000000, 0.000000000000000000 ) ) ;
#264 = DIRECTION ( 'NONE',  ( 0.000000000000000000, 0.000000000000000000, -1.000000000000000000 ) ) ;
#265 = EDGE_CURVE ( 'NONE', #165, #155, #200, .T. ) ;
#266 =( NAMED_UNIT ( * ) PLANE_ANGLE_UNIT ( ) SI_UNIT ( $, .RADIAN. ) );
#267 = DIRECTION ( 'NONE',  ( 0.000000000000000000, 0.000000000000000000, -1.000000000000000000 ) ) ;
#268 = DIRECTION ( 'NONE',  ( 1.360718665719280903E-16, 1.000000000000000000, -0.000000000000000000 ) ) ;
#269 = CIRCLE ( 'NONE', #244, 5.999999999999993783 ) ;
#270 = ORIENTED_EDGE ( 'NONE', *, *, #255, .T. ) ;
#271 = SURFACE_SIDE_STYLE ('',( #4 ) ) ;
#272 = CARTESIAN_POINT ( 'NONE',  ( 0.000000000000000000, 0.000000000000000000, 0.000000000000000000 ) ) ;
#273 = ORIENTED_EDGE ( 'NONE', *, *, #265, .F. ) ;
#274 = CIRCLE ( 'NONE', #139, 6.000000000000000000 ) ;
#275 = PRODUCT_DEFINITION_FORMATION_WITH_SPECIFIED_SOURCE ( 'ANY', '', #30, .NOT_KNOWN. ) ;
#276 = CYLINDRICAL_SURFACE ( 'NONE', #108, 5.999999999999996447 ) ;
#277 = ORIENTED_EDGE ( 'NONE', *, *, #32, .T. ) ;
#278 = EDGE_CURVE ( 'NONE', #89, #179, #161, .T. ) ;
#279 = LINE ( 'NONE', #11, #128 ) ;
#280 = SURFACE_STYLE_USAGE ( .BOTH. , #134 ) ;
#281 = AXIS2_PLACEMENT_3D ( 'NONE', #18, #83, #190 ) ;
#282 = DIRECTION ( 'NONE',  ( 0.000000000000000000, 0.000000000000000000, -1.000000000000000000 ) ) ;
#283 = ADVANCED_FACE ( 'NONE', ( #180 ), #276, .T. ) ;
#284 = CLOSED_SHELL ( 'NONE', ( #283, #285, #193, #133 ) ) ;
#285 = ADVANCED_FACE ( 'NONE', ( #5 ), #73, .F. ) ;
#286 = DIRECTION ( 'NONE',  ( -0.000000000000000000, -1.000000000000000000, -0.000000000000000000 ) ) ;
#287 = DIRECTION ( 'NONE',  ( 1.000000000000000000, 0.000000000000000000, 0.000000000000000000 ) ) ;
#288 = PLANE ( 'NONE',  #51 ) ;
ENDSEC;
END-ISO-10303-21;
