ISO-10303-21;
HEADER;
FILE_DESCRIPTION (( 'STEP AP214' ),
    '1' );
FILE_NAME ('Micro_GEM-062-3X.STEP',
    '2021-09-01T19:01:29',
    ( '' ),
    ( '' ),
    'SwSTEP 2.0',
    'SolidWorks 2020',
    '' );
FILE_SCHEMA (( 'AUTOMOTIVE_DESIGN' ));
ENDSEC;

DATA;
#1 = LINE ( 'NONE', #23, #287 ) ;
#2 = ADVANCED_FACE ( 'NONE', ( #247 ), #136, .T. ) ;
#3 = DIRECTION ( 'NONE',  ( -1.000000000000000000, 0.0000000000000000000, 1.224646799147353947E-16 ) ) ;
#4 =( GEOMETRIC_REPRESENTATION_CONTEXT ( 3 ) GLOBAL_UNCERTAINTY_ASSIGNED_CONTEXT ( ( #259 ) ) GLOBAL_UNIT_ASSIGNED_CONTEXT ( ( #224, #294, #166 ) ) REPRESENTATION_CONTEXT ( 'NONE', 'WORKASPACE' ) );
#5 = ORIENTED_EDGE ( 'NONE', *, *, #109, .F. ) ;
#6 = ORIENTED_EDGE ( 'NONE', *, *, #269, .F. ) ;
#7 = CARTESIAN_POINT ( 'NONE',  ( 0.0000000000000000000, 0.0000000000000000000, 1.500000000000000222 ) ) ;
#8 = CIRCLE ( 'NONE', #215, 0.03121874999999999997 ) ;
#9 = DIRECTION ( 'NONE',  ( -1.000000000000000000, 0.0000000000000000000, 1.224646799147353947E-16 ) ) ;
#10 = MECHANICAL_DESIGN_GEOMETRIC_PRESENTATION_REPRESENTATION (  '', ( #265 ), #142 ) ;
#11 = DIRECTION ( 'NONE',  ( -1.224646799147353700E-16, -0.0000000000000000000, -1.000000000000000000 ) ) ;
#12 = CARTESIAN_POINT ( 'NONE',  ( 0.04750000000000064587, 5.817072295950006528E-18, 1.500000000000000222 ) ) ;
#13 = DIRECTION ( 'NONE',  ( 0.7071067811865462405, 8.659560562354916834E-17, -0.7071067811865486830 ) ) ;
#14 = DIRECTION ( 'NONE',  ( -0.0000000000000000000, -0.0000000000000000000, -1.000000000000000000 ) ) ;
#15 = SURFACE_STYLE_FILL_AREA ( #67 ) ;
#16 = AXIS2_PLACEMENT_3D ( 'NONE', #171, #54, #31 ) ;
#17 = CARTESIAN_POINT ( 'NONE',  ( -0.06250000000000002776, 0.0000000000000000000, 1.485000000000000764 ) ) ;
#18 = LENGTH_MEASURE_WITH_UNIT ( LENGTH_MEASURE( 0.02539999999999999897 ), #111 );
#19 = ADVANCED_FACE ( 'NONE', ( #140 ), #49, .T. ) ;
#20 = ORIENTED_EDGE ( 'NONE', *, *, #76, .T. ) ;
#21 = AXIS2_PLACEMENT_3D ( 'NONE', #84, #11, #155 ) ;
#22 = DIMENSIONAL_EXPONENTS ( 1.000000000000000000, 0.0000000000000000000, 0.0000000000000000000, 0.0000000000000000000, 0.0000000000000000000, 0.0000000000000000000, 0.0000000000000000000 ) ;
#23 = CARTESIAN_POINT ( 'NONE',  ( 0.03121875000000002426, 0.0000000000000000000, 0.1880000000000000282 ) ) ;
#24 = EDGE_CURVE ( 'NONE', #189, #232, #1, .T. ) ;
#25 = ORIENTED_EDGE ( 'NONE', *, *, #279, .F. ) ;
#26 = VERTEX_POINT ( 'NONE', #95 ) ;
#27 = VECTOR ( 'NONE', #216, 39.37007874015748143 ) ;
#28 = VERTEX_POINT ( 'NONE', #167 ) ;
#29 = EDGE_CURVE ( 'NONE', #204, #254, #251, .T. ) ;
#30 = DIRECTION ( 'NONE',  ( -1.224646799147353700E-16, -0.0000000000000000000, -1.000000000000000000 ) ) ;
#31 = DIRECTION ( 'NONE',  ( 1.000000000000000000, 0.0000000000000000000, 0.0000000000000000000 ) ) ;
#32 = UNCERTAINTY_MEASURE_WITH_UNIT (LENGTH_MEASURE( 1.000000000000000082E-05 ), #208, 'distance_accuracy_value', 'NONE');
#33 = AXIS2_PLACEMENT_3D ( 'NONE', #229, #94, #3 ) ;
#34 = CARTESIAN_POINT ( 'NONE',  ( 2.302335982397025094E-17, 0.0000000000000000000, 0.1880000000000000282 ) ) ;
#35 = CARTESIAN_POINT ( 'NONE',  ( 0.0000000000000000000, 0.0000000000000000000, 1.500000000000000222 ) ) ;
#36 = LINE ( 'NONE', #214, #180 ) ;
#37 = APPLICATION_CONTEXT ( 'automotive_design' ) ;
#38 = SURFACE_SIDE_STYLE ('',( #15 ) ) ;
#39 = AXIS2_PLACEMENT_3D ( 'NONE', #124, #218, #9 ) ;
#40 = AXIS2_PLACEMENT_3D ( 'NONE', #88, #42, #179 ) ;
#41 = CYLINDRICAL_SURFACE ( 'NONE', #201, 0.06250000000000002776 ) ;
#42 = DIRECTION ( 'NONE',  ( 0.0000000000000000000, 0.0000000000000000000, 1.000000000000000000 ) ) ;
#43 = VECTOR ( 'NONE', #240, 39.37007874015748143 ) ;
#44 = VERTEX_POINT ( 'NONE', #82 ) ;
#45 =( NAMED_UNIT ( * ) PLANE_ANGLE_UNIT ( ) SI_UNIT ( $, .RADIAN. ) );
#46 = DIRECTION ( 'NONE',  ( 1.224646799147353700E-16, 0.0000000000000000000, 1.000000000000000000 ) ) ;
#47 = AXIS2_PLACEMENT_3D ( 'NONE', #128, #235, #238 ) ;
#48 = PRODUCT_CONTEXT ( 'NONE', #210, 'mechanical' ) ;
#49 = CYLINDRICAL_SURFACE ( 'NONE', #33, 0.03121874999999999997 ) ;
#50 = ORIENTED_EDGE ( 'NONE', *, *, #86, .T. ) ;
#51 = ORIENTED_EDGE ( 'NONE', *, *, #288, .F. ) ;
#52 = CIRCLE ( 'NONE', #39, 0.03121874999999999997 ) ;
#53 = DIRECTION ( 'NONE',  ( 1.224646799147353700E-16, 0.0000000000000000000, 1.000000000000000000 ) ) ;
#54 = DIRECTION ( 'NONE',  ( -1.224646799147353700E-16, -0.0000000000000000000, -1.000000000000000000 ) ) ;
#55 = DIRECTION ( 'NONE',  ( -1.000000000000000000, 0.0000000000000000000, 0.0000000000000000000 ) ) ;
#56 = ADVANCED_BREP_SHAPE_REPRESENTATION ( 'Micro_GEM-062-3X', ( #217, #85 ), #4 ) ;
#57 = EDGE_CURVE ( 'NONE', #26, #254, #52, .T. ) ;
#58 = UNCERTAINTY_MEASURE_WITH_UNIT (LENGTH_MEASURE( 1.000000000000000082E-05 ), #262, 'distance_accuracy_value', 'NONE');
#59 = AXIS2_PLACEMENT_3D ( 'NONE', #241, #282, #286 ) ;
#60 = CARTESIAN_POINT ( 'NONE',  ( 0.0000000000000000000, 0.0000000000000000000, 1.500000000000000222 ) ) ;
#61 = DIRECTION ( 'NONE',  ( 0.0000000000000000000, 0.0000000000000000000, -1.000000000000000000 ) ) ;
#62 = DIRECTION ( 'NONE',  ( -1.000000000000000000, 0.0000000000000000000, 1.224646799147353947E-16 ) ) ;
#63 = FACE_OUTER_BOUND ( 'NONE', #253, .T. ) ;
#64 = CIRCLE ( 'NONE', #59, 0.03121874999999999997 ) ;
#65 = PLANE ( 'NONE',  #292 ) ;
#66 = DIRECTION ( 'NONE',  ( -1.224646799147353700E-16, -0.0000000000000000000, -1.000000000000000000 ) ) ;
#67 = FILL_AREA_STYLE ('',( #133 ) ) ;
#68 = AXIS2_PLACEMENT_3D ( 'NONE', #60, #193, #196 ) ;
#69 = CARTESIAN_POINT ( 'NONE',  ( 2.302335982397025094E-17, 0.0000000000000000000, 0.1880000000000000282 ) ) ;
#70 = FILL_AREA_STYLE ('',( #120 ) ) ;
#71 = ORIENTED_EDGE ( 'NONE', *, *, #57, .T. ) ;
#72 = CIRCLE ( 'NONE', #148, 0.03121874999999999997 ) ;
#73 = ORIENTED_EDGE ( 'NONE', *, *, #29, .F. ) ;
#74 = DIRECTION ( 'NONE',  ( 0.0000000000000000000, 0.0000000000000000000, 1.000000000000000000 ) ) ;
#75 = ORIENTED_EDGE ( 'NONE', *, *, #279, .T. ) ;
#76 = EDGE_CURVE ( 'NONE', #299, #97, #152, .T. ) ;
#77 = ORIENTED_EDGE ( 'NONE', *, *, #92, .T. ) ;
#78 =( GEOMETRIC_REPRESENTATION_CONTEXT ( 3 ) GLOBAL_UNCERTAINTY_ASSIGNED_CONTEXT ( ( #58 ) ) GLOBAL_UNIT_ASSIGNED_CONTEXT ( ( #262, #223, #267 ) ) REPRESENTATION_CONTEXT ( 'NONE', 'WORKASPACE' ) );
#79 = CARTESIAN_POINT ( 'NONE',  ( -0.03121874999999999997, 0.0000000000000000000, 3.823194226088145228E-18 ) ) ;
#80 = CARTESIAN_POINT ( 'NONE',  ( -0.03121874999999997916, 3.823194226088143687E-18, 0.1880000000000000282 ) ) ;
#81 = EDGE_CURVE ( 'NONE', #189, #204, #64, .T. ) ;
#82 = CARTESIAN_POINT ( 'NONE',  ( -0.04750000000000064587, 0.0000000000000000000, 1.500000000000000222 ) ) ;
#83 = VECTOR ( 'NONE', #13, 39.37007874015748854 ) ;
#84 = CARTESIAN_POINT ( 'NONE',  ( 4.474917996329785777E-17, 0.0000000000000000000, 0.3654047844199156403 ) ) ;
#85 = AXIS2_PLACEMENT_3D ( 'NONE', #115, #74, #184 ) ;
#86 = EDGE_CURVE ( 'NONE', #232, #97, #264, .T. ) ;
#87 = CARTESIAN_POINT ( 'NONE',  ( -0.06249999999999997918, 0.0000000000000000000, 0.3654047844199156403 ) ) ;
#88 = CARTESIAN_POINT ( 'NONE',  ( 0.0000000000000000000, 0.0000000000000000000, 1.500000000000000222 ) ) ;
#89 = LENGTH_MEASURE_WITH_UNIT ( LENGTH_MEASURE( 0.02539999999999999897 ), #263 );
#90 = AXIS2_PLACEMENT_3D ( 'NONE', #7, #194, #284 ) ;
#91 = SURFACE_STYLE_USAGE ( .BOTH. , #38 ) ;
#92 = EDGE_CURVE ( 'NONE', #299, #28, #141, .T. ) ;
#93 = ORIENTED_EDGE ( 'NONE', *, *, #76, .F. ) ;
#94 = DIRECTION ( 'NONE',  ( -1.224646799147353700E-16, -0.0000000000000000000, -1.000000000000000000 ) ) ;
#95 = CARTESIAN_POINT ( 'NONE',  ( 0.03121874999999999997, 3.823194226088143687E-18, 0.0000000000000000000 ) ) ;
#96 = CONICAL_SURFACE ( 'NONE', #258, 0.03121874999999999997, 0.1745329251994338915 ) ;
#97 = VERTEX_POINT ( 'NONE', #87 ) ;
#98 = ADVANCED_FACE ( 'NONE', ( #170 ), #195, .T. ) ;
#99 = ORIENTED_EDGE ( 'NONE', *, *, #114, .T. ) ;
#100 = CARTESIAN_POINT ( 'NONE',  ( 2.302335982397025094E-17, 0.0000000000000000000, 0.1880000000000000282 ) ) ;
#101 = AXIS2_PLACEMENT_3D ( 'NONE', #69, #46, #188 ) ;
#102 = FACE_OUTER_BOUND ( 'NONE', #274, .T. ) ;
#103 = FACE_OUTER_BOUND ( 'NONE', #296, .T. ) ;
#104 = CARTESIAN_POINT ( 'NONE',  ( -0.04750000000000064587, 0.0000000000000000000, 1.500000000000000222 ) ) ;
#105 = CLOSED_SHELL ( 'NONE', ( #19, #2, #181, #220, #144, #297, #98, #121, #151, #237 ) ) ;
#106 = DIRECTION ( 'NONE',  ( 1.000000000000000000, 0.0000000000000000000, 0.0000000000000000000 ) ) ;
#107 = PRESENTATION_STYLE_ASSIGNMENT (( #91 ) ) ;
#108 = DIRECTION ( 'NONE',  ( 1.000000000000000000, 0.0000000000000000000, 0.0000000000000000000 ) ) ;
#109 = EDGE_CURVE ( 'NONE', #189, #26, #36, .T. ) ;
#110 = CIRCLE ( 'NONE', #191, 0.04750000000000064587 ) ;
#111 =( LENGTH_UNIT ( ) NAMED_UNIT ( * ) SI_UNIT ( $, .METRE. ) );
#112 = DIRECTION ( 'NONE',  ( -1.000000000000000000, 0.0000000000000000000, 0.0000000000000000000 ) ) ;
#113 = ORIENTED_EDGE ( 'NONE', *, *, #203, .F. ) ;
#114 = EDGE_CURVE ( 'NONE', #185, #44, #110, .T. ) ;
#115 = CARTESIAN_POINT ( 'NONE',  ( 0.0000000000000000000, 0.0000000000000000000, 0.0000000000000000000 ) ) ;
#116 = EDGE_LOOP ( 'NONE', ( #5, #183, #139, #119 ) ) ;
#117 = ORIENTED_EDGE ( 'NONE', *, *, #288, .T. ) ;
#118 = SURFACE_STYLE_FILL_AREA ( #70 ) ;
#119 = ORIENTED_EDGE ( 'NONE', *, *, #57, .F. ) ;
#120 = FILL_AREA_STYLE_COLOUR ( '', #277 ) ;
#121 = ADVANCED_FACE ( 'NONE', ( #103 ), #96, .T. ) ;
#122 = ORIENTED_EDGE ( 'NONE', *, *, #114, .F. ) ;
#123 = EDGE_LOOP ( 'NONE', ( #226, #233, #209, #73 ) ) ;
#124 = CARTESIAN_POINT ( 'NONE',  ( 4.682062571497491304E-34, 0.0000000000000000000, 3.823194226088145228E-18 ) ) ;
#125 = DIMENSIONAL_EXPONENTS ( 1.000000000000000000, 0.0000000000000000000, 0.0000000000000000000, 0.0000000000000000000, 0.0000000000000000000, 0.0000000000000000000, 0.0000000000000000000 ) ;
#126 = LINE ( 'NONE', #80, #234 ) ;
#127 = DIRECTION ( 'NONE',  ( 1.000000000000000000, 0.0000000000000000000, 0.0000000000000000000 ) ) ;
#128 = CARTESIAN_POINT ( 'NONE',  ( 0.0000000000000000000, 0.0000000000000000000, 0.0000000000000000000 ) ) ;
#129 = CARTESIAN_POINT ( 'NONE',  ( 0.0000000000000000000, 0.0000000000000000000, 1.500000000000000222 ) ) ;
#130 = STYLED_ITEM ( 'NONE', ( #107 ), #217 ) ;
#131 = LINE ( 'NONE', #222, #293 ) ;
#132 = CIRCLE ( 'NONE', #175, 0.04750000000000064587 ) ;
#133 = FILL_AREA_STYLE_COLOUR ( '', #245 ) ;
#134 = EDGE_CURVE ( 'NONE', #185, #28, #190, .T. ) ;
#135 = PRODUCT_DEFINITION_SHAPE ( 'NONE', 'NONE',  #252 ) ;
#136 = CONICAL_SURFACE ( 'NONE', #101, 0.03121874999999999997, 0.1745329251994338915 ) ;
#137 = ORIENTED_EDGE ( 'NONE', *, *, #134, .F. ) ;
#138 = CARTESIAN_POINT ( 'NONE',  ( 0.0000000000000000000, 0.0000000000000000000, 0.0000000000000000000 ) ) ;
#139 = ORIENTED_EDGE ( 'NONE', *, *, #29, .T. ) ;
#140 = FACE_OUTER_BOUND ( 'NONE', #123, .T. ) ;
#141 = CIRCLE ( 'NONE', #157, 0.06250000000000002776 ) ;
#142 =( GEOMETRIC_REPRESENTATION_CONTEXT ( 3 ) GLOBAL_UNCERTAINTY_ASSIGNED_CONTEXT ( ( #32 ) ) GLOBAL_UNIT_ASSIGNED_CONTEXT ( ( #208, #45, #161 ) ) REPRESENTATION_CONTEXT ( 'NONE', 'WORKASPACE' ) );
#143 = EDGE_LOOP ( 'NONE', ( #137, #51, #231, #6 ) ) ;
#144 = ADVANCED_FACE ( 'NONE', ( #102 ), #150, .T. ) ;
#145 = DIMENSIONAL_EXPONENTS ( 1.000000000000000000, 0.0000000000000000000, 0.0000000000000000000, 0.0000000000000000000, 0.0000000000000000000, 0.0000000000000000000, 0.0000000000000000000 ) ;
#146 = ORIENTED_EDGE ( 'NONE', *, *, #198, .T. ) ;
#147 = ORIENTED_EDGE ( 'NONE', *, *, #165, .F. ) ;
#148 = AXIS2_PLACEMENT_3D ( 'NONE', #199, #66, #62 ) ;
#149 = PRESENTATION_LAYER_ASSIGNMENT (  '', '', ( #265 ) ) ;
#150 = CYLINDRICAL_SURFACE ( 'NONE', #68, 0.06250000000000002776 ) ;
#151 = ADVANCED_FACE ( 'NONE', ( #285 ), #154, .T. ) ;
#152 = LINE ( 'NONE', #290, #43 ) ;
#153 = DIRECTION ( 'NONE',  ( -1.224646799147353700E-16, -0.0000000000000000000, -1.000000000000000000 ) ) ;
#154 = CYLINDRICAL_SURFACE ( 'NONE', #47, 0.03121874999999999997 ) ;
#155 = DIRECTION ( 'NONE',  ( 1.000000000000000000, 0.0000000000000000000, 0.0000000000000000000 ) ) ;
#156 = DIRECTION ( 'NONE',  ( 0.0000000000000000000, 0.0000000000000000000, -1.000000000000000000 ) ) ;
#157 = AXIS2_PLACEMENT_3D ( 'NONE', #177, #172, #127 ) ;
#158 = DIRECTION ( 'NONE',  ( 0.0000000000000000000, 0.0000000000000000000, 1.000000000000000000 ) ) ;
#159 = FACE_OUTER_BOUND ( 'NONE', #281, .T. ) ;
#160 = CARTESIAN_POINT ( 'NONE',  ( 0.0000000000000000000, 0.0000000000000000000, 1.500000000000000222 ) ) ;
#161 =( NAMED_UNIT ( * ) SI_UNIT ( $, .STERADIAN. ) SOLID_ANGLE_UNIT ( ) );
#162 = EDGE_LOOP ( 'NONE', ( #186, #280, #146, #169 ) ) ;
#163 = PRESENTATION_STYLE_ASSIGNMENT (( #276 ) ) ;
#164 = ORIENTED_EDGE ( 'NONE', *, *, #261, .T. ) ;
#165 = EDGE_CURVE ( 'NONE', #44, #299, #219, .T. ) ;
#166 =( NAMED_UNIT ( * ) SI_UNIT ( $, .STERADIAN. ) SOLID_ANGLE_UNIT ( ) );
#167 = CARTESIAN_POINT ( 'NONE',  ( 0.06250000000000002776, 7.654042494670959086E-18, 1.485000000000000764 ) ) ;
#168 = ORIENTED_EDGE ( 'NONE', *, *, #81, .F. ) ;
#169 = ORIENTED_EDGE ( 'NONE', *, *, #24, .F. ) ;
#170 = FACE_OUTER_BOUND ( 'NONE', #143, .T. ) ;
#171 = CARTESIAN_POINT ( 'NONE',  ( 4.474917996329785777E-17, 0.0000000000000000000, 0.3654047844199156403 ) ) ;
#172 = DIRECTION ( 'NONE',  ( 0.0000000000000000000, 0.0000000000000000000, -1.000000000000000000 ) ) ;
#173 = EDGE_CURVE ( 'NONE', #204, #189, #8, .T. ) ;
#174 = CONICAL_SURFACE ( 'NONE', #90, 0.04750000000000064587, 0.7853981633974466137 ) ;
#175 = AXIS2_PLACEMENT_3D ( 'NONE', #291, #158, #108 ) ;
#176 = CARTESIAN_POINT ( 'NONE',  ( 0.03121875000000002426, 0.0000000000000000000, 0.1880000000000000282 ) ) ;
#177 = CARTESIAN_POINT ( 'NONE',  ( 0.0000000000000000000, 0.0000000000000000000, 1.485000000000000764 ) ) ;
#178 = PRODUCT_RELATED_PRODUCT_CATEGORY ( 'part', '', ( #197 ) ) ;
#179 = DIRECTION ( 'NONE',  ( 1.000000000000000000, 0.0000000000000000000, -0.0000000000000000000 ) ) ;
#180 = VECTOR ( 'NONE', #153, 39.37007874015748143 ) ;
#181 = ADVANCED_FACE ( 'NONE', ( #255 ), #174, .T. ) ;
#182 = ORIENTED_EDGE ( 'NONE', *, *, #92, .F. ) ;
#183 = ORIENTED_EDGE ( 'NONE', *, *, #81, .T. ) ;
#184 = DIRECTION ( 'NONE',  ( 1.000000000000000000, 0.0000000000000000000, 0.0000000000000000000 ) ) ;
#185 = VERTEX_POINT ( 'NONE', #236 ) ;
#186 = ORIENTED_EDGE ( 'NONE', *, *, #173, .F. ) ;
#187 = PRESENTATION_LAYER_ASSIGNMENT (  '', '', ( #130 ) ) ;
#188 = DIRECTION ( 'NONE',  ( 1.000000000000000000, 0.0000000000000000000, 0.0000000000000000000 ) ) ;
#189 = VERTEX_POINT ( 'NONE', #176 ) ;
#190 = LINE ( 'NONE', #12, #83 ) ;
#191 = AXIS2_PLACEMENT_3D ( 'NONE', #35, #260, #106 ) ;
#192 = DIRECTION ( 'NONE',  ( -0.7071067811865462405, 0.0000000000000000000, -0.7071067811865486830 ) ) ;
#193 = DIRECTION ( 'NONE',  ( -0.0000000000000000000, -0.0000000000000000000, -1.000000000000000000 ) ) ;
#194 = DIRECTION ( 'NONE',  ( 0.0000000000000000000, 0.0000000000000000000, -1.000000000000000000 ) ) ;
#195 = CONICAL_SURFACE ( 'NONE', #221, 0.04750000000000064587, 0.7853981633974466137 ) ;
#196 = DIRECTION ( 'NONE',  ( -1.000000000000000000, 0.0000000000000000000, 0.0000000000000000000 ) ) ;
#197 = PRODUCT ( 'Micro_GEM-062-3X', 'Micro_GEM-062-3X', '', ( #48 ) ) ;
#198 = EDGE_CURVE ( 'NONE', #97, #232, #270, .T. ) ;
#199 = CARTESIAN_POINT ( 'NONE',  ( 4.682062571497491304E-34, 0.0000000000000000000, 3.823194226088145228E-18 ) ) ;
#200 = CARTESIAN_POINT ( 'NONE',  ( 0.0000000000000000000, 0.0000000000000000000, 1.485000000000000764 ) ) ;
#201 = AXIS2_PLACEMENT_3D ( 'NONE', #160, #246, #112 ) ;
#202 = DIRECTION ( 'NONE',  ( 1.000000000000000000, 0.0000000000000000000, -0.0000000000000000000 ) ) ;
#203 = EDGE_CURVE ( 'NONE', #204, #97, #126, .T. ) ;
#204 = VERTEX_POINT ( 'NONE', #244 ) ;
#205 = AXIS2_PLACEMENT_3D ( 'NONE', #200, #156, #242 ) ;
#206 = ORIENTED_EDGE ( 'NONE', *, *, #269, .T. ) ;
#207 = ORIENTED_EDGE ( 'NONE', *, *, #24, .T. ) ;
#208 =( CONVERSION_BASED_UNIT ( 'INCH', #230 ) LENGTH_UNIT ( ) NAMED_UNIT ( #145 ) );
#209 = ORIENTED_EDGE ( 'NONE', *, *, #261, .F. ) ;
#210 = APPLICATION_CONTEXT ( 'automotive_design' ) ;
#211 = SURFACE_SIDE_STYLE ('',( #118 ) ) ;
#212 = ORIENTED_EDGE ( 'NONE', *, *, #198, .F. ) ;
#213 = DIRECTION ( 'NONE',  ( -1.000000000000000000, 0.0000000000000000000, 0.0000000000000000000 ) ) ;
#214 = CARTESIAN_POINT ( 'NONE',  ( 0.03121874999999999997, 3.823194226088143687E-18, -3.823194226088145228E-18 ) ) ;
#215 = AXIS2_PLACEMENT_3D ( 'NONE', #34, #30, #213 ) ;
#216 = DIRECTION ( 'NONE',  ( -1.224646799147353700E-16, -0.0000000000000000000, -1.000000000000000000 ) ) ;
#217 = MANIFOLD_SOLID_BREP ( 'Cut-Revolve1', #105 ) ;
#218 = DIRECTION ( 'NONE',  ( -1.224646799147353700E-16, -0.0000000000000000000, -1.000000000000000000 ) ) ;
#219 = LINE ( 'NONE', #104, #283 ) ;
#220 = ADVANCED_FACE ( 'NONE', ( #63 ), #41, .T. ) ;
#221 = AXIS2_PLACEMENT_3D ( 'NONE', #129, #61, #55 ) ;
#222 = CARTESIAN_POINT ( 'NONE',  ( 0.06250000000000002776, 7.654042494670959086E-18, 1.500000000000000222 ) ) ;
#223 =( NAMED_UNIT ( * ) PLANE_ANGLE_UNIT ( ) SI_UNIT ( $, .RADIAN. ) );
#224 =( CONVERSION_BASED_UNIT ( 'INCH', #89 ) LENGTH_UNIT ( ) NAMED_UNIT ( #125 ) );
#225 = PLANE ( 'NONE',  #40 ) ;
#226 = ORIENTED_EDGE ( 'NONE', *, *, #173, .T. ) ;
#227 = DIRECTION ( 'NONE',  ( 0.0000000000000000000, 0.0000000000000000000, 1.000000000000000000 ) ) ;
#228 = EDGE_LOOP ( 'NONE', ( #164, #71 ) ) ;
#229 = CARTESIAN_POINT ( 'NONE',  ( 0.0000000000000000000, 0.0000000000000000000, 0.0000000000000000000 ) ) ;
#230 = LENGTH_MEASURE_WITH_UNIT ( LENGTH_MEASURE( 0.02539999999999999897 ), #248 );
#231 = ORIENTED_EDGE ( 'NONE', *, *, #165, .T. ) ;
#232 = VERTEX_POINT ( 'NONE', #295 ) ;
#233 = ORIENTED_EDGE ( 'NONE', *, *, #109, .T. ) ;
#234 = VECTOR ( 'NONE', #256, 39.37007874015747433 ) ;
#235 = DIRECTION ( 'NONE',  ( -1.224646799147353700E-16, -0.0000000000000000000, -1.000000000000000000 ) ) ;
#236 = CARTESIAN_POINT ( 'NONE',  ( 0.04750000000000064587, 6.735557395310483192E-18, 1.500000000000000222 ) ) ;
#237 = ADVANCED_FACE ( 'NONE', ( #243 ), #65, .F. ) ;
#238 = DIRECTION ( 'NONE',  ( -1.000000000000000000, 0.0000000000000000000, 1.224646799147353947E-16 ) ) ;
#239 = PRODUCT_DEFINITION_FORMATION_WITH_SPECIFIED_SOURCE ( 'ANY', '', #197, .NOT_KNOWN. ) ;
#240 = DIRECTION ( 'NONE',  ( -0.0000000000000000000, -0.0000000000000000000, -1.000000000000000000 ) ) ;
#241 = CARTESIAN_POINT ( 'NONE',  ( 2.302335982397025094E-17, 0.0000000000000000000, 0.1880000000000000282 ) ) ;
#242 = DIRECTION ( 'NONE',  ( 1.000000000000000000, 0.0000000000000000000, 0.0000000000000000000 ) ) ;
#243 = FACE_OUTER_BOUND ( 'NONE', #228, .T. ) ;
#244 = CARTESIAN_POINT ( 'NONE',  ( -0.03121874999999997916, 5.738618360379552157E-18, 0.1880000000000000282 ) ) ;
#245 = COLOUR_RGB ( '',0.7921568627450980005, 0.8196078431372548767, 0.9333333333333333481 ) ;
#246 = DIRECTION ( 'NONE',  ( -0.0000000000000000000, -0.0000000000000000000, -1.000000000000000000 ) ) ;
#247 = FACE_OUTER_BOUND ( 'NONE', #162, .T. ) ;
#248 =( LENGTH_UNIT ( ) NAMED_UNIT ( * ) SI_UNIT ( $, .METRE. ) );
#249 = MECHANICAL_DESIGN_GEOMETRIC_PRESENTATION_REPRESENTATION (  '', ( #130 ), #78 ) ;
#250 = DIRECTION ( 'NONE',  ( 0.1736481776669313859, 0.0000000000000000000, 0.9848077530122077983 ) ) ;
#251 = LINE ( 'NONE', #79, #27 ) ;
#252 = PRODUCT_DEFINITION ( 'UNKNOWN', '', #239, #289 ) ;
#253 = EDGE_LOOP ( 'NONE', ( #77, #75, #212, #93 ) ) ;
#254 = VERTEX_POINT ( 'NONE', #266 ) ;
#255 = FACE_OUTER_BOUND ( 'NONE', #278, .T. ) ;
#256 = DIRECTION ( 'NONE',  ( -0.1736481776669311916, 2.126576849575783316E-17, 0.9848077530122080203 ) ) ;
#257 = DIRECTION ( 'NONE',  ( 1.000000000000000000, 0.0000000000000000000, 0.0000000000000000000 ) ) ;
#258 = AXIS2_PLACEMENT_3D ( 'NONE', #100, #53, #257 ) ;
#259 = UNCERTAINTY_MEASURE_WITH_UNIT (LENGTH_MEASURE( 1.000000000000000082E-05 ), #224, 'distance_accuracy_value', 'NONE');
#260 = DIRECTION ( 'NONE',  ( 0.0000000000000000000, 0.0000000000000000000, 1.000000000000000000 ) ) ;
#261 = EDGE_CURVE ( 'NONE', #254, #26, #72, .T. ) ;
#262 =( CONVERSION_BASED_UNIT ( 'INCH', #18 ) LENGTH_UNIT ( ) NAMED_UNIT ( #22 ) );
#263 =( LENGTH_UNIT ( ) NAMED_UNIT ( * ) SI_UNIT ( $, .METRE. ) );
#264 = CIRCLE ( 'NONE', #21, 0.06250000000000002776 ) ;
#265 = STYLED_ITEM ( 'NONE', ( #163 ), #56 ) ;
#266 = CARTESIAN_POINT ( 'NONE',  ( -0.03121874999999999997, 0.0000000000000000000, 7.646388452176290456E-18 ) ) ;
#267 =( NAMED_UNIT ( * ) SI_UNIT ( $, .STERADIAN. ) SOLID_ANGLE_UNIT ( ) );
#268 = ORIENTED_EDGE ( 'NONE', *, *, #134, .T. ) ;
#269 = EDGE_CURVE ( 'NONE', #28, #299, #271, .T. ) ;
#270 = CIRCLE ( 'NONE', #16, 0.06250000000000002776 ) ;
#271 = CIRCLE ( 'NONE', #205, 0.06250000000000002776 ) ;
#272 = APPLICATION_PROTOCOL_DEFINITION ( 'draft international standard', 'automotive_design', 1998, #37 ) ;
#273 = APPLICATION_PROTOCOL_DEFINITION ( 'draft international standard', 'automotive_design', 1998, #210 ) ;
#274 = EDGE_LOOP ( 'NONE', ( #25, #206, #20, #275 ) ) ;
#275 = ORIENTED_EDGE ( 'NONE', *, *, #86, .F. ) ;
#276 = SURFACE_STYLE_USAGE ( .BOTH. , #211 ) ;
#277 = COLOUR_RGB ( '',0.7921568627450980005, 0.8196078431372548767, 0.9333333333333333481 ) ;
#278 = EDGE_LOOP ( 'NONE', ( #122, #268, #182, #147 ) ) ;
#279 = EDGE_CURVE ( 'NONE', #28, #232, #131, .T. ) ;
#280 = ORIENTED_EDGE ( 'NONE', *, *, #203, .T. ) ;
#281 = EDGE_LOOP ( 'NONE', ( #117, #99 ) ) ;
#282 = DIRECTION ( 'NONE',  ( -1.224646799147353700E-16, -0.0000000000000000000, -1.000000000000000000 ) ) ;
#283 = VECTOR ( 'NONE', #192, 39.37007874015748854 ) ;
#284 = DIRECTION ( 'NONE',  ( -1.000000000000000000, 0.0000000000000000000, 0.0000000000000000000 ) ) ;
#285 = FACE_OUTER_BOUND ( 'NONE', #116, .T. ) ;
#286 = DIRECTION ( 'NONE',  ( -1.000000000000000000, 0.0000000000000000000, 0.0000000000000000000 ) ) ;
#287 = VECTOR ( 'NONE', #250, 39.37007874015748143 ) ;
#288 = EDGE_CURVE ( 'NONE', #44, #185, #132, .T. ) ;
#289 = PRODUCT_DEFINITION_CONTEXT ( 'detailed design', #37, 'design' ) ;
#290 = CARTESIAN_POINT ( 'NONE',  ( -0.06250000000000002776, 0.0000000000000000000, 1.500000000000000222 ) ) ;
#291 = CARTESIAN_POINT ( 'NONE',  ( 0.0000000000000000000, 0.0000000000000000000, 1.500000000000000222 ) ) ;
#292 = AXIS2_PLACEMENT_3D ( 'NONE', #138, #227, #202 ) ;
#293 = VECTOR ( 'NONE', #14, 39.37007874015748143 ) ;
#294 =( NAMED_UNIT ( * ) PLANE_ANGLE_UNIT ( ) SI_UNIT ( $, .RADIAN. ) );
#295 = CARTESIAN_POINT ( 'NONE',  ( 0.06250000000000006939, 7.654042494670963708E-18, 0.3654047844199156403 ) ) ;
#296 = EDGE_LOOP ( 'NONE', ( #113, #168, #207, #50 ) ) ;
#297 = ADVANCED_FACE ( 'NONE', ( #159 ), #225, .T. ) ;
#298 = SHAPE_DEFINITION_REPRESENTATION ( #135, #56 ) ;
#299 = VERTEX_POINT ( 'NONE', #17 ) ;
ENDSEC;
END-ISO-10303-21;
