ISO-10303-21;
HEADER;
FILE_DESCRIPTION (( 'STEP AP214' ),
    '1' );
FILE_NAME ('59699.STEP',
    '2023-07-24T15:25:37',
    ( '' ),
    ( '' ),
    'SwSTEP 2.0',
    'SolidWorks 2023',
    '' );
FILE_SCHEMA (( 'AUTOMOTIVE_DESIGN' ));
ENDSEC;

DATA;
#1 = PRESENTATION_STYLE_ASSIGNMENT (( #146 ) ) ;
#2 =( GEOMETRIC_REPRESENTATION_CONTEXT ( 3 ) GLOBAL_UNCERTAINTY_ASSIGNED_CONTEXT ( ( #280 ) ) GLOBAL_UNIT_ASSIGNED_CONTEXT ( ( #63, #318, #346 ) ) REPRESENTATION_CONTEXT ( 'NONE', 'WORKASPACE' ) );
#3 = ADVANCED_FACE ( 'NONE', ( #74 ), #247, .T. ) ;
#4 = EDGE_LOOP ( 'NONE', ( #266, #178, #66, #10 ) ) ;
#5 = VERTEX_POINT ( 'NONE', #78 ) ;
#6 = CARTESIAN_POINT ( 'NONE',  ( 1.469576158976823750E-15, 63.00000000000000000, 0.000000000000000000 ) ) ;
#7 = ORIENTED_EDGE ( 'NONE', *, *, #11, .T. ) ;
#8 = AXIS2_PLACEMENT_3D ( 'NONE', #171, #27, #281 ) ;
#9 = EDGE_CURVE ( 'NONE', #239, #293, #188, .T. ) ;
#10 = ORIENTED_EDGE ( 'NONE', *, *, #11, .F. ) ;
#11 = EDGE_CURVE ( 'NONE', #293, #322, #278, .T. ) ;
#12 = PRESENTATION_LAYER_ASSIGNMENT (  '', '', ( #329 ) ) ;
#13 = AXIS2_PLACEMENT_3D ( 'NONE', #167, #141, #313 ) ;
#14 = CARTESIAN_POINT ( 'NONE',  ( 4.592425496802573972E-16, 0.000000000000000000, 3.500000000000000000 ) ) ;
#15 = FILL_AREA_STYLE ('',( #113 ) ) ;
#16 = CARTESIAN_POINT ( 'NONE',  ( 0.000000000000000000, 0.5000000000000000000, -4.000000000000000000 ) ) ;
#17 = FILL_AREA_STYLE ('',( #107 ) ) ;
#18 = DIRECTION ( 'NONE',  ( -0.000000000000000000, -1.000000000000000000, -0.000000000000000000 ) ) ;
#19 =( NAMED_UNIT ( * ) SI_UNIT ( $, .STERADIAN. ) SOLID_ANGLE_UNIT ( ) );
#20 = AXIS2_PLACEMENT_3D ( 'NONE', #106, #44, #220 ) ;
#21 =( NAMED_UNIT ( * ) PLANE_ANGLE_UNIT ( ) SI_UNIT ( $, .RADIAN. ) );
#22 = AXIS2_PLACEMENT_3D ( 'NONE', #249, #109, #164 ) ;
#23 = ADVANCED_FACE ( 'NONE', ( #161 ), #245, .F. ) ;
#24 = CARTESIAN_POINT ( 'NONE',  ( 4.898587196589412829E-16, 12.00000000000000000, 4.000000000000000000 ) ) ;
#25 = DIRECTION ( 'NONE',  ( -9.448620473410002383E-17, 1.000000000000000000, -0.000000000000000000 ) ) ;
#26 = EDGE_CURVE ( 'NONE', #124, #122, #323, .T. ) ;
#27 = DIRECTION ( 'NONE',  ( 9.448620473410002383E-17, -1.000000000000000000, 0.000000000000000000 ) ) ;
#28 = SURFACE_STYLE_USAGE ( .BOTH. , #335 ) ;
#29 = COLOUR_RGB ( '',0.7921568627450980005, 0.8196078431372548767, 0.9333333333333333481 ) ;
#30 = AXIS2_PLACEMENT_3D ( 'NONE', #174, #305, #56 ) ;
#31 = SURFACE_STYLE_FILL_AREA ( #285 ) ;
#32 = EDGE_CURVE ( 'NONE', #5, #242, #211, .T. ) ;
#33 = EDGE_LOOP ( 'NONE', ( #350, #289, #287, #39 ) ) ;
#34 = EDGE_CURVE ( 'NONE', #263, #322, #273, .T. ) ;
#35 = ORIENTED_EDGE ( 'NONE', *, *, #140, .F. ) ;
#36 = VERTEX_POINT ( 'NONE', #16 ) ;
#37 = DIRECTION ( 'NONE',  ( -0.000000000000000000, -1.000000000000000000, -0.000000000000000000 ) ) ;
#38 =( NAMED_UNIT ( * ) SI_UNIT ( $, .STERADIAN. ) SOLID_ANGLE_UNIT ( ) );
#39 = ORIENTED_EDGE ( 'NONE', *, *, #65, .F. ) ;
#40 = COLOUR_RGB ( '',1.000000000000000000, 0.000000000000000000, 0.000000000000000000 ) ;
#41 =( NAMED_UNIT ( * ) PLANE_ANGLE_UNIT ( ) SI_UNIT ( $, .RADIAN. ) );
#42 = SURFACE_STYLE_FILL_AREA ( #248 ) ;
#43 = SURFACE_SIDE_STYLE ('',( #276 ) ) ;
#44 = DIRECTION ( 'NONE',  ( -9.448620473410002383E-17, 1.000000000000000000, -0.000000000000000000 ) ) ;
#45 = DIRECTION ( 'NONE',  ( 0.000000000000000000, 0.000000000000000000, -1.000000000000000000 ) ) ;
#46 = CIRCLE ( 'NONE', #30, 4.000000000000000000 ) ;
#47 =( NAMED_UNIT ( * ) SI_UNIT ( $, .STERADIAN. ) SOLID_ANGLE_UNIT ( ) );
#48 = CARTESIAN_POINT ( 'NONE',  ( 1.469576158976823750E-15, 63.00000000000000000, 0.000000000000000000 ) ) ;
#49 = CARTESIAN_POINT ( 'NONE',  ( 3.999999999999998224, 63.00000000000000000, 4.898587196589408884E-16 ) ) ;
#50 = SURFACE_STYLE_FILL_AREA ( #132 ) ;
#51 =( NAMED_UNIT ( * ) PLANE_ANGLE_UNIT ( ) SI_UNIT ( $, .RADIAN. ) );
#52 = EDGE_CURVE ( 'NONE', #242, #5, #348, .T. ) ;
#53 =( GEOMETRIC_REPRESENTATION_CONTEXT ( 3 ) GLOBAL_UNCERTAINTY_ASSIGNED_CONTEXT ( ( #120 ) ) GLOBAL_UNIT_ASSIGNED_CONTEXT ( ( #191, #196, #19 ) ) REPRESENTATION_CONTEXT ( 'NONE', 'WORKASPACE' ) );
#54 = SURFACE_STYLE_USAGE ( .BOTH. , #257 ) ;
#55 = UNCERTAINTY_MEASURE_WITH_UNIT (LENGTH_MEASURE( 1.000000000000000082E-05 ), #169, 'distance_accuracy_value', 'NONE');
#56 = DIRECTION ( 'NONE',  ( 0.000000000000000000, 0.000000000000000000, -1.000000000000000000 ) ) ;
#57 = ADVANCED_FACE ( 'NONE', ( #333 ), #364, .T. ) ;
#58 = DIRECTION ( 'NONE',  ( -9.448620473410002383E-17, 1.000000000000000000, -0.000000000000000000 ) ) ;
#59 =( LENGTH_UNIT ( ) NAMED_UNIT ( * ) SI_UNIT ( .MILLI., .METRE. ) );
#60 = UNCERTAINTY_MEASURE_WITH_UNIT (LENGTH_MEASURE( 1.000000000000000082E-05 ), #91, 'distance_accuracy_value', 'NONE');
#61 = PRESENTATION_LAYER_ASSIGNMENT (  '', '', ( #67 ) ) ;
#62 = MANIFOLD_SOLID_BREP ( 'Revolve - Cutting Edge', #252 ) ;
#63 =( LENGTH_UNIT ( ) NAMED_UNIT ( * ) SI_UNIT ( .MILLI., .METRE. ) );
#64 = UNCERTAINTY_MEASURE_WITH_UNIT (LENGTH_MEASURE( 1.000000000000000082E-05 ), #258, 'distance_accuracy_value', 'NONE');
#65 = EDGE_CURVE ( 'NONE', #93, #36, #260, .T. ) ;
#66 = ORIENTED_EDGE ( 'NONE', *, *, #97, .F. ) ;
#67 = STYLED_ITEM ( 'NONE', ( #1 ), #125 ) ;
#68 = AXIS2_PLACEMENT_3D ( 'NONE', #250, #298, #45 ) ;
#69 = ORIENTED_EDGE ( 'NONE', *, *, #52, .F. ) ;
#70 = DIRECTION ( 'NONE',  ( 0.000000000000000000, 0.000000000000000000, 1.000000000000000000 ) ) ;
#71 = PRODUCT_DEFINITION_SHAPE ( 'NONE', 'NONE',  #72 ) ;
#72 = PRODUCT_DEFINITION ( 'UNKNOWN', '', #138, #231 ) ;
#73 = ORIENTED_EDGE ( 'NONE', *, *, #314, .F. ) ;
#74 = FACE_OUTER_BOUND ( 'NONE', #4, .T. ) ;
#75 = CARTESIAN_POINT ( 'NONE',  ( -3.999999999999994671, 63.00000000000000000, 0.000000000000000000 ) ) ;
#76 = COLOUR_RGB ( '',1.000000000000000000, 0.000000000000000000, 0.000000000000000000 ) ;
#77 = ADVANCED_FACE ( 'NONE', ( #114 ), #251, .T. ) ;
#78 = CARTESIAN_POINT ( 'NONE',  ( 0.000000000000000000, 0.000000000000000000, -3.500000000000000000 ) ) ;
#79 = SURFACE_SIDE_STYLE ('',( #224 ) ) ;
#80 = CARTESIAN_POINT ( 'NONE',  ( 0.000000000000000000, 0.000000000000000000, 0.000000000000000000 ) ) ;
#81 = PRESENTATION_LAYER_ASSIGNMENT (  '', '', ( #368 ) ) ;
#82 = CIRCLE ( 'NONE', #13, 0.5000000000000000000 ) ;
#83 = DIRECTION ( 'NONE',  ( -0.000000000000000000, -1.000000000000000000, -0.000000000000000000 ) ) ;
#84 = CARTESIAN_POINT ( 'NONE',  ( 3.999999999999999112, 11.99999999999999645, 4.898587196589409870E-16 ) ) ;
#85 = PRESENTATION_STYLE_ASSIGNMENT (( #332 ) ) ;
#86 = CARTESIAN_POINT ( 'NONE',  ( 0.000000000000000000, 0.000000000000000000, 0.000000000000000000 ) ) ;
#87 = PRESENTATION_STYLE_ASSIGNMENT (( #159 ) ) ;
#88 = FACE_OUTER_BOUND ( 'NONE', #265, .T. ) ;
#89 = STYLED_ITEM ( 'NONE', ( #303 ), #139 ) ;
#90 =( GEOMETRIC_REPRESENTATION_CONTEXT ( 3 ) GLOBAL_UNCERTAINTY_ASSIGNED_CONTEXT ( ( #60 ) ) GLOBAL_UNIT_ASSIGNED_CONTEXT ( ( #91, #362, #205 ) ) REPRESENTATION_CONTEXT ( 'NONE', 'WORKASPACE' ) );
#91 =( LENGTH_UNIT ( ) NAMED_UNIT ( * ) SI_UNIT ( .MILLI., .METRE. ) );
#92 = AXIS2_PLACEMENT_3D ( 'NONE', #204, #58, #342 ) ;
#93 = VERTEX_POINT ( 'NONE', #237 ) ;
#94 = FACE_OUTER_BOUND ( 'NONE', #345, .T. ) ;
#95 = EDGE_LOOP ( 'NONE', ( #209, #269, #316, #69 ) ) ;
#96 = EDGE_LOOP ( 'NONE', ( #321, #213, #238, #100 ) ) ;
#97 = EDGE_CURVE ( 'NONE', #322, #263, #175, .T. ) ;
#98 = MECHANICAL_DESIGN_GEOMETRIC_PRESENTATION_REPRESENTATION (  '', ( #368 ), #207 ) ;
#99 = STYLED_ITEM ( 'NONE', ( #87 ), #179 ) ;
#100 = ORIENTED_EDGE ( 'NONE', *, *, #219, .F. ) ;
#101 = DIRECTION ( 'NONE',  ( -9.448620473410002383E-17, 1.000000000000000000, -0.000000000000000000 ) ) ;
#102 = ORIENTED_EDGE ( 'NONE', *, *, #26, .F. ) ;
#103 = DIRECTION ( 'NONE',  ( -1.000000000000000000, -9.448620473410002383E-17, 0.000000000000000000 ) ) ;
#104 = VECTOR ( 'NONE', #227, 1000.000000000000000 ) ;
#105 = DIRECTION ( 'NONE',  ( -9.448620473410002383E-17, 1.000000000000000000, -0.000000000000000000 ) ) ;
#106 = CARTESIAN_POINT ( 'NONE',  ( 1.469576158976823750E-15, 63.00000000000000000, 0.000000000000000000 ) ) ;
#107 = FILL_AREA_STYLE_COLOUR ( '', #29 ) ;
#108 = DIRECTION ( 'NONE',  ( -0.000000000000000000, -1.000000000000000000, -0.000000000000000000 ) ) ;
#109 = DIRECTION ( 'NONE',  ( -0.000000000000000000, -1.000000000000000000, -0.000000000000000000 ) ) ;
#110 =( NAMED_UNIT ( * ) SI_UNIT ( $, .STERADIAN. ) SOLID_ANGLE_UNIT ( ) );
#111 = SURFACE_STYLE_FILL_AREA ( #15 ) ;
#112 = FILL_AREA_STYLE_COLOUR ( '', #150 ) ;
#113 = FILL_AREA_STYLE_COLOUR ( '', #76 ) ;
#114 = FACE_OUTER_BOUND ( 'NONE', #157, .T. ) ;
#115 = CARTESIAN_POINT ( 'NONE',  ( 0.000000000000000000, 0.5000000000000000000, 0.000000000000000000 ) ) ;
#116 = SURFACE_STYLE_FILL_AREA ( #200 ) ;
#117 = LINE ( 'NONE', #232, #355 ) ;
#118 = STYLED_ITEM ( 'NONE', ( #225 ), #253 ) ;
#119 =( NAMED_UNIT ( * ) PLANE_ANGLE_UNIT ( ) SI_UNIT ( $, .RADIAN. ) );
#120 = UNCERTAINTY_MEASURE_WITH_UNIT (LENGTH_MEASURE( 1.000000000000000082E-05 ), #191, 'distance_accuracy_value', 'NONE');
#121 = AXIS2_PLACEMENT_3D ( 'NONE', #130, #356, #166 ) ;
#122 = VERTEX_POINT ( 'NONE', #176 ) ;
#123 = ADVANCED_FACE ( 'NONE', ( #94 ), #340, .F. ) ;
#124 = VERTEX_POINT ( 'NONE', #24 ) ;
#125 = ADVANCED_FACE ( 'NONE', ( #143 ), #156, .T. ) ;
#126 = AXIS2_PLACEMENT_3D ( 'NONE', #286, #312, #283 ) ;
#127 = EDGE_LOOP ( 'NONE', ( #187, #152 ) ) ;
#128 = ORIENTED_EDGE ( 'NONE', *, *, #34, .F. ) ;
#129 = SURFACE_SIDE_STYLE ('',( #50 ) ) ;
#130 = CARTESIAN_POINT ( 'NONE',  ( 0.000000000000000000, 0.5000000000000000000, 0.000000000000000000 ) ) ;
#131 = CARTESIAN_POINT ( 'NONE',  ( 0.000000000000000000, 12.00000000000000000, 0.000000000000000000 ) ) ;
#132 = FILL_AREA_STYLE ('',( #217 ) ) ;
#133 = SURFACE_SIDE_STYLE ('',( #111 ) ) ;
#134 = ADVANCED_FACE ( 'NONE', ( #370 ), #267, .T. ) ;
#135 = DIRECTION ( 'NONE',  ( 0.000000000000000000, 0.000000000000000000, 1.000000000000000000 ) ) ;
#136 = PRESENTATION_STYLE_ASSIGNMENT (( #325 ) ) ;
#137 = PLANE ( 'NONE',  #241 ) ;
#138 = PRODUCT_DEFINITION_FORMATION_WITH_SPECIFIED_SOURCE ( 'ANY', '', #170, .NOT_KNOWN. ) ;
#139 = ADVANCED_FACE ( 'NONE', ( #221 ), #271, .T. ) ;
#140 = EDGE_CURVE ( 'NONE', #122, #36, #324, .T. ) ;
#141 = DIRECTION ( 'NONE',  ( 1.000000000000000000, 0.000000000000000000, -1.224646799147353207E-16 ) ) ;
#142 = AXIS2_PLACEMENT_3D ( 'NONE', #86, #226, #255 ) ;
#143 = FACE_OUTER_BOUND ( 'NONE', #95, .T. ) ;
#144 = CARTESIAN_POINT ( 'NONE',  ( 4.000000000000000000, 63.00000000000000000, 4.898587196589409870E-16 ) ) ;
#145 = AXIS2_PLACEMENT_3D ( 'NONE', #334, #105, #359 ) ;
#146 = SURFACE_STYLE_USAGE ( .BOTH. , #208 ) ;
#147 = ORIENTED_EDGE ( 'NONE', *, *, #366, .T. ) ;
#148 = APPLICATION_PROTOCOL_DEFINITION ( 'draft international standard', 'automotive_design', 1998, #173 ) ;
#149 = MECHANICAL_DESIGN_GEOMETRIC_PRESENTATION_REPRESENTATION (  '', ( #329 ), #309 ) ;
#150 = COLOUR_RGB ( '',1.000000000000000000, 0.000000000000000000, 0.000000000000000000 ) ;
#151 = EDGE_CURVE ( 'NONE', #293, #239, #330, .T. ) ;
#152 = ORIENTED_EDGE ( 'NONE', *, *, #9, .F. ) ;
#153 = ORIENTED_EDGE ( 'NONE', *, *, #32, .T. ) ;
#154 = DIRECTION ( 'NONE',  ( 0.000000000000000000, 0.000000000000000000, -1.000000000000000000 ) ) ;
#155 = ORIENTED_EDGE ( 'NONE', *, *, #291, .F. ) ;
#156 = TOROIDAL_SURFACE ( 'NONE', #294, 3.500000000000000000, 0.5000000000000000000 ) ;
#157 = EDGE_LOOP ( 'NONE', ( #73, #102 ) ) ;
#158 = DIRECTION ( 'NONE',  ( -1.000000000000000000, 0.000000000000000000, 0.000000000000000000 ) ) ;
#159 = SURFACE_STYLE_USAGE ( .BOTH. , #163 ) ;
#160 = MECHANICAL_DESIGN_GEOMETRIC_PRESENTATION_REPRESENTATION (  '', ( #320 ), #363 ) ;
#161 = FACE_OUTER_BOUND ( 'NONE', #127, .T. ) ;
#162 =( GEOMETRIC_REPRESENTATION_CONTEXT ( 3 ) GLOBAL_UNCERTAINTY_ASSIGNED_CONTEXT ( ( #64 ) ) GLOBAL_UNIT_ASSIGNED_CONTEXT ( ( #258, #367, #307 ) ) REPRESENTATION_CONTEXT ( 'NONE', 'WORKASPACE' ) );
#163 = SURFACE_SIDE_STYLE ('',( #42 ) ) ;
#164 = DIRECTION ( 'NONE',  ( 0.000000000000000000, 0.000000000000000000, -1.000000000000000000 ) ) ;
#165 = DIRECTION ( 'NONE',  ( -9.448620473410002383E-17, 1.000000000000000000, -0.000000000000000000 ) ) ;
#166 = DIRECTION ( 'NONE',  ( 0.000000000000000000, 0.000000000000000000, -1.000000000000000000 ) ) ;
#167 = CARTESIAN_POINT ( 'NONE',  ( 4.286263797015736595E-16, 0.5000000000000000000, 3.500000000000000000 ) ) ;
#168 =( LENGTH_UNIT ( ) NAMED_UNIT ( * ) SI_UNIT ( .MILLI., .METRE. ) );
#169 =( LENGTH_UNIT ( ) NAMED_UNIT ( * ) SI_UNIT ( .MILLI., .METRE. ) );
#170 = PRODUCT ( '59699', '59699', '', ( #210 ) ) ;
#171 = CARTESIAN_POINT ( 'NONE',  ( 4.000000000000000000, 63.00000000000000000, 0.000000000000000000 ) ) ;
#172 = LINE ( 'NONE', #49, #261 ) ;
#173 = APPLICATION_CONTEXT ( 'automotive_design' ) ;
#174 = CARTESIAN_POINT ( 'NONE',  ( 0.000000000000000000, 12.00000000000000000, 0.000000000000000000 ) ) ;
#175 = CIRCLE ( 'NONE', #92, 3.999999999999998224 ) ;
#176 = CARTESIAN_POINT ( 'NONE',  ( 0.000000000000000000, 12.00000000000000000, -4.000000000000000000 ) ) ;
#177 = PRESENTATION_LAYER_ASSIGNMENT (  '', '', ( #99 ) ) ;
#178 = ORIENTED_EDGE ( 'NONE', *, *, #357, .T. ) ;
#179 = MANIFOLD_SOLID_BREP ( 'Revolve - Tool Body (Straight Shanked)', #360 ) ;
#180 = UNCERTAINTY_MEASURE_WITH_UNIT (LENGTH_MEASURE( 1.000000000000000082E-05 ), #59, 'distance_accuracy_value', 'NONE');
#181 = APPLICATION_PROTOCOL_DEFINITION ( 'draft international standard', 'automotive_design', 1998, #315 ) ;
#182 = AXIS2_PLACEMENT_3D ( 'NONE', #352, #274, #103 ) ;
#183 = MECHANICAL_DESIGN_GEOMETRIC_PRESENTATION_REPRESENTATION (  '', ( #290 ), #162 ) ;
#184 = ORIENTED_EDGE ( 'NONE', *, *, #314, .T. ) ;
#185 = CARTESIAN_POINT ( 'NONE',  ( 0.000000000000000000, 0.5000000000000000000, 0.000000000000000000 ) ) ;
#186 = ORIENTED_EDGE ( 'NONE', *, *, #52, .T. ) ;
#187 = ORIENTED_EDGE ( 'NONE', *, *, #151, .F. ) ;
#188 = CIRCLE ( 'NONE', #235, 3.999999999999993339 ) ;
#189 = PRESENTATION_LAYER_ASSIGNMENT (  '', '', ( #89 ) ) ;
#190 = DIRECTION ( 'NONE',  ( -9.448620473410002383E-17, 1.000000000000000000, -0.000000000000000000 ) ) ;
#191 =( LENGTH_UNIT ( ) NAMED_UNIT ( * ) SI_UNIT ( .MILLI., .METRE. ) );
#192 = DIRECTION ( 'NONE',  ( -9.448620473410002383E-17, 1.000000000000000000, -0.000000000000000000 ) ) ;
#193 = VECTOR ( 'NONE', #190, 1000.000000000000000 ) ;
#194 = CARTESIAN_POINT ( 'NONE',  ( 6.288372600415924928E-15, 11.99999999999999645, 0.000000000000000000 ) ) ;
#195 = COLOUR_RGB ( '',1.000000000000000000, 0.000000000000000000, 0.000000000000000000 ) ;
#196 =( NAMED_UNIT ( * ) PLANE_ANGLE_UNIT ( ) SI_UNIT ( $, .RADIAN. ) );
#197 = DIRECTION ( 'NONE',  ( 0.000000000000000000, 0.000000000000000000, -1.000000000000000000 ) ) ;
#198 = DIRECTION ( 'NONE',  ( -0.000000000000000000, -1.000000000000000000, -0.000000000000000000 ) ) ;
#199 = FACE_OUTER_BOUND ( 'NONE', #96, .T. ) ;
#200 = FILL_AREA_STYLE ('',( #112 ) ) ;
#201 = AXIS2_PLACEMENT_3D ( 'NONE', #48, #165, #277 ) ;
#202 = MECHANICAL_DESIGN_GEOMETRIC_PRESENTATION_REPRESENTATION (  '', ( #99 ), #264 ) ;
#203 = UNCERTAINTY_MEASURE_WITH_UNIT (LENGTH_MEASURE( 1.000000000000000082E-05 ), #328, 'distance_accuracy_value', 'NONE');
#204 = CARTESIAN_POINT ( 'NONE',  ( 1.469576158976823750E-15, 63.00000000000000000, 0.000000000000000000 ) ) ;
#205 =( NAMED_UNIT ( * ) SI_UNIT ( $, .STERADIAN. ) SOLID_ANGLE_UNIT ( ) );
#206 = CARTESIAN_POINT ( 'NONE',  ( -3.999999999999996447, 63.00000000000000000, 0.000000000000000000 ) ) ;
#207 =( GEOMETRIC_REPRESENTATION_CONTEXT ( 3 ) GLOBAL_UNCERTAINTY_ASSIGNED_CONTEXT ( ( #55 ) ) GLOBAL_UNIT_ASSIGNED_CONTEXT ( ( #169, #21, #228 ) ) REPRESENTATION_CONTEXT ( 'NONE', 'WORKASPACE' ) );
#208 = SURFACE_SIDE_STYLE ('',( #31 ) ) ;
#209 = ORIENTED_EDGE ( 'NONE', *, *, #358, .F. ) ;
#210 = PRODUCT_CONTEXT ( 'NONE', #315, 'mechanical' ) ;
#211 = CIRCLE ( 'NONE', #300, 3.500000000000000000 ) ;
#212 = CIRCLE ( 'NONE', #369, 4.000000000000000000 ) ;
#213 = ORIENTED_EDGE ( 'NONE', *, *, #358, .T. ) ;
#214 = DIRECTION ( 'NONE',  ( -1.000000000000000000, 0.000000000000000000, 0.000000000000000000 ) ) ;
#215 = ADVANCED_BREP_SHAPE_REPRESENTATION ( '59699', ( #62, #179, #275 ), #243 ) ;
#216 = COLOUR_RGB ( '',1.000000000000000000, 0.000000000000000000, 0.000000000000000000 ) ;
#217 = FILL_AREA_STYLE_COLOUR ( '', #216 ) ;
#218 =( LENGTH_UNIT ( ) NAMED_UNIT ( * ) SI_UNIT ( .MILLI., .METRE. ) );
#219 = EDGE_CURVE ( 'NONE', #36, #5, #354, .T. ) ;
#220 = DIRECTION ( 'NONE',  ( -1.000000000000000000, 0.000000000000000000, 0.000000000000000000 ) ) ;
#221 = FACE_OUTER_BOUND ( 'NONE', #270, .T. ) ;
#222 = COLOUR_RGB ( '',1.000000000000000000, 0.000000000000000000, 0.000000000000000000 ) ;
#223 = COLOUR_RGB ( '',0.7921568627450980005, 0.8196078431372548767, 0.9333333333333333481 ) ;
#224 = SURFACE_STYLE_FILL_AREA ( #361 ) ;
#225 = PRESENTATION_STYLE_ASSIGNMENT (( #28 ) ) ;
#226 = DIRECTION ( 'NONE',  ( -0.000000000000000000, -1.000000000000000000, -0.000000000000000000 ) ) ;
#227 = DIRECTION ( 'NONE',  ( -0.000000000000000000, -1.000000000000000000, -0.000000000000000000 ) ) ;
#228 =( NAMED_UNIT ( * ) SI_UNIT ( $, .STERADIAN. ) SOLID_ANGLE_UNIT ( ) );
#229 = SURFACE_STYLE_FILL_AREA ( #327 ) ;
#230 = CARTESIAN_POINT ( 'NONE',  ( 0.000000000000000000, 0.5000000000000000000, 0.000000000000000000 ) ) ;
#231 = PRODUCT_DEFINITION_CONTEXT ( 'detailed design', #173, 'design' ) ;
#232 = CARTESIAN_POINT ( 'NONE',  ( 4.898587196589412829E-16, 0.000000000000000000, 4.000000000000000000 ) ) ;
#233 = FILL_AREA_STYLE_COLOUR ( '', #222 ) ;
#234 = DIRECTION ( 'NONE',  ( 0.000000000000000000, -1.000000000000000000, -0.000000000000000000 ) ) ;
#235 = AXIS2_PLACEMENT_3D ( 'NONE', #194, #192, #295 ) ;
#236 = MECHANICAL_DESIGN_GEOMETRIC_PRESENTATION_REPRESENTATION (  '', ( #89 ), #53 ) ;
#237 = CARTESIAN_POINT ( 'NONE',  ( 4.898587196589412829E-16, 0.5000000000000000000, 4.000000000000000000 ) ) ;
#238 = ORIENTED_EDGE ( 'NONE', *, *, #32, .F. ) ;
#239 = VERTEX_POINT ( 'NONE', #84 ) ;
#240 = PRESENTATION_LAYER_ASSIGNMENT (  '', '', ( #320 ) ) ;
#241 = AXIS2_PLACEMENT_3D ( 'NONE', #365, #234, #337 ) ;
#242 = VERTEX_POINT ( 'NONE', #14 ) ;
#243 =( GEOMETRIC_REPRESENTATION_CONTEXT ( 3 ) GLOBAL_UNCERTAINTY_ASSIGNED_CONTEXT ( ( #180 ) ) GLOBAL_UNIT_ASSIGNED_CONTEXT ( ( #59, #119, #38 ) ) REPRESENTATION_CONTEXT ( 'NONE', 'WORKASPACE' ) );
#244 = EDGE_LOOP ( 'NONE', ( #319, #317, #7, #128 ) ) ;
#245 = PLANE ( 'NONE',  #182 ) ;
#246 = PRESENTATION_LAYER_ASSIGNMENT (  '', '', ( #118 ) ) ;
#247 = CYLINDRICAL_SURFACE ( 'NONE', #20, 3.999999999999996447 ) ;
#248 = FILL_AREA_STYLE ('',( #296 ) ) ;
#249 = CARTESIAN_POINT ( 'NONE',  ( 0.000000000000000000, 0.000000000000000000, 0.000000000000000000 ) ) ;
#250 = CARTESIAN_POINT ( 'NONE',  ( 0.000000000000000000, 0.000000000000000000, 0.000000000000000000 ) ) ;
#251 = PLANE ( 'NONE',  #126 ) ;
#252 = CLOSED_SHELL ( 'NONE', ( #139, #253, #268, #125, #57, #77 ) ) ;
#253 = ADVANCED_FACE ( 'NONE', ( #199 ), #301, .T. ) ;
#254 = MECHANICAL_DESIGN_GEOMETRIC_PRESENTATION_REPRESENTATION (  '', ( #67 ), #2 ) ;
#255 = DIRECTION ( 'NONE',  ( 0.000000000000000000, 0.000000000000000000, -1.000000000000000000 ) ) ;
#256 =( NAMED_UNIT ( * ) SI_UNIT ( $, .STERADIAN. ) SOLID_ANGLE_UNIT ( ) );
#257 = SURFACE_SIDE_STYLE ('',( #116 ) ) ;
#258 =( LENGTH_UNIT ( ) NAMED_UNIT ( * ) SI_UNIT ( .MILLI., .METRE. ) );
#259 = DIRECTION ( 'NONE',  ( -0.000000000000000000, -1.000000000000000000, -0.000000000000000000 ) ) ;
#260 = CIRCLE ( 'NONE', #121, 4.000000000000000000 ) ;
#261 = VECTOR ( 'NONE', #25, 1000.000000000000000 ) ;
#262 = UNCERTAINTY_MEASURE_WITH_UNIT (LENGTH_MEASURE( 1.000000000000000082E-05 ), #168, 'distance_accuracy_value', 'NONE');
#263 = VERTEX_POINT ( 'NONE', #144 ) ;
#264 =( GEOMETRIC_REPRESENTATION_CONTEXT ( 3 ) GLOBAL_UNCERTAINTY_ASSIGNED_CONTEXT ( ( #262 ) ) GLOBAL_UNIT_ASSIGNED_CONTEXT ( ( #168, #41, #110 ) ) REPRESENTATION_CONTEXT ( 'NONE', 'WORKASPACE' ) );
#265 = EDGE_LOOP ( 'NONE', ( #153, #186 ) ) ;
#266 = ORIENTED_EDGE ( 'NONE', *, *, #151, .T. ) ;
#267 = CYLINDRICAL_SURFACE ( 'NONE', #341, 3.999999999999996447 ) ;
#268 = ADVANCED_FACE ( 'NONE', ( #88 ), #137, .T. ) ;
#269 = ORIENTED_EDGE ( 'NONE', *, *, #65, .T. ) ;
#270 = EDGE_LOOP ( 'NONE', ( #184, #147, #155, #35 ) ) ;
#271 = CYLINDRICAL_SURFACE ( 'NONE', #68, 4.000000000000000000 ) ;
#272 = FILL_AREA_STYLE_COLOUR ( '', #40 ) ;
#273 = CIRCLE ( 'NONE', #201, 3.999999999999998224 ) ;
#274 = DIRECTION ( 'NONE',  ( -9.448620473410002383E-17, 1.000000000000000000, 0.000000000000000000 ) ) ;
#275 = AXIS2_PLACEMENT_3D ( 'NONE', #343, #70, #292 ) ;
#276 = SURFACE_STYLE_FILL_AREA ( #17 ) ;
#277 = DIRECTION ( 'NONE',  ( -1.000000000000000000, 0.000000000000000000, 0.000000000000000000 ) ) ;
#278 = LINE ( 'NONE', #75, #193 ) ;
#279 = SURFACE_STYLE_USAGE ( .BOTH. , #129 ) ;
#280 = UNCERTAINTY_MEASURE_WITH_UNIT (LENGTH_MEASURE( 1.000000000000000082E-05 ), #63, 'distance_accuracy_value', 'NONE');
#281 = DIRECTION ( 'NONE',  ( 1.000000000000000000, 9.448620473410002383E-17, 0.000000000000000000 ) ) ;
#282 = PRESENTATION_STYLE_ASSIGNMENT (( #54 ) ) ;
#283 = DIRECTION ( 'NONE',  ( 0.000000000000000000, -0.000000000000000000, 1.000000000000000000 ) ) ;
#284 = AXIS2_PLACEMENT_3D ( 'NONE', #331, #158, #135 ) ;
#285 = FILL_AREA_STYLE ('',( #233 ) ) ;
#286 = CARTESIAN_POINT ( 'NONE',  ( 0.000000000000000000, 12.00000000000000000, 0.000000000000000000 ) ) ;
#287 = ORIENTED_EDGE ( 'NONE', *, *, #140, .T. ) ;
#288 = SHAPE_DEFINITION_REPRESENTATION ( #71, #215 ) ;
#289 = ORIENTED_EDGE ( 'NONE', *, *, #26, .T. ) ;
#290 = STYLED_ITEM ( 'NONE', ( #282 ), #268 ) ;
#291 = EDGE_CURVE ( 'NONE', #36, #93, #212, .T. ) ;
#292 = DIRECTION ( 'NONE',  ( 1.000000000000000000, 0.000000000000000000, 0.000000000000000000 ) ) ;
#293 = VERTEX_POINT ( 'NONE', #311 ) ;
#294 = AXIS2_PLACEMENT_3D ( 'NONE', #185, #37, #154 ) ;
#295 = DIRECTION ( 'NONE',  ( -1.000000000000000000, 0.000000000000000000, 0.000000000000000000 ) ) ;
#296 = FILL_AREA_STYLE_COLOUR ( '', #223 ) ;
#297 = SURFACE_STYLE_USAGE ( .BOTH. , #133 ) ;
#298 = DIRECTION ( 'NONE',  ( -0.000000000000000000, -1.000000000000000000, -0.000000000000000000 ) ) ;
#299 = PRESENTATION_STYLE_ASSIGNMENT (( #297 ) ) ;
#300 = AXIS2_PLACEMENT_3D ( 'NONE', #80, #198, #302 ) ;
#301 = TOROIDAL_SURFACE ( 'NONE', #349, 3.500000000000000000, 0.5000000000000000000 ) ;
#302 = DIRECTION ( 'NONE',  ( 0.000000000000000000, 0.000000000000000000, -1.000000000000000000 ) ) ;
#303 = PRESENTATION_STYLE_ASSIGNMENT (( #279 ) ) ;
#304 =( NAMED_UNIT ( * ) PLANE_ANGLE_UNIT ( ) SI_UNIT ( $, .RADIAN. ) );
#305 = DIRECTION ( 'NONE',  ( -0.000000000000000000, -1.000000000000000000, -0.000000000000000000 ) ) ;
#306 = FILL_AREA_STYLE_COLOUR ( '', #195 ) ;
#307 =( NAMED_UNIT ( * ) SI_UNIT ( $, .STERADIAN. ) SOLID_ANGLE_UNIT ( ) );
#308 = DIRECTION ( 'NONE',  ( 0.000000000000000000, 0.000000000000000000, -1.000000000000000000 ) ) ;
#309 =( GEOMETRIC_REPRESENTATION_CONTEXT ( 3 ) GLOBAL_UNCERTAINTY_ASSIGNED_CONTEXT ( ( #336 ) ) GLOBAL_UNIT_ASSIGNED_CONTEXT ( ( #218, #51, #47 ) ) REPRESENTATION_CONTEXT ( 'NONE', 'WORKASPACE' ) );
#310 = MECHANICAL_DESIGN_GEOMETRIC_PRESENTATION_REPRESENTATION (  '', ( #118 ), #90 ) ;
#311 = CARTESIAN_POINT ( 'NONE',  ( -3.999999999999987121, 11.99999999999999645, 0.000000000000000000 ) ) ;
#312 = DIRECTION ( 'NONE',  ( 0.000000000000000000, 1.000000000000000000, 0.000000000000000000 ) ) ;
#313 = DIRECTION ( 'NONE',  ( -1.224646799147353454E-16, 0.000000000000000000, -1.000000000000000000 ) ) ;
#314 = EDGE_CURVE ( 'NONE', #122, #124, #46, .T. ) ;
#315 = APPLICATION_CONTEXT ( 'automotive_design' ) ;
#316 = ORIENTED_EDGE ( 'NONE', *, *, #219, .T. ) ;
#317 = ORIENTED_EDGE ( 'NONE', *, *, #9, .T. ) ;
#318 =( NAMED_UNIT ( * ) PLANE_ANGLE_UNIT ( ) SI_UNIT ( $, .RADIAN. ) );
#319 = ORIENTED_EDGE ( 'NONE', *, *, #357, .F. ) ;
#320 = STYLED_ITEM ( 'NONE', ( #136 ), #62 ) ;
#321 = ORIENTED_EDGE ( 'NONE', *, *, #291, .T. ) ;
#322 = VERTEX_POINT ( 'NONE', #206 ) ;
#323 = CIRCLE ( 'NONE', #338, 4.000000000000000000 ) ;
#324 = LINE ( 'NONE', #353, #104 ) ;
#325 = SURFACE_STYLE_USAGE ( .BOTH. , #43 ) ;
#326 = DIRECTION ( 'NONE',  ( 0.000000000000000000, 0.000000000000000000, -1.000000000000000000 ) ) ;
#327 = FILL_AREA_STYLE ('',( #306 ) ) ;
#328 =( LENGTH_UNIT ( ) NAMED_UNIT ( * ) SI_UNIT ( .MILLI., .METRE. ) );
#329 = STYLED_ITEM ( 'NONE', ( #299 ), #57 ) ;
#330 = CIRCLE ( 'NONE', #145, 3.999999999999993339 ) ;
#331 = CARTESIAN_POINT ( 'NONE',  ( 0.000000000000000000, 0.5000000000000000000, -3.500000000000000000 ) ) ;
#332 = SURFACE_STYLE_USAGE ( .BOTH. , #79 ) ;
#333 = FACE_OUTER_BOUND ( 'NONE', #33, .T. ) ;
#334 = CARTESIAN_POINT ( 'NONE',  ( 6.288372600415924928E-15, 11.99999999999999645, 0.000000000000000000 ) ) ;
#335 = SURFACE_SIDE_STYLE ('',( #229 ) ) ;
#336 = UNCERTAINTY_MEASURE_WITH_UNIT (LENGTH_MEASURE( 1.000000000000000082E-05 ), #218, 'distance_accuracy_value', 'NONE');
#337 = DIRECTION ( 'NONE',  ( 0.000000000000000000, 0.000000000000000000, -1.000000000000000000 ) ) ;
#338 = AXIS2_PLACEMENT_3D ( 'NONE', #131, #108, #326 ) ;
#339 = PRESENTATION_LAYER_ASSIGNMENT (  '', '', ( #290 ) ) ;
#340 = PLANE ( 'NONE',  #8 ) ;
#341 = AXIS2_PLACEMENT_3D ( 'NONE', #6, #101, #214 ) ;
#342 = DIRECTION ( 'NONE',  ( -1.000000000000000000, 0.000000000000000000, 0.000000000000000000 ) ) ;
#343 = CARTESIAN_POINT ( 'NONE',  ( 0.000000000000000000, 0.000000000000000000, 0.000000000000000000 ) ) ;
#344 = ORIENTED_EDGE ( 'NONE', *, *, #34, .T. ) ;
#345 = EDGE_LOOP ( 'NONE', ( #347, #344 ) ) ;
#346 =( NAMED_UNIT ( * ) SI_UNIT ( $, .STERADIAN. ) SOLID_ANGLE_UNIT ( ) );
#347 = ORIENTED_EDGE ( 'NONE', *, *, #97, .T. ) ;
#348 = CIRCLE ( 'NONE', #142, 3.500000000000000000 ) ;
#349 = AXIS2_PLACEMENT_3D ( 'NONE', #230, #259, #308 ) ;
#350 = ORIENTED_EDGE ( 'NONE', *, *, #366, .F. ) ;
#351 = PRODUCT_RELATED_PRODUCT_CATEGORY ( 'part', '', ( #170 ) ) ;
#352 = CARTESIAN_POINT ( 'NONE',  ( 6.288372600415925717E-15, 12.00000000000000000, 0.000000000000000000 ) ) ;
#353 = CARTESIAN_POINT ( 'NONE',  ( 0.000000000000000000, 0.000000000000000000, -4.000000000000000000 ) ) ;
#354 = CIRCLE ( 'NONE', #284, 0.5000000000000000000 ) ;
#355 = VECTOR ( 'NONE', #18, 1000.000000000000000 ) ;
#356 = DIRECTION ( 'NONE',  ( -0.000000000000000000, -1.000000000000000000, -0.000000000000000000 ) ) ;
#357 = EDGE_CURVE ( 'NONE', #239, #263, #172, .T. ) ;
#358 = EDGE_CURVE ( 'NONE', #93, #242, #82, .T. ) ;
#359 = DIRECTION ( 'NONE',  ( -1.000000000000000000, 0.000000000000000000, 0.000000000000000000 ) ) ;
#360 = CLOSED_SHELL ( 'NONE', ( #3, #23, #134, #123 ) ) ;
#361 = FILL_AREA_STYLE ('',( #272 ) ) ;
#362 =( NAMED_UNIT ( * ) PLANE_ANGLE_UNIT ( ) SI_UNIT ( $, .RADIAN. ) );
#363 =( GEOMETRIC_REPRESENTATION_CONTEXT ( 3 ) GLOBAL_UNCERTAINTY_ASSIGNED_CONTEXT ( ( #203 ) ) GLOBAL_UNIT_ASSIGNED_CONTEXT ( ( #328, #304, #256 ) ) REPRESENTATION_CONTEXT ( 'NONE', 'WORKASPACE' ) );
#364 = CYLINDRICAL_SURFACE ( 'NONE', #22, 4.000000000000000000 ) ;
#365 = CARTESIAN_POINT ( 'NONE',  ( 0.000000000000000000, 0.000000000000000000, 0.000000000000000000 ) ) ;
#366 = EDGE_CURVE ( 'NONE', #124, #93, #117, .T. ) ;
#367 =( NAMED_UNIT ( * ) PLANE_ANGLE_UNIT ( ) SI_UNIT ( $, .RADIAN. ) );
#368 = STYLED_ITEM ( 'NONE', ( #85 ), #77 ) ;
#369 = AXIS2_PLACEMENT_3D ( 'NONE', #115, #83, #197 ) ;
#370 = FACE_OUTER_BOUND ( 'NONE', #244, .T. ) ;
ENDSEC;
END-ISO-10303-21;
