ISO-10303-21;
HEADER;
FILE_DESCRIPTION (( 'STEP AP214' ),
    '1' );
FILE_NAME ('30722W.STEP',
    '2023-06-22T19:06:35',
    ( '' ),
    ( '' ),
    'SwSTEP 2.0',
    'SolidWorks 2023',
    '' );
FILE_SCHEMA (( 'AUTOMOTIVE_DESIGN' ));
ENDSEC;

DATA;
#1 =( NAMED_UNIT ( * ) PLANE_ANGLE_UNIT ( ) SI_UNIT ( $, .RADIAN. ) );
#2 = CARTESIAN_POINT ( 'NONE',  ( 0.4999999999999999445, 4.500000000000000000, 6.123233995736766036E-17 ) ) ;
#3 = CLOSED_SHELL ( 'NONE', ( #128, #162, #115, #140 ) ) ;
#4 = ORIENTED_EDGE ( 'NONE', *, *, #99, .T. ) ;
#5 = EDGE_LOOP ( 'NONE', ( #296, #93, #274, #212 ) ) ;
#6 = EDGE_LOOP ( 'NONE', ( #191, #207 ) ) ;
#7 = CYLINDRICAL_SURFACE ( 'NONE', #194, 0.5000000000000000000 ) ;
#8 = MANIFOLD_SOLID_BREP ( 'Revolve - Tool Body (Straight Shanked)', #3 ) ;
#9 = DIRECTION ( 'NONE',  ( 0.000000000000000000, -1.000000000000000000, -0.000000000000000000 ) ) ;
#10 =( NAMED_UNIT ( * ) PLANE_ANGLE_UNIT ( ) SI_UNIT ( $, .RADIAN. ) );
#11 = DIRECTION ( 'NONE',  ( -1.000000000000000000, 0.000000000000000000, 0.000000000000000000 ) ) ;
#12 = ORIENTED_EDGE ( 'NONE', *, *, #178, .F. ) ;
#13 =( LENGTH_UNIT ( ) NAMED_UNIT ( * ) SI_UNIT ( $, .METRE. ) );
#14 = DIRECTION ( 'NONE',  ( 0.000000000000000000, -0.000000000000000000, 1.000000000000000000 ) ) ;
#15 = CYLINDRICAL_SURFACE ( 'NONE', #16, 0.5000000000000000000 ) ;
#16 = AXIS2_PLACEMENT_3D ( 'NONE', #275, #142, #188 ) ;
#17 = SURFACE_STYLE_USAGE ( .BOTH. , #289 ) ;
#18 = DIRECTION ( 'NONE',  ( -2.449293598294708695E-17, 1.000000000000000000, -0.000000000000000000 ) ) ;
#19 = EDGE_CURVE ( 'NONE', #186, #61, #40, .T. ) ;
#20 = DIRECTION ( 'NONE',  ( 0.000000000000000000, 0.000000000000000000, -1.000000000000000000 ) ) ;
#21 = PRESENTATION_LAYER_ASSIGNMENT (  '', '', ( #24 ) ) ;
#22 = PRODUCT_DEFINITION_SHAPE ( 'NONE', 'NONE',  #176 ) ;
#23 =( NAMED_UNIT ( * ) PLANE_ANGLE_UNIT ( ) SI_UNIT ( $, .RADIAN. ) );
#24 = STYLED_ITEM ( 'NONE', ( #28 ), #104 ) ;
#25 = SURFACE_SIDE_STYLE ('',( #47 ) ) ;
#26 = VERTEX_POINT ( 'NONE', #169 ) ;
#27 = PRESENTATION_STYLE_ASSIGNMENT (( #237 ) ) ;
#28 = PRESENTATION_STYLE_ASSIGNMENT (( #17 ) ) ;
#29 = ADVANCED_FACE ( 'NONE', ( #214 ), #15, .T. ) ;
#30 = FILL_AREA_STYLE ('',( #197 ) ) ;
#31 = AXIS2_PLACEMENT_3D ( 'NONE', #75, #18, #147 ) ;
#32 = LINE ( 'NONE', #221, #66 ) ;
#33 =( NAMED_UNIT ( * ) PLANE_ANGLE_UNIT ( ) SI_UNIT ( $, .RADIAN. ) );
#34 = SURFACE_SIDE_STYLE ('',( #192 ) ) ;
#35 = UNCERTAINTY_MEASURE_WITH_UNIT (LENGTH_MEASURE( 1.000000000000000082E-05 ), #283, 'distance_accuracy_value', 'NONE');
#36 = DIRECTION ( 'NONE',  ( 0.000000000000000000, 0.000000000000000000, -1.000000000000000000 ) ) ;
#37 = LENGTH_MEASURE_WITH_UNIT ( LENGTH_MEASURE( 0.02539999999999999897 ), #261 );
#38 = PRESENTATION_LAYER_ASSIGNMENT (  '', '', ( #251 ) ) ;
#39 =( LENGTH_UNIT ( ) NAMED_UNIT ( * ) SI_UNIT ( $, .METRE. ) );
#40 = LINE ( 'NONE', #2, #209 ) ;
#41 = ORIENTED_EDGE ( 'NONE', *, *, #219, .T. ) ;
#42 = UNCERTAINTY_MEASURE_WITH_UNIT (LENGTH_MEASURE( 1.000000000000000082E-05 ), #144, 'distance_accuracy_value', 'NONE');
#43 = DIMENSIONAL_EXPONENTS ( 1.000000000000000000, 0.000000000000000000, 0.000000000000000000, 0.000000000000000000, 0.000000000000000000, 0.000000000000000000, 0.000000000000000000 ) ;
#44 = CARTESIAN_POINT ( 'NONE',  ( 0.000000000000000000, 0.000000000000000000, 0.000000000000000000 ) ) ;
#45 = FACE_OUTER_BOUND ( 'NONE', #229, .T. ) ;
#46 = AXIS2_PLACEMENT_3D ( 'NONE', #106, #253, #100 ) ;
#47 = SURFACE_STYLE_FILL_AREA ( #154 ) ;
#48 = SURFACE_SIDE_STYLE ('',( #213 ) ) ;
#49 = LENGTH_MEASURE_WITH_UNIT ( LENGTH_MEASURE( 0.02539999999999999897 ), #13 );
#50 = EDGE_CURVE ( 'NONE', #182, #26, #148, .T. ) ;
#51 = COLOUR_RGB ( '',1.000000000000000000, 0.000000000000000000, 0.000000000000000000 ) ;
#52 = PRESENTATION_LAYER_ASSIGNMENT (  '', '', ( #173 ) ) ;
#53 = CARTESIAN_POINT ( 'NONE',  ( -6.123233995736772199E-17, 4.500000000000000000, 0.000000000000000000 ) ) ;
#54 = LENGTH_MEASURE_WITH_UNIT ( LENGTH_MEASURE( 0.02539999999999999897 ), #56 );
#55 = STYLED_ITEM ( 'NONE', ( #63 ), #8 ) ;
#56 =( LENGTH_UNIT ( ) NAMED_UNIT ( * ) SI_UNIT ( $, .METRE. ) );
#57 = SURFACE_STYLE_USAGE ( .BOTH. , #34 ) ;
#58 = UNCERTAINTY_MEASURE_WITH_UNIT (LENGTH_MEASURE( 1.000000000000000082E-05 ), #308, 'distance_accuracy_value', 'NONE');
#59 = CIRCLE ( 'NONE', #179, 0.5000000000000000000 ) ;
#60 = VECTOR ( 'NONE', #185, 39.37007874015748143 ) ;
#61 = VERTEX_POINT ( 'NONE', #222 ) ;
#62 = DIMENSIONAL_EXPONENTS ( 1.000000000000000000, 0.000000000000000000, 0.000000000000000000, 0.000000000000000000, 0.000000000000000000, 0.000000000000000000, 0.000000000000000000 ) ;
#63 = PRESENTATION_STYLE_ASSIGNMENT (( #205 ) ) ;
#64 = VERTEX_POINT ( 'NONE', #299 ) ;
#65 = MECHANICAL_DESIGN_GEOMETRIC_PRESENTATION_REPRESENTATION (  '', ( #55 ), #217 ) ;
#66 = VECTOR ( 'NONE', #249, 39.37007874015748143 ) ;
#67 =( NAMED_UNIT ( * ) SI_UNIT ( $, .STERADIAN. ) SOLID_ANGLE_UNIT ( ) );
#68 = LENGTH_MEASURE_WITH_UNIT ( LENGTH_MEASURE( 0.02539999999999999897 ), #269 );
#69 =( NAMED_UNIT ( * ) SI_UNIT ( $, .STERADIAN. ) SOLID_ANGLE_UNIT ( ) );
#70 = CYLINDRICAL_SURFACE ( 'NONE', #98, 0.5000000000000000000 ) ;
#71 = ORIENTED_EDGE ( 'NONE', *, *, #284, .T. ) ;
#72 = CIRCLE ( 'NONE', #108, 0.5000000000000000000 ) ;
#73 = FACE_OUTER_BOUND ( 'NONE', #5, .T. ) ;
#74 = CARTESIAN_POINT ( 'NONE',  ( 0.000000000000000000, 0.000000000000000000, 0.000000000000000000 ) ) ;
#75 = CARTESIAN_POINT ( 'NONE',  ( -6.123233995736772199E-17, 4.500000000000000000, 0.000000000000000000 ) ) ;
#76 = SURFACE_STYLE_FILL_AREA ( #30 ) ;
#77 = AXIS2_PLACEMENT_3D ( 'NONE', #302, #125, #255 ) ;
#78 = EDGE_CURVE ( 'NONE', #82, #186, #165, .T. ) ;
#79 = FACE_OUTER_BOUND ( 'NONE', #86, .T. ) ;
#80 = CIRCLE ( 'NONE', #247, 0.5000000000000001110 ) ;
#81 = ORIENTED_EDGE ( 'NONE', *, *, #309, .F. ) ;
#82 = VERTEX_POINT ( 'NONE', #167 ) ;
#83 = CIRCLE ( 'NONE', #272, 0.5000000000000000000 ) ;
#84 = DIRECTION ( 'NONE',  ( -2.449293598294709003E-17, 1.000000000000000000, -0.000000000000000000 ) ) ;
#85 = DIRECTION ( 'NONE',  ( 1.000000000000000000, 2.449293598294709003E-17, 0.000000000000000000 ) ) ;
#86 = EDGE_LOOP ( 'NONE', ( #240, #71, #294, #134 ) ) ;
#87 = ORIENTED_EDGE ( 'NONE', *, *, #225, .T. ) ;
#88 = PLANE ( 'NONE',  #286 ) ;
#89 = CARTESIAN_POINT ( 'NONE',  ( 0.000000000000000000, 2.000000000000000000, 0.000000000000000000 ) ) ;
#90 = SHAPE_DEFINITION_REPRESENTATION ( #22, #103 ) ;
#91 = FILL_AREA_STYLE_COLOUR ( '', #184 ) ;
#92 = CYLINDRICAL_SURFACE ( 'NONE', #77, 0.5000000000000000000 ) ;
#93 = ORIENTED_EDGE ( 'NONE', *, *, #19, .T. ) ;
#94 = DIRECTION ( 'NONE',  ( -2.449293598294709003E-17, 1.000000000000000000, 0.000000000000000000 ) ) ;
#95 = SURFACE_STYLE_USAGE ( .BOTH. , #139 ) ;
#96 = DIRECTION ( 'NONE',  ( 0.000000000000000000, 0.000000000000000000, -1.000000000000000000 ) ) ;
#97 = PRESENTATION_LAYER_ASSIGNMENT (  '', '', ( #298 ) ) ;
#98 = AXIS2_PLACEMENT_3D ( 'NONE', #164, #244, #96 ) ;
#99 = EDGE_CURVE ( 'NONE', #182, #64, #160, .T. ) ;
#100 = DIRECTION ( 'NONE',  ( 0.000000000000000000, 0.000000000000000000, -1.000000000000000000 ) ) ;
#101 = DIMENSIONAL_EXPONENTS ( 1.000000000000000000, 0.000000000000000000, 0.000000000000000000, 0.000000000000000000, 0.000000000000000000, 0.000000000000000000, 0.000000000000000000 ) ;
#102 = CARTESIAN_POINT ( 'NONE',  ( 6.123233995736766036E-17, 0.000000000000000000, 0.5000000000000000000 ) ) ;
#103 = ADVANCED_BREP_SHAPE_REPRESENTATION ( '30722W', ( #104, #8, #152 ), #252 ) ;
#104 = MANIFOLD_SOLID_BREP ( 'Revolve - Cutting Edge', #111 ) ;
#105 = CARTESIAN_POINT ( 'NONE',  ( 0.000000000000000000, 2.000000000000000000, 0.000000000000000000 ) ) ;
#106 = CARTESIAN_POINT ( 'NONE',  ( 0.000000000000000000, 0.000000000000000000, 0.000000000000000000 ) ) ;
#107 = DIRECTION ( 'NONE',  ( -0.000000000000000000, -1.000000000000000000, -0.000000000000000000 ) ) ;
#108 = AXIS2_PLACEMENT_3D ( 'NONE', #105, #227, #110 ) ;
#109 = UNCERTAINTY_MEASURE_WITH_UNIT (LENGTH_MEASURE( 1.000000000000000082E-05 ), #157, 'distance_accuracy_value', 'NONE');
#110 = DIRECTION ( 'NONE',  ( -1.000000000000000000, 0.000000000000000000, 0.000000000000000000 ) ) ;
#111 = CLOSED_SHELL ( 'NONE', ( #29, #150, #297, #172 ) ) ;
#112 =( LENGTH_UNIT ( ) NAMED_UNIT ( * ) SI_UNIT ( $, .METRE. ) );
#113 = ORIENTED_EDGE ( 'NONE', *, *, #50, .F. ) ;
#114 = FACE_OUTER_BOUND ( 'NONE', #6, .T. ) ;
#115 = ADVANCED_FACE ( 'NONE', ( #79 ), #92, .T. ) ;
#116 = FILL_AREA_STYLE ('',( #190 ) ) ;
#117 = FACE_OUTER_BOUND ( 'NONE', #141, .T. ) ;
#118 = DIRECTION ( 'NONE',  ( -1.000000000000000000, 0.000000000000000000, 0.000000000000000000 ) ) ;
#119 = PLANE ( 'NONE',  #303 ) ;
#120 = DIMENSIONAL_EXPONENTS ( 1.000000000000000000, 0.000000000000000000, 0.000000000000000000, 0.000000000000000000, 0.000000000000000000, 0.000000000000000000, 0.000000000000000000 ) ;
#121 = CARTESIAN_POINT ( 'NONE',  ( 0.5000000000000000000, 2.000000000000000000, 6.123233995736766036E-17 ) ) ;
#122 = DIRECTION ( 'NONE',  ( -0.000000000000000000, -1.000000000000000000, -0.000000000000000000 ) ) ;
#123 = DIRECTION ( 'NONE',  ( -2.449293598294708695E-17, 1.000000000000000000, -0.000000000000000000 ) ) ;
#124 =( NAMED_UNIT ( * ) PLANE_ANGLE_UNIT ( ) SI_UNIT ( $, .RADIAN. ) );
#125 = DIRECTION ( 'NONE',  ( -2.449293598294708695E-17, 1.000000000000000000, -0.000000000000000000 ) ) ;
#126 = CIRCLE ( 'NONE', #46, 0.5000000000000000000 ) ;
#127 = PRODUCT_DEFINITION_CONTEXT ( 'detailed design', #135, 'design' ) ;
#128 = ADVANCED_FACE ( 'NONE', ( #73 ), #7, .T. ) ;
#129 = AXIS2_PLACEMENT_3D ( 'NONE', #239, #292, #118 ) ;
#130 = UNCERTAINTY_MEASURE_WITH_UNIT (LENGTH_MEASURE( 1.000000000000000082E-05 ), #226, 'distance_accuracy_value', 'NONE');
#131 = ORIENTED_EDGE ( 'NONE', *, *, #136, .F. ) ;
#132 = AXIS2_PLACEMENT_3D ( 'NONE', #156, #245, #14 ) ;
#133 =( LENGTH_UNIT ( ) NAMED_UNIT ( * ) SI_UNIT ( $, .METRE. ) );
#134 = ORIENTED_EDGE ( 'NONE', *, *, #230, .F. ) ;
#135 = APPLICATION_CONTEXT ( 'automotive_design' ) ;
#136 = EDGE_CURVE ( 'NONE', #26, #182, #59, .T. ) ;
#137 =( NAMED_UNIT ( * ) SI_UNIT ( $, .STERADIAN. ) SOLID_ANGLE_UNIT ( ) );
#138 = AXIS2_PLACEMENT_3D ( 'NONE', #89, #122, #273 ) ;
#139 = SURFACE_SIDE_STYLE ('',( #76 ) ) ;
#140 = ADVANCED_FACE ( 'NONE', ( #220 ), #119, .F. ) ;
#141 = EDGE_LOOP ( 'NONE', ( #41, #236 ) ) ;
#142 = DIRECTION ( 'NONE',  ( -0.000000000000000000, -1.000000000000000000, -0.000000000000000000 ) ) ;
#143 = DIMENSIONAL_EXPONENTS ( 1.000000000000000000, 0.000000000000000000, 0.000000000000000000, 0.000000000000000000, 0.000000000000000000, 0.000000000000000000, 0.000000000000000000 ) ;
#144 =( CONVERSION_BASED_UNIT ( 'INCH', #49 ) LENGTH_UNIT ( ) NAMED_UNIT ( #62 ) );
#145 =( CONVERSION_BASED_UNIT ( 'INCH', #54 ) LENGTH_UNIT ( ) NAMED_UNIT ( #143 ) );
#146 = MECHANICAL_DESIGN_GEOMETRIC_PRESENTATION_REPRESENTATION (  '', ( #251 ), #224 ) ;
#147 = DIRECTION ( 'NONE',  ( -1.000000000000000000, 0.000000000000000000, 0.000000000000000000 ) ) ;
#148 = CIRCLE ( 'NONE', #138, 0.5000000000000000000 ) ;
#149 = LENGTH_MEASURE_WITH_UNIT ( LENGTH_MEASURE( 0.02539999999999999897 ), #39 );
#150 = ADVANCED_FACE ( 'NONE', ( #206 ), #175, .T. ) ;
#151 = COLOUR_RGB ( '',0.7921568627450980005, 0.8196078431372548767, 0.9333333333333333481 ) ;
#152 = AXIS2_PLACEMENT_3D ( 'NONE', #74, #293, #270 ) ;
#153 = PRESENTATION_LAYER_ASSIGNMENT (  '', '', ( #55 ) ) ;
#154 = FILL_AREA_STYLE ('',( #208 ) ) ;
#155 = ORIENTED_EDGE ( 'NONE', *, *, #99, .F. ) ;
#156 = CARTESIAN_POINT ( 'NONE',  ( 0.000000000000000000, 2.000000000000000000, 0.000000000000000000 ) ) ;
#157 =( CONVERSION_BASED_UNIT ( 'INCH', #68 ) LENGTH_UNIT ( ) NAMED_UNIT ( #101 ) );
#158 = EDGE_LOOP ( 'NONE', ( #290, #181, #231, #155 ) ) ;
#159 = DIRECTION ( 'NONE',  ( 2.449293598294709003E-17, -1.000000000000000000, 0.000000000000000000 ) ) ;
#160 = LINE ( 'NONE', #267, #60 ) ;
#161 = CARTESIAN_POINT ( 'NONE',  ( 0.000000000000000000, 2.000000000000000000, 0.000000000000000000 ) ) ;
#162 = ADVANCED_FACE ( 'NONE', ( #114 ), #88, .F. ) ;
#163 =( NAMED_UNIT ( * ) SI_UNIT ( $, .STERADIAN. ) SOLID_ANGLE_UNIT ( ) );
#164 = CARTESIAN_POINT ( 'NONE',  ( 0.000000000000000000, 0.000000000000000000, 0.000000000000000000 ) ) ;
#165 = CIRCLE ( 'NONE', #129, 0.5000000000000000000 ) ;
#166 = ORIENTED_EDGE ( 'NONE', *, *, #230, .T. ) ;
#167 = CARTESIAN_POINT ( 'NONE',  ( -0.5000000000000000000, 2.000000000000000000, 0.000000000000000000 ) ) ;
#168 = LINE ( 'NONE', #203, #277 ) ;
#169 = CARTESIAN_POINT ( 'NONE',  ( 6.123233995736766036E-17, 2.000000000000000000, 0.5000000000000000000 ) ) ;
#170 = DIMENSIONAL_EXPONENTS ( 1.000000000000000000, 0.000000000000000000, 0.000000000000000000, 0.000000000000000000, 0.000000000000000000, 0.000000000000000000, 0.000000000000000000 ) ;
#171 = SURFACE_SIDE_STYLE ('',( #193 ) ) ;
#172 = ADVANCED_FACE ( 'NONE', ( #117 ), #210, .T. ) ;
#173 = STYLED_ITEM ( 'NONE', ( #254 ), #172 ) ;
#174 = DIRECTION ( 'NONE',  ( 0.000000000000000000, 0.000000000000000000, -1.000000000000000000 ) ) ;
#175 = PLANE ( 'NONE',  #132 ) ;
#176 = PRODUCT_DEFINITION ( 'UNKNOWN', '', #198, #127 ) ;
#177 = MECHANICAL_DESIGN_GEOMETRIC_PRESENTATION_REPRESENTATION (  '', ( #173 ), #200 ) ;
#178 = EDGE_CURVE ( 'NONE', #264, #64, #83, .T. ) ;
#179 = AXIS2_PLACEMENT_3D ( 'NONE', #161, #107, #36 ) ;
#180 = LENGTH_MEASURE_WITH_UNIT ( LENGTH_MEASURE( 0.02539999999999999897 ), #133 );
#181 = ORIENTED_EDGE ( 'NONE', *, *, #309, .T. ) ;
#182 = VERTEX_POINT ( 'NONE', #248 ) ;
#183 = EDGE_LOOP ( 'NONE', ( #113, #131 ) ) ;
#184 = COLOUR_RGB ( '',1.000000000000000000, 0.000000000000000000, 0.000000000000000000 ) ;
#185 = DIRECTION ( 'NONE',  ( -0.000000000000000000, -1.000000000000000000, -0.000000000000000000 ) ) ;
#186 = VERTEX_POINT ( 'NONE', #121 ) ;
#187 = CARTESIAN_POINT ( 'NONE',  ( 1.499759782661860216E-34, 2.000000000000000000, 0.000000000000000000 ) ) ;
#188 = DIRECTION ( 'NONE',  ( 0.000000000000000000, 0.000000000000000000, -1.000000000000000000 ) ) ;
#189 = PRODUCT_CONTEXT ( 'NONE', #259, 'mechanical' ) ;
#190 = FILL_AREA_STYLE_COLOUR ( '', #151 ) ;
#191 = ORIENTED_EDGE ( 'NONE', *, *, #78, .F. ) ;
#192 = SURFACE_STYLE_FILL_AREA ( #243 ) ;
#193 = SURFACE_STYLE_FILL_AREA ( #260 ) ;
#194 = AXIS2_PLACEMENT_3D ( 'NONE', #53, #123, #11 ) ;
#195 =( NAMED_UNIT ( * ) PLANE_ANGLE_UNIT ( ) SI_UNIT ( $, .RADIAN. ) );
#196 = CARTESIAN_POINT ( 'NONE',  ( -6.123233995736772199E-17, 4.500000000000000000, 0.000000000000000000 ) ) ;
#197 = FILL_AREA_STYLE_COLOUR ( '', #51 ) ;
#198 = PRODUCT_DEFINITION_FORMATION_WITH_SPECIFIED_SOURCE ( 'ANY', '', #300, .NOT_KNOWN. ) ;
#199 = DIRECTION ( 'NONE',  ( -0.000000000000000000, -1.000000000000000000, -0.000000000000000000 ) ) ;
#200 =( GEOMETRIC_REPRESENTATION_CONTEXT ( 3 ) GLOBAL_UNCERTAINTY_ASSIGNED_CONTEXT ( ( #35 ) ) GLOBAL_UNIT_ASSIGNED_CONTEXT ( ( #283, #228, #233 ) ) REPRESENTATION_CONTEXT ( 'NONE', 'WORKASPACE' ) );
#201 = LENGTH_MEASURE_WITH_UNIT ( LENGTH_MEASURE( 0.02539999999999999897 ), #112 );
#202 = CARTESIAN_POINT ( 'NONE',  ( -0.5000000000000001110, 4.500000000000000000, 0.000000000000000000 ) ) ;
#203 = CARTESIAN_POINT ( 'NONE',  ( 6.123233995736766036E-17, 0.000000000000000000, 0.5000000000000000000 ) ) ;
#204 =( GEOMETRIC_REPRESENTATION_CONTEXT ( 3 ) GLOBAL_UNCERTAINTY_ASSIGNED_CONTEXT ( ( #109 ) ) GLOBAL_UNIT_ASSIGNED_CONTEXT ( ( #157, #10, #137 ) ) REPRESENTATION_CONTEXT ( 'NONE', 'WORKASPACE' ) );
#205 = SURFACE_STYLE_USAGE ( .BOTH. , #25 ) ;
#206 = FACE_OUTER_BOUND ( 'NONE', #183, .T. ) ;
#207 = ORIENTED_EDGE ( 'NONE', *, *, #284, .F. ) ;
#208 = FILL_AREA_STYLE_COLOUR ( '', #285 ) ;
#209 = VECTOR ( 'NONE', #84, 39.37007874015748143 ) ;
#210 = PLANE ( 'NONE',  #223 ) ;
#211 = SURFACE_STYLE_USAGE ( .BOTH. , #171 ) ;
#212 = ORIENTED_EDGE ( 'NONE', *, *, #238, .F. ) ;
#213 = SURFACE_STYLE_FILL_AREA ( #266 ) ;
#214 = FACE_OUTER_BOUND ( 'NONE', #158, .T. ) ;
#215 = CARTESIAN_POINT ( 'NONE',  ( 0.5000000000000000000, 4.500000000000000000, 0.000000000000000000 ) ) ;
#216 =( NAMED_UNIT ( * ) SI_UNIT ( $, .STERADIAN. ) SOLID_ANGLE_UNIT ( ) );
#217 =( GEOMETRIC_REPRESENTATION_CONTEXT ( 3 ) GLOBAL_UNCERTAINTY_ASSIGNED_CONTEXT ( ( #250 ) ) GLOBAL_UNIT_ASSIGNED_CONTEXT ( ( #256, #23, #306 ) ) REPRESENTATION_CONTEXT ( 'NONE', 'WORKASPACE' ) );
#218 = PRESENTATION_STYLE_ASSIGNMENT (( #211 ) ) ;
#219 = EDGE_CURVE ( 'NONE', #64, #264, #126, .T. ) ;
#220 = FACE_OUTER_BOUND ( 'NONE', #265, .T. ) ;
#221 = CARTESIAN_POINT ( 'NONE',  ( -0.5000000000000001110, 4.500000000000000000, 0.000000000000000000 ) ) ;
#222 = CARTESIAN_POINT ( 'NONE',  ( 0.5000000000000000000, 4.500000000000000000, 6.123233995736766036E-17 ) ) ;
#223 = AXIS2_PLACEMENT_3D ( 'NONE', #44, #9, #20 ) ;
#224 =( GEOMETRIC_REPRESENTATION_CONTEXT ( 3 ) GLOBAL_UNCERTAINTY_ASSIGNED_CONTEXT ( ( #304 ) ) GLOBAL_UNIT_ASSIGNED_CONTEXT ( ( #145, #124, #69 ) ) REPRESENTATION_CONTEXT ( 'NONE', 'WORKASPACE' ) );
#225 = EDGE_CURVE ( 'NONE', #287, #61, #80, .T. ) ;
#226 =( CONVERSION_BASED_UNIT ( 'INCH', #149 ) LENGTH_UNIT ( ) NAMED_UNIT ( #120 ) );
#227 = DIRECTION ( 'NONE',  ( -2.449293598294708695E-17, 1.000000000000000000, -0.000000000000000000 ) ) ;
#228 =( NAMED_UNIT ( * ) PLANE_ANGLE_UNIT ( ) SI_UNIT ( $, .RADIAN. ) );
#229 = EDGE_LOOP ( 'NONE', ( #81, #234, #4, #12 ) ) ;
#230 = EDGE_CURVE ( 'NONE', #61, #287, #263, .T. ) ;
#231 = ORIENTED_EDGE ( 'NONE', *, *, #219, .F. ) ;
#232 = COLOUR_RGB ( '',1.000000000000000000, 0.000000000000000000, 0.000000000000000000 ) ;
#233 =( NAMED_UNIT ( * ) SI_UNIT ( $, .STERADIAN. ) SOLID_ANGLE_UNIT ( ) );
#234 = ORIENTED_EDGE ( 'NONE', *, *, #136, .T. ) ;
#235 = APPLICATION_PROTOCOL_DEFINITION ( 'draft international standard', 'automotive_design', 1998, #135 ) ;
#236 = ORIENTED_EDGE ( 'NONE', *, *, #178, .T. ) ;
#237 = SURFACE_STYLE_USAGE ( .BOTH. , #48 ) ;
#238 = EDGE_CURVE ( 'NONE', #82, #287, #32, .T. ) ;
#239 = CARTESIAN_POINT ( 'NONE',  ( 0.000000000000000000, 2.000000000000000000, 0.000000000000000000 ) ) ;
#240 = ORIENTED_EDGE ( 'NONE', *, *, #19, .F. ) ;
#241 = FILL_AREA_STYLE_COLOUR ( '', #288 ) ;
#242 =( GEOMETRIC_REPRESENTATION_CONTEXT ( 3 ) GLOBAL_UNCERTAINTY_ASSIGNED_CONTEXT ( ( #130 ) ) GLOBAL_UNIT_ASSIGNED_CONTEXT ( ( #226, #1, #163 ) ) REPRESENTATION_CONTEXT ( 'NONE', 'WORKASPACE' ) );
#243 = FILL_AREA_STYLE ('',( #91 ) ) ;
#244 = DIRECTION ( 'NONE',  ( -0.000000000000000000, -1.000000000000000000, -0.000000000000000000 ) ) ;
#245 = DIRECTION ( 'NONE',  ( 0.000000000000000000, 1.000000000000000000, 0.000000000000000000 ) ) ;
#246 = STYLED_ITEM ( 'NONE', ( #276 ), #29 ) ;
#247 = AXIS2_PLACEMENT_3D ( 'NONE', #196, #279, #301 ) ;
#248 = CARTESIAN_POINT ( 'NONE',  ( 0.000000000000000000, 2.000000000000000000, -0.5000000000000000000 ) ) ;
#249 = DIRECTION ( 'NONE',  ( -2.449293598294709003E-17, 1.000000000000000000, -0.000000000000000000 ) ) ;
#250 = UNCERTAINTY_MEASURE_WITH_UNIT (LENGTH_MEASURE( 1.000000000000000082E-05 ), #256, 'distance_accuracy_value', 'NONE');
#251 = STYLED_ITEM ( 'NONE', ( #27 ), #297 ) ;
#252 =( GEOMETRIC_REPRESENTATION_CONTEXT ( 3 ) GLOBAL_UNCERTAINTY_ASSIGNED_CONTEXT ( ( #58 ) ) GLOBAL_UNIT_ASSIGNED_CONTEXT ( ( #308, #195, #67 ) ) REPRESENTATION_CONTEXT ( 'NONE', 'WORKASPACE' ) );
#253 = DIRECTION ( 'NONE',  ( -0.000000000000000000, -1.000000000000000000, -0.000000000000000000 ) ) ;
#254 = PRESENTATION_STYLE_ASSIGNMENT (( #57 ) ) ;
#255 = DIRECTION ( 'NONE',  ( -1.000000000000000000, 0.000000000000000000, 0.000000000000000000 ) ) ;
#256 =( CONVERSION_BASED_UNIT ( 'INCH', #180 ) LENGTH_UNIT ( ) NAMED_UNIT ( #43 ) );
#257 =( GEOMETRIC_REPRESENTATION_CONTEXT ( 3 ) GLOBAL_UNCERTAINTY_ASSIGNED_CONTEXT ( ( #42 ) ) GLOBAL_UNIT_ASSIGNED_CONTEXT ( ( #144, #33, #216 ) ) REPRESENTATION_CONTEXT ( 'NONE', 'WORKASPACE' ) );
#258 = MECHANICAL_DESIGN_GEOMETRIC_PRESENTATION_REPRESENTATION (  '', ( #24 ), #204 ) ;
#259 = APPLICATION_CONTEXT ( 'automotive_design' ) ;
#260 = FILL_AREA_STYLE ('',( #307 ) ) ;
#261 =( LENGTH_UNIT ( ) NAMED_UNIT ( * ) SI_UNIT ( $, .METRE. ) );
#262 = MECHANICAL_DESIGN_GEOMETRIC_PRESENTATION_REPRESENTATION (  '', ( #246 ), #257 ) ;
#263 = CIRCLE ( 'NONE', #31, 0.5000000000000001110 ) ;
#264 = VERTEX_POINT ( 'NONE', #102 ) ;
#265 = EDGE_LOOP ( 'NONE', ( #87, #166 ) ) ;
#266 = FILL_AREA_STYLE ('',( #241 ) ) ;
#267 = CARTESIAN_POINT ( 'NONE',  ( 0.000000000000000000, 0.000000000000000000, -0.5000000000000000000 ) ) ;
#268 = APPLICATION_PROTOCOL_DEFINITION ( 'draft international standard', 'automotive_design', 1998, #259 ) ;
#269 =( LENGTH_UNIT ( ) NAMED_UNIT ( * ) SI_UNIT ( $, .METRE. ) );
#270 = DIRECTION ( 'NONE',  ( 1.000000000000000000, 0.000000000000000000, 0.000000000000000000 ) ) ;
#271 = PRESENTATION_LAYER_ASSIGNMENT (  '', '', ( #246 ) ) ;
#272 = AXIS2_PLACEMENT_3D ( 'NONE', #305, #281, #174 ) ;
#273 = DIRECTION ( 'NONE',  ( 0.000000000000000000, 0.000000000000000000, -1.000000000000000000 ) ) ;
#274 = ORIENTED_EDGE ( 'NONE', *, *, #225, .F. ) ;
#275 = CARTESIAN_POINT ( 'NONE',  ( 0.000000000000000000, 0.000000000000000000, 0.000000000000000000 ) ) ;
#276 = PRESENTATION_STYLE_ASSIGNMENT (( #95 ) ) ;
#277 = VECTOR ( 'NONE', #199, 39.37007874015748143 ) ;
#278 = PRODUCT_RELATED_PRODUCT_CATEGORY ( 'part', '', ( #300 ) ) ;
#279 = DIRECTION ( 'NONE',  ( -2.449293598294708695E-17, 1.000000000000000000, -0.000000000000000000 ) ) ;
#280 = DIMENSIONAL_EXPONENTS ( 1.000000000000000000, 0.000000000000000000, 0.000000000000000000, 0.000000000000000000, 0.000000000000000000, 0.000000000000000000, 0.000000000000000000 ) ;
#281 = DIRECTION ( 'NONE',  ( -0.000000000000000000, -1.000000000000000000, -0.000000000000000000 ) ) ;
#282 = MECHANICAL_DESIGN_GEOMETRIC_PRESENTATION_REPRESENTATION (  '', ( #298 ), #242 ) ;
#283 =( CONVERSION_BASED_UNIT ( 'INCH', #37 ) LENGTH_UNIT ( ) NAMED_UNIT ( #280 ) );
#284 = EDGE_CURVE ( 'NONE', #186, #82, #72, .T. ) ;
#285 = COLOUR_RGB ( '',0.7921568627450980005, 0.8196078431372548767, 0.9333333333333333481 ) ;
#286 = AXIS2_PLACEMENT_3D ( 'NONE', #187, #94, #291 ) ;
#287 = VERTEX_POINT ( 'NONE', #202 ) ;
#288 = COLOUR_RGB ( '',1.000000000000000000, 0.000000000000000000, 0.000000000000000000 ) ;
#289 = SURFACE_SIDE_STYLE ('',( #295 ) ) ;
#290 = ORIENTED_EDGE ( 'NONE', *, *, #50, .T. ) ;
#291 = DIRECTION ( 'NONE',  ( -1.000000000000000000, -2.449293598294709003E-17, 0.000000000000000000 ) ) ;
#292 = DIRECTION ( 'NONE',  ( -2.449293598294708695E-17, 1.000000000000000000, -0.000000000000000000 ) ) ;
#293 = DIRECTION ( 'NONE',  ( 0.000000000000000000, 0.000000000000000000, 1.000000000000000000 ) ) ;
#294 = ORIENTED_EDGE ( 'NONE', *, *, #238, .T. ) ;
#295 = SURFACE_STYLE_FILL_AREA ( #116 ) ;
#296 = ORIENTED_EDGE ( 'NONE', *, *, #78, .T. ) ;
#297 = ADVANCED_FACE ( 'NONE', ( #45 ), #70, .T. ) ;
#298 = STYLED_ITEM ( 'NONE', ( #218 ), #150 ) ;
#299 = CARTESIAN_POINT ( 'NONE',  ( 0.000000000000000000, 0.000000000000000000, -0.5000000000000000000 ) ) ;
#300 = PRODUCT ( '30722W', '30722W', '', ( #189 ) ) ;
#301 = DIRECTION ( 'NONE',  ( -1.000000000000000000, 0.000000000000000000, 0.000000000000000000 ) ) ;
#302 = CARTESIAN_POINT ( 'NONE',  ( -6.123233995736772199E-17, 4.500000000000000000, 0.000000000000000000 ) ) ;
#303 = AXIS2_PLACEMENT_3D ( 'NONE', #215, #159, #85 ) ;
#304 = UNCERTAINTY_MEASURE_WITH_UNIT (LENGTH_MEASURE( 1.000000000000000082E-05 ), #145, 'distance_accuracy_value', 'NONE');
#305 = CARTESIAN_POINT ( 'NONE',  ( 0.000000000000000000, 0.000000000000000000, 0.000000000000000000 ) ) ;
#306 =( NAMED_UNIT ( * ) SI_UNIT ( $, .STERADIAN. ) SOLID_ANGLE_UNIT ( ) );
#307 = FILL_AREA_STYLE_COLOUR ( '', #232 ) ;
#308 =( CONVERSION_BASED_UNIT ( 'INCH', #201 ) LENGTH_UNIT ( ) NAMED_UNIT ( #170 ) );
#309 = EDGE_CURVE ( 'NONE', #26, #264, #168, .T. ) ;
ENDSEC;
END-ISO-10303-21;
