ISO-10303-21;
HEADER;
FILE_DESCRIPTION (( 'STEP AP214' ),
    '1' );
FILE_NAME ('Micro_BEM-125-04.STEP',
    '2021-09-03T13:02:21',
    ( '' ),
    ( '' ),
    'SwSTEP 2.0',
    'SolidWorks 2020',
    '' );
FILE_SCHEMA (( 'AUTOMOTIVE_DESIGN' ));
ENDSEC;

DATA;
#1 = EDGE_LOOP ( 'NONE', ( #70, #252, #245, #122 ) ) ;
#2 = EDGE_CURVE ( 'NONE', #117, #178, #254, .T. ) ;
#3 =( NAMED_UNIT ( * ) SI_UNIT ( $, .STERADIAN. ) SOLID_ANGLE_UNIT ( ) );
#4 = DIRECTION ( 'NONE',  ( -1.224646799147353700E-16, -0.0000000000000000000, -1.000000000000000000 ) ) ;
#5 = VERTEX_POINT ( 'NONE', #273 ) ;
#6 = ORIENTED_EDGE ( 'NONE', *, *, #152, .F. ) ;
#7 = PRODUCT_DEFINITION_FORMATION_WITH_SPECIFIED_SOURCE ( 'ANY', '', #138, .NOT_KNOWN. ) ;
#8 = ADVANCED_BREP_SHAPE_REPRESENTATION ( 'Micro_BEM-125-04', ( #60, #143 ), #238 ) ;
#9 = DIRECTION ( 'NONE',  ( -1.224646799147353700E-16, -0.0000000000000000000, -1.000000000000000000 ) ) ;
#10 = LINE ( 'NONE', #257, #256 ) ;
#11 = SURFACE_STYLE_FILL_AREA ( #155 ) ;
#12 = AXIS2_PLACEMENT_3D ( 'NONE', #287, #206, #159 ) ;
#13 = DIRECTION ( 'NONE',  ( 1.000000000000000000, 0.0000000000000000000, 0.0000000000000000000 ) ) ;
#14 = CARTESIAN_POINT ( 'NONE',  ( 6.123233995736768501E-17, 0.0000000000000000000, 0.5000000000000000000 ) ) ;
#15 = CARTESIAN_POINT ( 'NONE',  ( -0.04750000000000064587, 0.0000000000000000000, 1.500000000000000222 ) ) ;
#16 = DIMENSIONAL_EXPONENTS ( 1.000000000000000000, 0.0000000000000000000, 0.0000000000000000000, 0.0000000000000000000, 0.0000000000000000000, 0.0000000000000000000, 0.0000000000000000000 ) ;
#17 = FACE_OUTER_BOUND ( 'NONE', #300, .T. ) ;
#18 = AXIS2_PLACEMENT_3D ( 'NONE', #182, #9, #78 ) ;
#19 = LENGTH_MEASURE_WITH_UNIT ( LENGTH_MEASURE( 0.02539999999999999897 ), #132 );
#20 = VERTEX_POINT ( 'NONE', #98 ) ;
#21 = CIRCLE ( 'NONE', #248, 0.06243749999999999994 ) ;
#22 = VECTOR ( 'NONE', #282, 39.37007874015748143 ) ;
#23 = DIRECTION ( 'NONE',  ( 1.000000000000000000, 0.0000000000000000000, 0.0000000000000000000 ) ) ;
#24 = VECTOR ( 'NONE', #266, 39.37007874015748143 ) ;
#25 = CARTESIAN_POINT ( 'NONE',  ( 0.0000000000000000000, 0.0000000000000000000, 0.0000000000000000000 ) ) ;
#26 = ADVANCED_FACE ( 'NONE', ( #203 ), #200, .T. ) ;
#27 = EDGE_LOOP ( 'NONE', ( #199, #275, #28, #218 ) ) ;
#28 = ORIENTED_EDGE ( 'NONE', *, *, #274, .T. ) ;
#29 = CIRCLE ( 'NONE', #161, 0.06243749999999999994 ) ;
#30 = DIRECTION ( 'NONE',  ( 0.0000000000000000000, 0.0000000000000000000, -1.000000000000000000 ) ) ;
#31 = VERTEX_POINT ( 'NONE', #201 ) ;
#32 =( NAMED_UNIT ( * ) SI_UNIT ( $, .STERADIAN. ) SOLID_ANGLE_UNIT ( ) );
#33 = ORIENTED_EDGE ( 'NONE', *, *, #236, .T. ) ;
#34 = DIRECTION ( 'NONE',  ( -1.224646799147353700E-16, -0.0000000000000000000, -1.000000000000000000 ) ) ;
#35 = ADVANCED_FACE ( 'NONE', ( #307 ), #321, .T. ) ;
#36 = PRESENTATION_LAYER_ASSIGNMENT (  '', '', ( #190 ) ) ;
#37 = FILL_AREA_STYLE_COLOUR ( '', #47 ) ;
#38 = LINE ( 'NONE', #130, #86 ) ;
#39 = EDGE_CURVE ( 'NONE', #304, #5, #291, .T. ) ;
#40 = EDGE_CURVE ( 'NONE', #301, #228, #21, .T. ) ;
#41 = DIRECTION ( 'NONE',  ( 1.224646799147353700E-16, 0.0000000000000000000, 1.000000000000000000 ) ) ;
#42 = CARTESIAN_POINT ( 'NONE',  ( 0.0000000000000000000, 0.0000000000000000000, 1.500000000000000222 ) ) ;
#43 = CARTESIAN_POINT ( 'NONE',  ( 0.0000000000000000000, 0.0000000000000000000, 1.500000000000000222 ) ) ;
#44 = DIRECTION ( 'NONE',  ( 0.0000000000000000000, 0.0000000000000000000, -1.000000000000000000 ) ) ;
#45 = SHAPE_DEFINITION_REPRESENTATION ( #133, #8 ) ;
#46 = DIRECTION ( 'NONE',  ( -1.000000000000000000, 0.0000000000000000000, 0.0000000000000000000 ) ) ;
#47 = COLOUR_RGB ( '',0.7921568627450980005, 0.8196078431372548767, 0.9333333333333333481 ) ;
#48 = VECTOR ( 'NONE', #134, 39.37007874015748143 ) ;
#49 = CYLINDRICAL_SURFACE ( 'NONE', #231, 0.06243749999999999994 ) ;
#50 =( NAMED_UNIT ( * ) SI_UNIT ( $, .STERADIAN. ) SOLID_ANGLE_UNIT ( ) );
#51 = ORIENTED_EDGE ( 'NONE', *, *, #283, .T. ) ;
#52 = UNCERTAINTY_MEASURE_WITH_UNIT (LENGTH_MEASURE( 1.000000000000000082E-05 ), #53, 'distance_accuracy_value', 'NONE');
#53 =( CONVERSION_BASED_UNIT ( 'INCH', #19 ) LENGTH_UNIT ( ) NAMED_UNIT ( #71 ) );
#54 = ORIENTED_EDGE ( 'NONE', *, *, #40, .F. ) ;
#55 = ADVANCED_FACE ( 'NONE', ( #173 ), #49, .T. ) ;
#56 = FILL_AREA_STYLE_COLOUR ( '', #81 ) ;
#57 = ORIENTED_EDGE ( 'NONE', *, *, #128, .F. ) ;
#58 = CARTESIAN_POINT ( 'NONE',  ( 0.06250000000000002776, 7.654042494670959086E-18, 1.500000000000000222 ) ) ;
#59 = DIRECTION ( 'NONE',  ( -1.000000000000000000, 0.0000000000000000000, 1.224646799147353947E-16 ) ) ;
#60 = MANIFOLD_SOLID_BREP ( 'Fillet1', #290 ) ;
#61 = AXIS2_PLACEMENT_3D ( 'NONE', #270, #108, #85 ) ;
#62 = ADVANCED_FACE ( 'NONE', ( #183 ), #225, .T. ) ;
#63 = FACE_OUTER_BOUND ( 'NONE', #198, .T. ) ;
#64 = AXIS2_PLACEMENT_3D ( 'NONE', #42, #114, #84 ) ;
#65 = CARTESIAN_POINT ( 'NONE',  ( 7.646388452176290456E-18, 0.0000000000000000000, 0.06243749999999999994 ) ) ;
#66 = LINE ( 'NONE', #259, #48 ) ;
#67 = DIRECTION ( 'NONE',  ( -0.1736481776669310251, 2.126576849575781468E-17, 0.9848077530122080203 ) ) ;
#68 = CARTESIAN_POINT ( 'NONE',  ( 6.123233995736768501E-17, 0.0000000000000000000, 0.5000000000000000000 ) ) ;
#69 = APPLICATION_PROTOCOL_DEFINITION ( 'draft international standard', 'automotive_design', 1998, #288 ) ;
#70 = ORIENTED_EDGE ( 'NONE', *, *, #283, .F. ) ;
#71 = DIMENSIONAL_EXPONENTS ( 1.000000000000000000, 0.0000000000000000000, 0.0000000000000000000, 0.0000000000000000000, 0.0000000000000000000, 0.0000000000000000000, 0.0000000000000000000 ) ;
#72 = DIRECTION ( 'NONE',  ( -1.000000000000000000, 0.0000000000000000000, 1.367291288120251888E-16 ) ) ;
#73 = ORIENTED_EDGE ( 'NONE', *, *, #313, .F. ) ;
#74 = ORIENTED_EDGE ( 'NONE', *, *, #236, .F. ) ;
#75 = UNCERTAINTY_MEASURE_WITH_UNIT (LENGTH_MEASURE( 1.000000000000000082E-05 ), #227, 'distance_accuracy_value', 'NONE');
#76 = EDGE_LOOP ( 'NONE', ( #57, #215, #54 ) ) ;
#77 = FACE_OUTER_BOUND ( 'NONE', #27, .T. ) ;
#78 = DIRECTION ( 'NONE',  ( -1.000000000000000000, 0.0000000000000000000, 0.0000000000000000000 ) ) ;
#79 = LINE ( 'NONE', #285, #22 ) ;
#80 = LINE ( 'NONE', #140, #310 ) ;
#81 = COLOUR_RGB ( '',0.7921568627450980005, 0.8196078431372548767, 0.9333333333333333481 ) ;
#82 = SURFACE_SIDE_STYLE ('',( #11 ) ) ;
#83 = ADVANCED_FACE ( 'NONE', ( #77 ), #100, .T. ) ;
#84 = DIRECTION ( 'NONE',  ( 1.000000000000000000, 0.0000000000000000000, -0.0000000000000000000 ) ) ;
#85 = DIRECTION ( 'NONE',  ( -1.000000000000000000, 0.0000000000000000000, 0.0000000000000000000 ) ) ;
#86 = VECTOR ( 'NONE', #123, 39.37007874015748143 ) ;
#87 = EDGE_CURVE ( 'NONE', #304, #31, #10, .T. ) ;
#88 = CARTESIAN_POINT ( 'NONE',  ( 0.06243750000000001382, 7.646388452176287375E-18, 0.06243749999999999301 ) ) ;
#89 = ADVANCED_FACE ( 'NONE', ( #209 ), #233, .T. ) ;
#90 = DIRECTION ( 'NONE',  ( -1.224646799147353700E-16, -0.0000000000000000000, -1.000000000000000000 ) ) ;
#91 = SURFACE_STYLE_FILL_AREA ( #202 ) ;
#92 = APPLICATION_PROTOCOL_DEFINITION ( 'draft international standard', 'automotive_design', 1998, #166 ) ;
#93 = EDGE_LOOP ( 'NONE', ( #51, #195, #33, #241 ) ) ;
#94 = ORIENTED_EDGE ( 'NONE', *, *, #313, .T. ) ;
#95 =( NAMED_UNIT ( * ) PLANE_ANGLE_UNIT ( ) SI_UNIT ( $, .RADIAN. ) );
#96 = EDGE_CURVE ( 'NONE', #305, #20, #194, .T. ) ;
#97 = DIRECTION ( 'NONE',  ( -1.000000000000000000, 0.0000000000000000000, 0.0000000000000000000 ) ) ;
#98 = CARTESIAN_POINT ( 'NONE',  ( -0.06243749999999994443, 7.650215473423623230E-18, 0.5000000000000000000 ) ) ;
#99 = CARTESIAN_POINT ( 'NONE',  ( 7.646388452176290456E-18, 0.0000000000000000000, 0.06243749999999999994 ) ) ;
#100 = CYLINDRICAL_SURFACE ( 'NONE', #298, 0.06243749999999999994 ) ;
#101 = AXIS2_PLACEMENT_3D ( 'NONE', #212, #135, #112 ) ;
#102 = PRODUCT_DEFINITION_CONTEXT ( 'detailed design', #166, 'design' ) ;
#103 = ORIENTED_EDGE ( 'NONE', *, *, #115, .F. ) ;
#104 = CARTESIAN_POINT ( 'NONE',  ( 6.127574818941430966E-17, 0.0000000000000000000, 0.5003544551137262264 ) ) ;
#105 = FACE_OUTER_BOUND ( 'NONE', #76, .T. ) ;
#106 = EDGE_CURVE ( 'NONE', #111, #117, #38, .T. ) ;
#107 = DIRECTION ( 'NONE',  ( 0.7071067811865462405, 8.659560562354916834E-17, -0.7071067811865486830 ) ) ;
#108 = DIRECTION ( 'NONE',  ( -0.0000000000000000000, -0.0000000000000000000, -1.000000000000000000 ) ) ;
#109 = CARTESIAN_POINT ( 'NONE',  ( 1.146958267826443414E-17, 0.0000000000000000000, 0.0000000000000000000 ) ) ;
#110 = CYLINDRICAL_SURFACE ( 'NONE', #61, 0.06250000000000002776 ) ;
#111 = VERTEX_POINT ( 'NONE', #230 ) ;
#112 = DIRECTION ( 'NONE',  ( 1.000000000000000000, 0.0000000000000000000, 0.0000000000000000000 ) ) ;
#113 = ORIENTED_EDGE ( 'NONE', *, *, #168, .F. ) ;
#114 = DIRECTION ( 'NONE',  ( 0.0000000000000000000, 0.0000000000000000000, 1.000000000000000000 ) ) ;
#115 = EDGE_CURVE ( 'NONE', #178, #117, #157, .T. ) ;
#116 = VECTOR ( 'NONE', #234, 39.37007874015748143 ) ;
#117 = VERTEX_POINT ( 'NONE', #158 ) ;
#118 = ORIENTED_EDGE ( 'NONE', *, *, #115, .T. ) ;
#119 = EDGE_LOOP ( 'NONE', ( #325, #113, #139, #73 ) ) ;
#120 = AXIS2_PLACEMENT_3D ( 'NONE', #144, #4, #224 ) ;
#121 = ORIENTED_EDGE ( 'NONE', *, *, #2, .F. ) ;
#122 = ORIENTED_EDGE ( 'NONE', *, *, #265, .F. ) ;
#123 = DIRECTION ( 'NONE',  ( -0.0000000000000000000, -0.0000000000000000000, -1.000000000000000000 ) ) ;
#124 = STYLED_ITEM ( 'NONE', ( #255 ), #60 ) ;
#125 = CIRCLE ( 'NONE', #232, 0.06250000000000002776 ) ;
#126 =( LENGTH_UNIT ( ) NAMED_UNIT ( * ) SI_UNIT ( $, .METRE. ) );
#127 = EDGE_CURVE ( 'NONE', #31, #178, #312, .T. ) ;
#128 = EDGE_CURVE ( 'NONE', #179, #301, #268, .T. ) ;
#129 = DIRECTION ( 'NONE',  ( 1.000000000000000000, 0.0000000000000000000, 0.0000000000000000000 ) ) ;
#130 = CARTESIAN_POINT ( 'NONE',  ( -0.06250000000000002776, 0.0000000000000000000, 1.500000000000000222 ) ) ;
#131 = AXIS2_PLACEMENT_3D ( 'NONE', #188, #294, #319 ) ;
#132 =( LENGTH_UNIT ( ) NAMED_UNIT ( * ) SI_UNIT ( $, .METRE. ) );
#133 = PRODUCT_DEFINITION_SHAPE ( 'NONE', 'NONE',  #299 ) ;
#134 = DIRECTION ( 'NONE',  ( -1.224646799147353700E-16, -0.0000000000000000000, -1.000000000000000000 ) ) ;
#135 = DIRECTION ( 'NONE',  ( 0.0000000000000000000, 1.000000000000000000, 0.0000000000000000000 ) ) ;
#136 = CIRCLE ( 'NONE', #226, 0.04750000000000064587 ) ;
#137 = DIRECTION ( 'NONE',  ( 0.0000000000000000000, 0.0000000000000000000, -1.000000000000000000 ) ) ;
#138 = PRODUCT ( 'Micro_BEM-125-04', 'Micro_BEM-125-04', '', ( #171 ) ) ;
#139 = ORIENTED_EDGE ( 'NONE', *, *, #303, .T. ) ;
#140 = CARTESIAN_POINT ( 'NONE',  ( -0.06243749999999994443, 7.646388452176287375E-18, 0.5000000000000000000 ) ) ;
#141 = CARTESIAN_POINT ( 'NONE',  ( 0.0000000000000000000, 0.0000000000000000000, 1.500000000000000222 ) ) ;
#142 = AXIS2_PLACEMENT_3D ( 'NONE', #253, #30, #46 ) ;
#143 = AXIS2_PLACEMENT_3D ( 'NONE', #277, #323, #251 ) ;
#144 = CARTESIAN_POINT ( 'NONE',  ( 6.127574818941430966E-17, 0.0000000000000000000, 0.5003544551137262264 ) ) ;
#145 = ORIENTED_EDGE ( 'NONE', *, *, #265, .T. ) ;
#146 = EDGE_CURVE ( 'NONE', #305, #228, #79, .T. ) ;
#147 = ADVANCED_FACE ( 'NONE', ( #105 ), #239, .T. ) ;
#148 = EDGE_LOOP ( 'NONE', ( #150, #196, #269, #176 ) ) ;
#149 = AXIS2_PLACEMENT_3D ( 'NONE', #65, #41, #163 ) ;
#150 = ORIENTED_EDGE ( 'NONE', *, *, #39, .F. ) ;
#151 = ORIENTED_EDGE ( 'NONE', *, *, #127, .F. ) ;
#152 = EDGE_CURVE ( 'NONE', #20, #117, #80, .T. ) ;
#153 = CARTESIAN_POINT ( 'NONE',  ( 6.123233995736768501E-17, 0.0000000000000000000, 0.5000000000000000000 ) ) ;
#154 = LENGTH_MEASURE_WITH_UNIT ( LENGTH_MEASURE( 0.02539999999999999897 ), #126 );
#155 = FILL_AREA_STYLE ('',( #37 ) ) ;
#156 = PRESENTATION_LAYER_ASSIGNMENT (  '', '', ( #124 ) ) ;
#157 = CIRCLE ( 'NONE', #318, 0.06250000000000002776 ) ;
#158 = CARTESIAN_POINT ( 'NONE',  ( -0.06249999999999996531, 0.0000000000000000000, 0.5003544551137262264 ) ) ;
#159 = DIRECTION ( 'NONE',  ( 1.000000000000000000, 0.0000000000000000000, 0.0000000000000000000 ) ) ;
#160 = DIRECTION ( 'NONE',  ( 1.000000000000000000, 0.0000000000000000000, 0.0000000000000000000 ) ) ;
#161 = AXIS2_PLACEMENT_3D ( 'NONE', #68, #90, #240 ) ;
#162 = AXIS2_PLACEMENT_3D ( 'NONE', #292, #295, #44 ) ;
#163 = DIRECTION ( 'NONE',  ( -1.000000000000000000, 0.0000000000000000000, 1.367291288120251888E-16 ) ) ;
#164 = PRODUCT_RELATED_PRODUCT_CATEGORY ( 'part', '', ( #138 ) ) ;
#165 = CARTESIAN_POINT ( 'NONE',  ( -0.06243749999999999301, 0.0000000000000000000, 0.06243750000000001382 ) ) ;
#166 = APPLICATION_CONTEXT ( 'automotive_design' ) ;
#167 = LINE ( 'NONE', #210, #24 ) ;
#168 = EDGE_CURVE ( 'NONE', #5, #304, #136, .T. ) ;
#169 = CIRCLE ( 'NONE', #186, 0.06250000000000002776 ) ;
#170 = CYLINDRICAL_SURFACE ( 'NONE', #131, 0.06250000000000002776 ) ;
#171 = PRODUCT_CONTEXT ( 'NONE', #288, 'mechanical' ) ;
#172 = ORIENTED_EDGE ( 'NONE', *, *, #96, .F. ) ;
#173 = FACE_OUTER_BOUND ( 'NONE', #93, .T. ) ;
#174 = ORIENTED_EDGE ( 'NONE', *, *, #127, .T. ) ;
#175 = LENGTH_MEASURE_WITH_UNIT ( LENGTH_MEASURE( 0.02539999999999999897 ), #308 );
#176 = ORIENTED_EDGE ( 'NONE', *, *, #303, .F. ) ;
#177 = UNCERTAINTY_MEASURE_WITH_UNIT (LENGTH_MEASURE( 1.000000000000000082E-05 ), #284, 'distance_accuracy_value', 'NONE');
#178 = VERTEX_POINT ( 'NONE', #219 ) ;
#179 = VERTEX_POINT ( 'NONE', #109 ) ;
#180 = ADVANCED_FACE ( 'NONE', ( #191 ), #316, .T. ) ;
#181 = ADVANCED_FACE ( 'NONE', ( #63 ), #110, .T. ) ;
#182 = CARTESIAN_POINT ( 'NONE',  ( 6.123233995736768501E-17, 0.0000000000000000000, 0.5000000000000000000 ) ) ;
#183 = FACE_OUTER_BOUND ( 'NONE', #1, .T. ) ;
#184 = DIRECTION ( 'NONE',  ( 1.224646799147353700E-16, 0.0000000000000000000, 1.000000000000000000 ) ) ;
#185 = SURFACE_STYLE_USAGE ( .BOTH. , #82 ) ;
#186 = AXIS2_PLACEMENT_3D ( 'NONE', #216, #137, #160 ) ;
#187 = DIRECTION ( 'NONE',  ( -0.7071067811865462405, 0.0000000000000000000, -0.7071067811865486830 ) ) ;
#188 = CARTESIAN_POINT ( 'NONE',  ( 0.0000000000000000000, 0.0000000000000000000, 1.500000000000000222 ) ) ;
#189 = ADVANCED_FACE ( 'NONE', ( #320 ), #170, .T. ) ;
#190 = STYLED_ITEM ( 'NONE', ( #220 ), #8 ) ;
#191 = FACE_OUTER_BOUND ( 'NONE', #263, .T. ) ;
#192 = DIRECTION ( 'NONE',  ( 0.0000000000000000000, 0.0000000000000000000, -1.000000000000000000 ) ) ;
#193 = CARTESIAN_POINT ( 'NONE',  ( 0.04750000000000064587, 6.735557395310483192E-18, 1.500000000000000222 ) ) ;
#194 = CIRCLE ( 'NONE', #18, 0.06243749999999999994 ) ;
#195 = ORIENTED_EDGE ( 'NONE', *, *, #146, .T. ) ;
#196 = ORIENTED_EDGE ( 'NONE', *, *, #87, .T. ) ;
#197 = DIRECTION ( 'NONE',  ( 1.224646799147353700E-16, 0.0000000000000000000, 1.000000000000000000 ) ) ;
#198 = EDGE_LOOP ( 'NONE', ( #250, #174, #121, #247 ) ) ;
#199 = ORIENTED_EDGE ( 'NONE', *, *, #146, .F. ) ;
#200 = CONICAL_SURFACE ( 'NONE', #280, 0.04750000000000064587, 0.7853981633974466137 ) ;
#201 = CARTESIAN_POINT ( 'NONE',  ( 0.06250000000000002776, 7.654042494670959086E-18, 1.485000000000000764 ) ) ;
#202 = FILL_AREA_STYLE ('',( #56 ) ) ;
#203 = FACE_OUTER_BOUND ( 'NONE', #119, .T. ) ;
#204 = DIRECTION ( 'NONE',  ( -1.000000000000000000, 1.224646799147353454E-16, 0.0000000000000000000 ) ) ;
#205 = CIRCLE ( 'NONE', #162, 0.06243749999999999994 ) ;
#206 = DIRECTION ( 'NONE',  ( 0.0000000000000000000, 1.000000000000000000, 0.0000000000000000000 ) ) ;
#207 = EDGE_LOOP ( 'NONE', ( #151, #94, #229, #103 ) ) ;
#208 = DIRECTION ( 'NONE',  ( -1.224646799147353700E-16, -0.0000000000000000000, -1.000000000000000000 ) ) ;
#209 = FACE_OUTER_BOUND ( 'NONE', #249, .T. ) ;
#210 = CARTESIAN_POINT ( 'NONE',  ( 0.06243750000000006239, 0.0000000000000000000, 0.5000000000000000000 ) ) ;
#211 = EDGE_CURVE ( 'NONE', #111, #31, #169, .T. ) ;
#212 = CARTESIAN_POINT ( 'NONE',  ( 7.646388452176290456E-18, 0.0000000000000000000, 0.06243749999999999994 ) ) ;
#213 = DIRECTION ( 'NONE',  ( 1.000000000000000000, 0.0000000000000000000, 0.0000000000000000000 ) ) ;
#214 =( GEOMETRIC_REPRESENTATION_CONTEXT ( 3 ) GLOBAL_UNCERTAINTY_ASSIGNED_CONTEXT ( ( #75 ) ) GLOBAL_UNIT_ASSIGNED_CONTEXT ( ( #227, #306, #50 ) ) REPRESENTATION_CONTEXT ( 'NONE', 'WORKASPACE' ) );
#215 = ORIENTED_EDGE ( 'NONE', *, *, #222, .T. ) ;
#216 = CARTESIAN_POINT ( 'NONE',  ( 0.0000000000000000000, 0.0000000000000000000, 1.485000000000000764 ) ) ;
#217 = DIMENSIONAL_EXPONENTS ( 1.000000000000000000, 0.0000000000000000000, 0.0000000000000000000, 0.0000000000000000000, 0.0000000000000000000, 0.0000000000000000000, 0.0000000000000000000 ) ;
#218 = ORIENTED_EDGE ( 'NONE', *, *, #40, .T. ) ;
#219 = CARTESIAN_POINT ( 'NONE',  ( 0.06250000000000008327, 7.654042494670966789E-18, 0.5003544551137262264 ) ) ;
#220 = PRESENTATION_STYLE_ASSIGNMENT (( #246 ) ) ;
#221 = DIRECTION ( 'NONE',  ( 0.0000000000000000000, 0.0000000000000000000, 1.000000000000000000 ) ) ;
#222 = EDGE_CURVE ( 'NONE', #179, #228, #205, .T. ) ;
#223 = DIRECTION ( 'NONE',  ( -1.224646799147353700E-16, -0.0000000000000000000, -1.000000000000000000 ) ) ;
#224 = DIRECTION ( 'NONE',  ( 1.000000000000000000, 0.0000000000000000000, 0.0000000000000000000 ) ) ;
#225 = CONICAL_SURFACE ( 'NONE', #267, 0.06243749999999999994, 0.1745329251994337527 ) ;
#226 = AXIS2_PLACEMENT_3D ( 'NONE', #43, #317, #13 ) ;
#227 =( CONVERSION_BASED_UNIT ( 'INCH', #175 ) LENGTH_UNIT ( ) NAMED_UNIT ( #217 ) );
#228 = VERTEX_POINT ( 'NONE', #88 ) ;
#229 = ORIENTED_EDGE ( 'NONE', *, *, #106, .T. ) ;
#230 = CARTESIAN_POINT ( 'NONE',  ( -0.06250000000000002776, 0.0000000000000000000, 1.485000000000000764 ) ) ;
#231 = AXIS2_PLACEMENT_3D ( 'NONE', #25, #223, #258 ) ;
#232 = AXIS2_PLACEMENT_3D ( 'NONE', #242, #192, #213 ) ;
#233 = SPHERICAL_SURFACE ( 'NONE', #12, 0.06243749999999999994 ) ;
#234 = DIRECTION ( 'NONE',  ( -0.0000000000000000000, -0.0000000000000000000, -1.000000000000000000 ) ) ;
#235 = CARTESIAN_POINT ( 'NONE',  ( 0.0000000000000000000, 0.0000000000000000000, 0.0000000000000000000 ) ) ;
#236 = EDGE_CURVE ( 'NONE', #228, #301, #281, .T. ) ;
#237 = DIRECTION ( 'NONE',  ( 1.000000000000000000, 0.0000000000000000000, 0.0000000000000000000 ) ) ;
#238 =( GEOMETRIC_REPRESENTATION_CONTEXT ( 3 ) GLOBAL_UNCERTAINTY_ASSIGNED_CONTEXT ( ( #52 ) ) GLOBAL_UNIT_ASSIGNED_CONTEXT ( ( #53, #95, #3 ) ) REPRESENTATION_CONTEXT ( 'NONE', 'WORKASPACE' ) );
#239 = SPHERICAL_SURFACE ( 'NONE', #101, 0.06243749999999999994 ) ;
#240 = DIRECTION ( 'NONE',  ( -1.000000000000000000, 0.0000000000000000000, 0.0000000000000000000 ) ) ;
#241 = ORIENTED_EDGE ( 'NONE', *, *, #274, .F. ) ;
#242 = CARTESIAN_POINT ( 'NONE',  ( 0.0000000000000000000, 0.0000000000000000000, 1.485000000000000764 ) ) ;
#243 = MECHANICAL_DESIGN_GEOMETRIC_PRESENTATION_REPRESENTATION (  '', ( #124 ), #286 ) ;
#244 = VECTOR ( 'NONE', #187, 39.37007874015748854 ) ;
#245 = ORIENTED_EDGE ( 'NONE', *, *, #2, .T. ) ;
#246 = SURFACE_STYLE_USAGE ( .BOTH. , #272 ) ;
#247 = ORIENTED_EDGE ( 'NONE', *, *, #106, .F. ) ;
#248 = AXIS2_PLACEMENT_3D ( 'NONE', #324, #197, #72 ) ;
#249 = EDGE_LOOP ( 'NONE', ( #278, #302, #74 ) ) ;
#250 = ORIENTED_EDGE ( 'NONE', *, *, #211, .T. ) ;
#251 = DIRECTION ( 'NONE',  ( 1.000000000000000000, 0.0000000000000000000, 0.0000000000000000000 ) ) ;
#252 = ORIENTED_EDGE ( 'NONE', *, *, #152, .T. ) ;
#253 = CARTESIAN_POINT ( 'NONE',  ( 0.0000000000000000000, 0.0000000000000000000, 1.500000000000000222 ) ) ;
#254 = CIRCLE ( 'NONE', #120, 0.06250000000000002776 ) ;
#255 = PRESENTATION_STYLE_ASSIGNMENT (( #185 ) ) ;
#256 = VECTOR ( 'NONE', #107, 39.37007874015748854 ) ;
#257 = CARTESIAN_POINT ( 'NONE',  ( 0.04750000000000064587, 5.817072295950006528E-18, 1.500000000000000222 ) ) ;
#258 = DIRECTION ( 'NONE',  ( -1.000000000000000000, 0.0000000000000000000, 1.224646799147353947E-16 ) ) ;
#259 = CARTESIAN_POINT ( 'NONE',  ( -0.06243749999999999994, 0.0000000000000000000, 7.646388452176290456E-18 ) ) ;
#260 = AXIS2_PLACEMENT_3D ( 'NONE', #141, #221, #23 ) ;
#261 = CONICAL_SURFACE ( 'NONE', #322, 0.06243749999999999994, 0.1745329251994337527 ) ;
#262 = DIRECTION ( 'NONE',  ( 1.224646799147353700E-16, 0.0000000000000000000, 1.000000000000000000 ) ) ;
#263 = EDGE_LOOP ( 'NONE', ( #296, #276 ) ) ;
#264 = LINE ( 'NONE', #15, #244 ) ;
#265 = EDGE_CURVE ( 'NONE', #305, #178, #167, .T. ) ;
#266 = DIRECTION ( 'NONE',  ( 0.1736481776669312471, 0.0000000000000000000, 0.9848077530122077983 ) ) ;
#267 = AXIS2_PLACEMENT_3D ( 'NONE', #153, #184, #129 ) ;
#268 = CIRCLE ( 'NONE', #314, 0.06243749999999999994 ) ;
#269 = ORIENTED_EDGE ( 'NONE', *, *, #211, .F. ) ;
#270 = CARTESIAN_POINT ( 'NONE',  ( 0.0000000000000000000, 0.0000000000000000000, 1.500000000000000222 ) ) ;
#271 = ADVANCED_FACE ( 'NONE', ( #17 ), #261, .T. ) ;
#272 = SURFACE_SIDE_STYLE ('',( #91 ) ) ;
#273 = CARTESIAN_POINT ( 'NONE',  ( -0.04750000000000064587, 0.0000000000000000000, 1.500000000000000222 ) ) ;
#274 = EDGE_CURVE ( 'NONE', #20, #301, #66, .T. ) ;
#275 = ORIENTED_EDGE ( 'NONE', *, *, #96, .T. ) ;
#276 = ORIENTED_EDGE ( 'NONE', *, *, #39, .T. ) ;
#277 = CARTESIAN_POINT ( 'NONE',  ( 0.0000000000000000000, 0.0000000000000000000, 0.0000000000000000000 ) ) ;
#278 = ORIENTED_EDGE ( 'NONE', *, *, #222, .F. ) ;
#279 = DIRECTION ( 'NONE',  ( 0.0000000000000000000, 0.0000000000000000000, -1.000000000000000000 ) ) ;
#280 = AXIS2_PLACEMENT_3D ( 'NONE', #309, #279, #97 ) ;
#281 = CIRCLE ( 'NONE', #149, 0.06243749999999999994 ) ;
#282 = DIRECTION ( 'NONE',  ( -1.224646799147353700E-16, -0.0000000000000000000, -1.000000000000000000 ) ) ;
#283 = EDGE_CURVE ( 'NONE', #20, #305, #29, .T. ) ;
#284 =( CONVERSION_BASED_UNIT ( 'INCH', #154 ) LENGTH_UNIT ( ) NAMED_UNIT ( #16 ) );
#285 = CARTESIAN_POINT ( 'NONE',  ( 0.06243749999999999994, 7.646388452176287375E-18, -7.646388452176290456E-18 ) ) ;
#286 =( GEOMETRIC_REPRESENTATION_CONTEXT ( 3 ) GLOBAL_UNCERTAINTY_ASSIGNED_CONTEXT ( ( #177 ) ) GLOBAL_UNIT_ASSIGNED_CONTEXT ( ( #284, #311, #32 ) ) REPRESENTATION_CONTEXT ( 'NONE', 'WORKASPACE' ) );
#287 = CARTESIAN_POINT ( 'NONE',  ( 7.646388452176290456E-18, 0.0000000000000000000, 0.06243749999999999994 ) ) ;
#288 = APPLICATION_CONTEXT ( 'automotive_design' ) ;
#289 = DIRECTION ( 'NONE',  ( 1.224646799147353207E-16, 1.000000000000000000, -0.0000000000000000000 ) ) ;
#290 = CLOSED_SHELL ( 'NONE', ( #89, #55, #62, #35, #181, #189, #180, #26, #271, #83, #147 ) ) ;
#291 = CIRCLE ( 'NONE', #260, 0.04750000000000064587 ) ;
#292 = CARTESIAN_POINT ( 'NONE',  ( 7.646388452176290456E-18, 0.0000000000000000000, 0.06243749999999999994 ) ) ;
#293 = MECHANICAL_DESIGN_GEOMETRIC_PRESENTATION_REPRESENTATION (  '', ( #190 ), #214 ) ;
#294 = DIRECTION ( 'NONE',  ( -0.0000000000000000000, -0.0000000000000000000, -1.000000000000000000 ) ) ;
#295 = DIRECTION ( 'NONE',  ( 0.0000000000000000000, -1.000000000000000000, 0.0000000000000000000 ) ) ;
#296 = ORIENTED_EDGE ( 'NONE', *, *, #168, .T. ) ;
#297 = CARTESIAN_POINT ( 'NONE',  ( 0.06243750000000006239, 0.0000000000000000000, 0.5000000000000000000 ) ) ;
#298 = AXIS2_PLACEMENT_3D ( 'NONE', #235, #34, #59 ) ;
#299 = PRODUCT_DEFINITION ( 'UNKNOWN', '', #7, #102 ) ;
#300 = EDGE_LOOP ( 'NONE', ( #6, #172, #145, #118 ) ) ;
#301 = VERTEX_POINT ( 'NONE', #165 ) ;
#302 = ORIENTED_EDGE ( 'NONE', *, *, #128, .T. ) ;
#303 = EDGE_CURVE ( 'NONE', #5, #111, #264, .T. ) ;
#304 = VERTEX_POINT ( 'NONE', #193 ) ;
#305 = VERTEX_POINT ( 'NONE', #297 ) ;
#306 =( NAMED_UNIT ( * ) PLANE_ANGLE_UNIT ( ) SI_UNIT ( $, .RADIAN. ) );
#307 = FACE_OUTER_BOUND ( 'NONE', #148, .T. ) ;
#308 =( LENGTH_UNIT ( ) NAMED_UNIT ( * ) SI_UNIT ( $, .METRE. ) );
#309 = CARTESIAN_POINT ( 'NONE',  ( 0.0000000000000000000, 0.0000000000000000000, 1.500000000000000222 ) ) ;
#310 = VECTOR ( 'NONE', #67, 39.37007874015748854 ) ;
#311 =( NAMED_UNIT ( * ) PLANE_ANGLE_UNIT ( ) SI_UNIT ( $, .RADIAN. ) );
#312 = LINE ( 'NONE', #58, #116 ) ;
#313 = EDGE_CURVE ( 'NONE', #31, #111, #125, .T. ) ;
#314 = AXIS2_PLACEMENT_3D ( 'NONE', #99, #289, #204 ) ;
#315 = DIRECTION ( 'NONE',  ( 1.000000000000000000, 0.0000000000000000000, 0.0000000000000000000 ) ) ;
#316 = PLANE ( 'NONE',  #64 ) ;
#317 = DIRECTION ( 'NONE',  ( 0.0000000000000000000, 0.0000000000000000000, 1.000000000000000000 ) ) ;
#318 = AXIS2_PLACEMENT_3D ( 'NONE', #104, #208, #237 ) ;
#319 = DIRECTION ( 'NONE',  ( -1.000000000000000000, 0.0000000000000000000, 0.0000000000000000000 ) ) ;
#320 = FACE_OUTER_BOUND ( 'NONE', #207, .T. ) ;
#321 = CONICAL_SURFACE ( 'NONE', #142, 0.04750000000000064587, 0.7853981633974466137 ) ;
#322 = AXIS2_PLACEMENT_3D ( 'NONE', #14, #262, #315 ) ;
#323 = DIRECTION ( 'NONE',  ( 0.0000000000000000000, 0.0000000000000000000, 1.000000000000000000 ) ) ;
#324 = CARTESIAN_POINT ( 'NONE',  ( 7.646388452176290456E-18, 0.0000000000000000000, 0.06243749999999999994 ) ) ;
#325 = ORIENTED_EDGE ( 'NONE', *, *, #87, .F. ) ;
ENDSEC;
END-ISO-10303-21;
