ISO-10303-21;
HEADER;
FILE_DESCRIPTION (( 'STEP AP214' ),
    '1' );
FILE_NAME ('Micro_GEMM-100-3X.STEP',
    '2021-09-01T21:53:34',
    ( '' ),
    ( '' ),
    'SwSTEP 2.0',
    'SolidWorks 2020',
    '' );
FILE_SCHEMA (( 'AUTOMOTIVE_DESIGN' ));
ENDSEC;

DATA;
#1 =( LENGTH_UNIT ( ) NAMED_UNIT ( * ) SI_UNIT ( $, .METRE. ) );
#2 = ORIENTED_EDGE ( 'NONE', *, *, #238, .T. ) ;
#3 = VERTEX_POINT ( 'NONE', #239 ) ;
#4 = LINE ( 'NONE', #72, #74 ) ;
#5 = ORIENTED_EDGE ( 'NONE', *, *, #284, .F. ) ;
#6 = ORIENTED_EDGE ( 'NONE', *, *, #56, .F. ) ;
#7 = STYLED_ITEM ( 'NONE', ( #160 ), #131 ) ;
#8 = CARTESIAN_POINT ( 'NONE',  ( 0.0000000000000000000, 0.0000000000000000000, 2.834646000000000665 ) ) ;
#9 = CYLINDRICAL_SURFACE ( 'NONE', #234, 0.1968504999999999838 ) ;
#10 = DIRECTION ( 'NONE',  ( -1.000000000000000000, 0.0000000000000000000, 0.0000000000000000000 ) ) ;
#11 = EDGE_CURVE ( 'NONE', #135, #31, #93, .T. ) ;
#12 = VECTOR ( 'NONE', #291, 39.37007874015748854 ) ;
#13 = CARTESIAN_POINT ( 'NONE',  ( 0.1818505000000002481, 2.318874837419510283E-17, 2.834646000000000665 ) ) ;
#14 = DIRECTION ( 'NONE',  ( 1.000000000000000000, 0.0000000000000000000, 0.0000000000000000000 ) ) ;
#15 = DIMENSIONAL_EXPONENTS ( 1.000000000000000000, 0.0000000000000000000, 0.0000000000000000000, 0.0000000000000000000, 0.0000000000000000000, 0.0000000000000000000, 0.0000000000000000000 ) ;
#16 = CARTESIAN_POINT ( 'NONE',  ( -0.1966536495000000273, 0.0000000000000000000, 2.408312624008205478E-17 ) ) ;
#17 = DIRECTION ( 'NONE',  ( 0.0000000000000000000, 0.0000000000000000000, -1.000000000000000000 ) ) ;
#18 = AXIS2_PLACEMENT_3D ( 'NONE', #192, #282, #146 ) ;
#19 = CIRCLE ( 'NONE', #222, 0.1966536494999999996 ) ;
#20 = DIRECTION ( 'NONE',  ( -0.0000000000000000000, -0.0000000000000000000, -1.000000000000000000 ) ) ;
#21 = PRODUCT_DEFINITION_FORMATION_WITH_SPECIFIED_SOURCE ( 'ANY', '', #216, .NOT_KNOWN. ) ;
#22 = DIRECTION ( 'NONE',  ( -0.1736481776669311916, 2.126576849575783316E-17, 0.9848077530122080203 ) ) ;
#23 = AXIS2_PLACEMENT_3D ( 'NONE', #156, #106, #292 ) ;
#24 = ORIENTED_EDGE ( 'NONE', *, *, #75, .T. ) ;
#25 =( CONVERSION_BASED_UNIT ( 'INCH', #228 ) LENGTH_UNIT ( ) NAMED_UNIT ( #15 ) );
#26 = ORIENTED_EDGE ( 'NONE', *, *, #174, .T. ) ;
#27 = DIRECTION ( 'NONE',  ( -1.224646799147353207E-16, -0.0000000000000000000, -1.000000000000000000 ) ) ;
#28 = ORIENTED_EDGE ( 'NONE', *, *, #56, .T. ) ;
#29 = AXIS2_PLACEMENT_3D ( 'NONE', #68, #69, #91 ) ;
#30 = LENGTH_MEASURE_WITH_UNIT ( LENGTH_MEASURE( 0.02539999999999999897 ), #1 );
#31 = VERTEX_POINT ( 'NONE', #104 ) ;
#32 = ORIENTED_EDGE ( 'NONE', *, *, #197, .F. ) ;
#33 = DIRECTION ( 'NONE',  ( 0.1736481776669313859, 0.0000000000000000000, 0.9848077530122077983 ) ) ;
#34 = AXIS2_PLACEMENT_3D ( 'NONE', #45, #295, #130 ) ;
#35 = CARTESIAN_POINT ( 'NONE',  ( -0.1966536494999999440, 2.409517985681882908E-17, 0.7480309999999998904 ) ) ;
#36 = AXIS2_PLACEMENT_3D ( 'NONE', #249, #134, #181 ) ;
#37 = SURFACE_SIDE_STYLE ('',( #241 ) ) ;
#38 = DIRECTION ( 'NONE',  ( 1.000000000000000000, 0.0000000000000000000, -0.0000000000000000000 ) ) ;
#39 = ADVANCED_FACE ( 'NONE', ( #100 ), #242, .T. ) ;
#40 = AXIS2_PLACEMENT_3D ( 'NONE', #173, #211, #14 ) ;
#41 = DIRECTION ( 'NONE',  ( -1.224646799147353207E-16, -0.0000000000000000000, -1.000000000000000000 ) ) ;
#42 = DIRECTION ( 'NONE',  ( 1.000000000000000000, 0.0000000000000000000, -0.0000000000000000000 ) ) ;
#43 =( NAMED_UNIT ( * ) SI_UNIT ( $, .STERADIAN. ) SOLID_ANGLE_UNIT ( ) );
#44 = EDGE_CURVE ( 'NONE', #232, #281, #79, .T. ) ;
#45 = CARTESIAN_POINT ( 'NONE',  ( 0.0000000000000000000, 0.0000000000000000000, 0.0000000000000000000 ) ) ;
#46 = DIRECTION ( 'NONE',  ( 1.000000000000000000, 0.0000000000000000000, 0.0000000000000000000 ) ) ;
#47 = APPLICATION_PROTOCOL_DEFINITION ( 'draft international standard', 'automotive_design', 1998, #187 ) ;
#48 = AXIS2_PLACEMENT_3D ( 'NONE', #193, #287, #265 ) ;
#49 = ADVANCED_FACE ( 'NONE', ( #150 ), #55, .T. ) ;
#50 = CARTESIAN_POINT ( 'NONE',  ( 0.0000000000000000000, 0.0000000000000000000, 2.819646000000000097 ) ) ;
#51 = PRODUCT_CONTEXT ( 'NONE', #187, 'mechanical' ) ;
#52 = CARTESIAN_POINT ( 'NONE',  ( 0.1968505000000000948, 2.410723347355561570E-17, 0.7491473946618323332 ) ) ;
#53 = ORIENTED_EDGE ( 'NONE', *, *, #201, .F. ) ;
#54 = ORIENTED_EDGE ( 'NONE', *, *, #11, .T. ) ;
#55 = CYLINDRICAL_SURFACE ( 'NONE', #90, 0.1968504999999999838 ) ;
#56 = EDGE_CURVE ( 'NONE', #116, #262, #19, .T. ) ;
#57 = CIRCLE ( 'NONE', #29, 0.1966536495000000273 ) ;
#58 = CARTESIAN_POINT ( 'NONE',  ( 0.0000000000000000000, 0.0000000000000000000, 0.0000000000000000000 ) ) ;
#59 = DIRECTION ( 'NONE',  ( -1.000000000000000000, 0.0000000000000000000, 0.0000000000000000000 ) ) ;
#60 = ORIENTED_EDGE ( 'NONE', *, *, #117, .T. ) ;
#61 =( GEOMETRIC_REPRESENTATION_CONTEXT ( 3 ) GLOBAL_UNCERTAINTY_ASSIGNED_CONTEXT ( ( #84 ) ) GLOBAL_UNIT_ASSIGNED_CONTEXT ( ( #25, #209, #189 ) ) REPRESENTATION_CONTEXT ( 'NONE', 'WORKASPACE' ) );
#62 = DIRECTION ( 'NONE',  ( 1.000000000000000000, 0.0000000000000000000, 0.0000000000000000000 ) ) ;
#63 =( LENGTH_UNIT ( ) NAMED_UNIT ( * ) SI_UNIT ( $, .METRE. ) );
#64 = DIRECTION ( 'NONE',  ( -1.000000000000000000, 0.0000000000000000000, 0.0000000000000000000 ) ) ;
#65 = FACE_OUTER_BOUND ( 'NONE', #95, .T. ) ;
#66 = AXIS2_PLACEMENT_3D ( 'NONE', #58, #149, #38 ) ;
#67 = CYLINDRICAL_SURFACE ( 'NONE', #34, 0.1966536495000000273 ) ;
#68 = CARTESIAN_POINT ( 'NONE',  ( 9.160737698129936696E-17, 0.0000000000000000000, 0.7480309999999998904 ) ) ;
#69 = DIRECTION ( 'NONE',  ( -1.224646799147353207E-16, -0.0000000000000000000, -1.000000000000000000 ) ) ;
#70 = CIRCLE ( 'NONE', #40, 0.1968504999999999838 ) ;
#71 = EDGE_LOOP ( 'NONE', ( #28, #190 ) ) ;
#72 = CARTESIAN_POINT ( 'NONE',  ( 0.1966536495000000273, 2.408312624008205478E-17, -2.408312624008205478E-17 ) ) ;
#73 = ORIENTED_EDGE ( 'NONE', *, *, #284, .T. ) ;
#74 = VECTOR ( 'NONE', #27, 39.37007874015748143 ) ;
#75 = EDGE_CURVE ( 'NONE', #3, #161, #215, .T. ) ;
#76 = EDGE_LOOP ( 'NONE', ( #164, #119, #53, #172 ) ) ;
#77 = DIRECTION ( 'NONE',  ( -0.0000000000000000000, -0.0000000000000000000, -1.000000000000000000 ) ) ;
#78 = CARTESIAN_POINT ( 'NONE',  ( -0.1966536494999999996, 0.0000000000000000000, 4.816625248016410340E-17 ) ) ;
#79 = LINE ( 'NONE', #198, #285 ) ;
#80 = DIRECTION ( 'NONE',  ( 1.000000000000000000, 0.0000000000000000000, 0.0000000000000000000 ) ) ;
#81 = EDGE_LOOP ( 'NONE', ( #235, #26, #60, #236 ) ) ;
#82 = VECTOR ( 'NONE', #22, 39.37007874015747433 ) ;
#83 = DIRECTION ( 'NONE',  ( -1.224646799147353207E-16, -0.0000000000000000000, -1.000000000000000000 ) ) ;
#84 = UNCERTAINTY_MEASURE_WITH_UNIT (LENGTH_MEASURE( 1.000000000000000082E-05 ), #25, 'distance_accuracy_value', 'NONE');
#85 = CARTESIAN_POINT ( 'NONE',  ( -0.1966536494999999440, 2.408312624008205478E-17, 0.7480309999999998904 ) ) ;
#86 = FACE_OUTER_BOUND ( 'NONE', #260, .T. ) ;
#87 = CARTESIAN_POINT ( 'NONE',  ( 0.0000000000000000000, 0.0000000000000000000, 2.834646000000000665 ) ) ;
#88 = DIRECTION ( 'NONE',  ( 1.000000000000000000, 0.0000000000000000000, 0.0000000000000000000 ) ) ;
#89 = VERTEX_POINT ( 'NONE', #35 ) ;
#90 = AXIS2_PLACEMENT_3D ( 'NONE', #283, #243, #10 ) ;
#91 = DIRECTION ( 'NONE',  ( -1.000000000000000000, 0.0000000000000000000, 0.0000000000000000000 ) ) ;
#92 = ORIENTED_EDGE ( 'NONE', *, *, #223, .T. ) ;
#93 = CIRCLE ( 'NONE', #246, 0.1818505000000002481 ) ;
#94 =( CONVERSION_BASED_UNIT ( 'INCH', #30 ) LENGTH_UNIT ( ) NAMED_UNIT ( #103 ) );
#95 = EDGE_LOOP ( 'NONE', ( #138, #73, #24, #96 ) ) ;
#96 = ORIENTED_EDGE ( 'NONE', *, *, #223, .F. ) ;
#97 = PRESENTATION_LAYER_ASSIGNMENT (  '', '', ( #7 ) ) ;
#98 = LINE ( 'NONE', #237, #203 ) ;
#99 = FILL_AREA_STYLE_COLOUR ( '', #207 ) ;
#100 = FACE_OUTER_BOUND ( 'NONE', #125, .T. ) ;
#101 = AXIS2_PLACEMENT_3D ( 'NONE', #87, #272, #62 ) ;
#102 = CARTESIAN_POINT ( 'NONE',  ( -0.1968504999999999838, 0.0000000000000000000, 2.834646000000000665 ) ) ;
#103 = DIMENSIONAL_EXPONENTS ( 1.000000000000000000, 0.0000000000000000000, 0.0000000000000000000, 0.0000000000000000000, 0.0000000000000000000, 0.0000000000000000000, 0.0000000000000000000 ) ;
#104 = CARTESIAN_POINT ( 'NONE',  ( -0.1818505000000002481, 0.0000000000000000000, 2.834646000000000665 ) ) ;
#105 = PRODUCT_RELATED_PRODUCT_CATEGORY ( 'part', '', ( #216 ) ) ;
#106 = DIRECTION ( 'NONE',  ( 0.0000000000000000000, 0.0000000000000000000, -1.000000000000000000 ) ) ;
#107 = AXIS2_PLACEMENT_3D ( 'NONE', #50, #231, #137 ) ;
#108 = PLANE ( 'NONE',  #163 ) ;
#109 = EDGE_CURVE ( 'NONE', #279, #89, #218, .T. ) ;
#110 = DIRECTION ( 'NONE',  ( 1.000000000000000000, 0.0000000000000000000, 0.0000000000000000000 ) ) ;
#111 = LINE ( 'NONE', #85, #82 ) ;
#112 = EDGE_CURVE ( 'NONE', #135, #232, #127, .T. ) ;
#113 = CIRCLE ( 'NONE', #184, 0.1968504999999999838 ) ;
#114 = EDGE_LOOP ( 'NONE', ( #159, #115, #2, #5 ) ) ;
#115 = ORIENTED_EDGE ( 'NONE', *, *, #183, .F. ) ;
#116 = VERTEX_POINT ( 'NONE', #78 ) ;
#117 = EDGE_CURVE ( 'NONE', #161, #281, #70, .T. ) ;
#118 =( NAMED_UNIT ( * ) SI_UNIT ( $, .STERADIAN. ) SOLID_ANGLE_UNIT ( ) );
#119 = ORIENTED_EDGE ( 'NONE', *, *, #112, .T. ) ;
#120 = FACE_OUTER_BOUND ( 'NONE', #81, .T. ) ;
#121 = CIRCLE ( 'NONE', #258, 0.1966536494999999996 ) ;
#122 = CARTESIAN_POINT ( 'NONE',  ( -0.1968504999999999006, 0.0000000000000000000, 0.7491473946618323332 ) ) ;
#123 = PRODUCT_DEFINITION ( 'UNKNOWN', '', #21, #255 ) ;
#124 = SURFACE_STYLE_USAGE ( .BOTH. , #37 ) ;
#125 = EDGE_LOOP ( 'NONE', ( #140, #208, #6, #162 ) ) ;
#126 = CONICAL_SURFACE ( 'NONE', #297, 0.1818505000000002481, 0.7853981633974312926 ) ;
#127 = LINE ( 'NONE', #219, #12 ) ;
#128 = FACE_OUTER_BOUND ( 'NONE', #256, .T. ) ;
#129 = DIRECTION ( 'NONE',  ( -1.224646799147353207E-16, -0.0000000000000000000, -1.000000000000000000 ) ) ;
#130 = DIRECTION ( 'NONE',  ( -1.000000000000000000, 0.0000000000000000000, 1.224646799147353207E-16 ) ) ;
#131 = ADVANCED_BREP_SHAPE_REPRESENTATION ( 'Micro_GEMM-100-3X', ( #165, #36 ), #61 ) ;
#132 = DIRECTION ( 'NONE',  ( -1.224646799147353207E-16, -0.0000000000000000000, -1.000000000000000000 ) ) ;
#133 = DIRECTION ( 'NONE',  ( 1.224646799147353207E-16, 0.0000000000000000000, 1.000000000000000000 ) ) ;
#134 = DIRECTION ( 'NONE',  ( 0.0000000000000000000, 0.0000000000000000000, 1.000000000000000000 ) ) ;
#135 = VERTEX_POINT ( 'NONE', #13 ) ;
#136 = UNCERTAINTY_MEASURE_WITH_UNIT (LENGTH_MEASURE( 1.000000000000000082E-05 ), #296, 'distance_accuracy_value', 'NONE');
#137 = DIRECTION ( 'NONE',  ( 1.000000000000000000, 0.0000000000000000000, 0.0000000000000000000 ) ) ;
#138 = ORIENTED_EDGE ( 'NONE', *, *, #44, .F. ) ;
#139 = CARTESIAN_POINT ( 'NONE',  ( 0.1966536495000001383, 0.0000000000000000000, 0.7480309999999998904 ) ) ;
#140 = ORIENTED_EDGE ( 'NONE', *, *, #298, .T. ) ;
#141 = AXIS2_PLACEMENT_3D ( 'NONE', #194, #263, #59 ) ;
#142 = SURFACE_STYLE_USAGE ( .BOTH. , #233 ) ;
#143 = ADVANCED_FACE ( 'NONE', ( #166 ), #144, .F. ) ;
#144 = PLANE ( 'NONE',  #66 ) ;
#145 = EDGE_CURVE ( 'NONE', #279, #281, #98, .T. ) ;
#146 = DIRECTION ( 'NONE',  ( 1.000000000000000000, 0.0000000000000000000, 0.0000000000000000000 ) ) ;
#147 = PRESENTATION_LAYER_ASSIGNMENT (  '', '', ( #212 ) ) ;
#148 = FILL_AREA_STYLE ('',( #99 ) ) ;
#149 = DIRECTION ( 'NONE',  ( 0.0000000000000000000, 0.0000000000000000000, 1.000000000000000000 ) ) ;
#150 = FACE_OUTER_BOUND ( 'NONE', #229, .T. ) ;
#151 = CONICAL_SURFACE ( 'NONE', #23, 0.1818505000000002481, 0.7853981633974312926 ) ;
#152 = DIRECTION ( 'NONE',  ( -0.7071067811865354713, 0.0000000000000000000, -0.7071067811865594521 ) ) ;
#153 = FACE_OUTER_BOUND ( 'NONE', #259, .T. ) ;
#154 = MECHANICAL_DESIGN_GEOMETRIC_PRESENTATION_REPRESENTATION (  '', ( #7 ), #213 ) ;
#155 = DIRECTION ( 'NONE',  ( -1.000000000000000000, 0.0000000000000000000, 0.0000000000000000000 ) ) ;
#156 = CARTESIAN_POINT ( 'NONE',  ( 0.0000000000000000000, 0.0000000000000000000, 2.834646000000000665 ) ) ;
#157 = ADVANCED_FACE ( 'NONE', ( #120 ), #286, .T. ) ;
#158 = CIRCLE ( 'NONE', #107, 0.1968504999999999838 ) ;
#159 = ORIENTED_EDGE ( 'NONE', *, *, #112, .F. ) ;
#160 = PRESENTATION_STYLE_ASSIGNMENT (( #142 ) ) ;
#161 = VERTEX_POINT ( 'NONE', #122 ) ;
#162 = ORIENTED_EDGE ( 'NONE', *, *, #268, .F. ) ;
#163 = AXIS2_PLACEMENT_3D ( 'NONE', #199, #244, #42 ) ;
#164 = ORIENTED_EDGE ( 'NONE', *, *, #11, .F. ) ;
#165 = MANIFOLD_SOLID_BREP ( 'Cut-Revolve1', #253 ) ;
#166 = FACE_OUTER_BOUND ( 'NONE', #71, .T. ) ;
#167 = DIRECTION ( 'NONE',  ( 0.0000000000000000000, 0.0000000000000000000, 1.000000000000000000 ) ) ;
#168 = CONICAL_SURFACE ( 'NONE', #251, 0.1966536495000000273, 0.1745329251994338915 ) ;
#169 = ADVANCED_FACE ( 'NONE', ( #65 ), #9, .T. ) ;
#170 = DIRECTION ( 'NONE',  ( -0.0000000000000000000, -0.0000000000000000000, -1.000000000000000000 ) ) ;
#171 = UNCERTAINTY_MEASURE_WITH_UNIT (LENGTH_MEASURE( 1.000000000000000082E-05 ), #94, 'distance_accuracy_value', 'NONE');
#172 = ORIENTED_EDGE ( 'NONE', *, *, #238, .F. ) ;
#173 = CARTESIAN_POINT ( 'NONE',  ( 9.174409589621918238E-17, 0.0000000000000000000, 0.7491473946618323332 ) ) ;
#174 = EDGE_CURVE ( 'NONE', #89, #161, #111, .T. ) ;
#175 = VECTOR ( 'NONE', #77, 39.37007874015748143 ) ;
#176 =( NAMED_UNIT ( * ) PLANE_ANGLE_UNIT ( ) SI_UNIT ( $, .RADIAN. ) );
#177 = CARTESIAN_POINT ( 'NONE',  ( 9.174409589621918238E-17, 0.0000000000000000000, 0.7491473946618323332 ) ) ;
#178 = LINE ( 'NONE', #16, #195 ) ;
#179 = CARTESIAN_POINT ( 'NONE',  ( 0.0000000000000000000, 0.0000000000000000000, 2.834646000000000665 ) ) ;
#180 = SHAPE_DEFINITION_REPRESENTATION ( #224, #131 ) ;
#181 = DIRECTION ( 'NONE',  ( 1.000000000000000000, 0.0000000000000000000, 0.0000000000000000000 ) ) ;
#182 = ORIENTED_EDGE ( 'NONE', *, *, #75, .F. ) ;
#183 = EDGE_CURVE ( 'NONE', #31, #135, #275, .T. ) ;
#184 = AXIS2_PLACEMENT_3D ( 'NONE', #177, #83, #46 ) ;
#185 = ORIENTED_EDGE ( 'NONE', *, *, #109, .T. ) ;
#186 = FILL_AREA_STYLE ('',( #205 ) ) ;
#187 = APPLICATION_CONTEXT ( 'automotive_design' ) ;
#188 = ORIENTED_EDGE ( 'NONE', *, *, #268, .T. ) ;
#189 =( NAMED_UNIT ( * ) SI_UNIT ( $, .STERADIAN. ) SOLID_ANGLE_UNIT ( ) );
#190 = ORIENTED_EDGE ( 'NONE', *, *, #197, .T. ) ;
#191 = MECHANICAL_DESIGN_GEOMETRIC_PRESENTATION_REPRESENTATION (  '', ( #212 ), #271 ) ;
#192 = CARTESIAN_POINT ( 'NONE',  ( 9.160737698129936696E-17, 0.0000000000000000000, 0.7480309999999998904 ) ) ;
#193 = CARTESIAN_POINT ( 'NONE',  ( 0.0000000000000000000, 0.0000000000000000000, 0.0000000000000000000 ) ) ;
#194 = CARTESIAN_POINT ( 'NONE',  ( 9.160737698129936696E-17, 0.0000000000000000000, 0.7480309999999998904 ) ) ;
#195 = VECTOR ( 'NONE', #132, 39.37007874015748143 ) ;
#196 = ORIENTED_EDGE ( 'NONE', *, *, #288, .F. ) ;
#197 = EDGE_CURVE ( 'NONE', #262, #116, #121, .T. ) ;
#198 = CARTESIAN_POINT ( 'NONE',  ( 0.1968504999999999838, 2.410723347355560646E-17, 2.834646000000000665 ) ) ;
#199 = CARTESIAN_POINT ( 'NONE',  ( 0.0000000000000000000, 0.0000000000000000000, 2.834646000000000665 ) ) ;
#200 = CARTESIAN_POINT ( 'NONE',  ( 0.0000000000000000000, 0.0000000000000000000, 2.834646000000000665 ) ) ;
#201 = EDGE_CURVE ( 'NONE', #3, #232, #293, .T. ) ;
#202 = LENGTH_MEASURE_WITH_UNIT ( LENGTH_MEASURE( 0.02539999999999999897 ), #63 );
#203 = VECTOR ( 'NONE', #33, 39.37007874015748143 ) ;
#204 = ADVANCED_FACE ( 'NONE', ( #267 ), #126, .T. ) ;
#205 = FILL_AREA_STYLE_COLOUR ( '', #227 ) ;
#206 = ORIENTED_EDGE ( 'NONE', *, *, #117, .F. ) ;
#207 = COLOUR_RGB ( '',0.7921568627450980005, 0.8196078431372548767, 0.9333333333333333481 ) ;
#208 = ORIENTED_EDGE ( 'NONE', *, *, #288, .T. ) ;
#209 =( NAMED_UNIT ( * ) PLANE_ANGLE_UNIT ( ) SI_UNIT ( $, .RADIAN. ) );
#210 = ORIENTED_EDGE ( 'NONE', *, *, #174, .F. ) ;
#211 = DIRECTION ( 'NONE',  ( -1.224646799147353207E-16, -0.0000000000000000000, -1.000000000000000000 ) ) ;
#212 = STYLED_ITEM ( 'NONE', ( #217 ), #165 ) ;
#213 =( GEOMETRIC_REPRESENTATION_CONTEXT ( 3 ) GLOBAL_UNCERTAINTY_ASSIGNED_CONTEXT ( ( #171 ) ) GLOBAL_UNIT_ASSIGNED_CONTEXT ( ( #94, #257, #118 ) ) REPRESENTATION_CONTEXT ( 'NONE', 'WORKASPACE' ) );
#214 = ADVANCED_FACE ( 'NONE', ( #153 ), #108, .T. ) ;
#215 = LINE ( 'NONE', #102, #175 ) ;
#216 = PRODUCT ( 'Micro_GEMM-100-3X', 'Micro_GEMM-100-3X', '', ( #51 ) ) ;
#217 = PRESENTATION_STYLE_ASSIGNMENT (( #124 ) ) ;
#218 = CIRCLE ( 'NONE', #141, 0.1966536495000000273 ) ;
#219 = CARTESIAN_POINT ( 'NONE',  ( 0.1818505000000002481, 2.227026327483460228E-17, 2.834646000000000665 ) ) ;
#220 = CARTESIAN_POINT ( 'NONE',  ( 9.160737698129936696E-17, 0.0000000000000000000, 0.7480309999999998904 ) ) ;
#221 = CARTESIAN_POINT ( 'NONE',  ( 0.0000000000000000000, 0.0000000000000000000, 2.819646000000000097 ) ) ;
#222 = AXIS2_PLACEMENT_3D ( 'NONE', #261, #41, #290 ) ;
#223 = EDGE_CURVE ( 'NONE', #281, #161, #113, .T. ) ;
#224 = PRODUCT_DEFINITION_SHAPE ( 'NONE', 'NONE',  #123 ) ;
#225 = FACE_OUTER_BOUND ( 'NONE', #114, .T. ) ;
#226 = ADVANCED_FACE ( 'NONE', ( #128 ), #168, .T. ) ;
#227 = COLOUR_RGB ( '',0.7921568627450980005, 0.8196078431372548767, 0.9333333333333333481 ) ;
#228 = LENGTH_MEASURE_WITH_UNIT ( LENGTH_MEASURE( 0.02539999999999999897 ), #280 );
#229 = EDGE_LOOP ( 'NONE', ( #254, #277, #206, #182 ) ) ;
#230 = ORIENTED_EDGE ( 'NONE', *, *, #109, .F. ) ;
#231 = DIRECTION ( 'NONE',  ( 0.0000000000000000000, 0.0000000000000000000, -1.000000000000000000 ) ) ;
#232 = VERTEX_POINT ( 'NONE', #269 ) ;
#233 = SURFACE_SIDE_STYLE ('',( #276 ) ) ;
#234 = AXIS2_PLACEMENT_3D ( 'NONE', #179, #20, #155 ) ;
#235 = ORIENTED_EDGE ( 'NONE', *, *, #298, .F. ) ;
#236 = ORIENTED_EDGE ( 'NONE', *, *, #145, .F. ) ;
#237 = CARTESIAN_POINT ( 'NONE',  ( 0.1966536495000001383, 0.0000000000000000000, 0.7480309999999998904 ) ) ;
#238 = EDGE_CURVE ( 'NONE', #31, #3, #248, .T. ) ;
#239 = CARTESIAN_POINT ( 'NONE',  ( -0.1968504999999999838, 0.0000000000000000000, 2.819646000000000097 ) ) ;
#240 = AXIS2_PLACEMENT_3D ( 'NONE', #221, #299, #110 ) ;
#241 = SURFACE_STYLE_FILL_AREA ( #148 ) ;
#242 = CYLINDRICAL_SURFACE ( 'NONE', #48, 0.1966536495000000273 ) ;
#243 = DIRECTION ( 'NONE',  ( -0.0000000000000000000, -0.0000000000000000000, -1.000000000000000000 ) ) ;
#244 = DIRECTION ( 'NONE',  ( 0.0000000000000000000, 0.0000000000000000000, 1.000000000000000000 ) ) ;
#245 = CARTESIAN_POINT ( 'NONE',  ( 0.1966536494999999996, 2.408312624008205170E-17, 3.791200677927629740E-33 ) ) ;
#246 = AXIS2_PLACEMENT_3D ( 'NONE', #8, #167, #80 ) ;
#247 = VECTOR ( 'NONE', #152, 39.37007874015748854 ) ;
#248 = LINE ( 'NONE', #266, #247 ) ;
#249 = CARTESIAN_POINT ( 'NONE',  ( 0.0000000000000000000, 0.0000000000000000000, 0.0000000000000000000 ) ) ;
#250 = APPLICATION_CONTEXT ( 'automotive_design' ) ;
#251 = AXIS2_PLACEMENT_3D ( 'NONE', #220, #133, #88 ) ;
#252 = ORIENTED_EDGE ( 'NONE', *, *, #145, .T. ) ;
#253 = CLOSED_SHELL ( 'NONE', ( #39, #157, #204, #49, #169, #214, #278, #226, #264, #143 ) ) ;
#254 = ORIENTED_EDGE ( 'NONE', *, *, #201, .T. ) ;
#255 = PRODUCT_DEFINITION_CONTEXT ( 'detailed design', #250, 'design' ) ;
#256 = EDGE_LOOP ( 'NONE', ( #210, #230, #252, #92 ) ) ;
#257 =( NAMED_UNIT ( * ) PLANE_ANGLE_UNIT ( ) SI_UNIT ( $, .RADIAN. ) );
#258 = AXIS2_PLACEMENT_3D ( 'NONE', #294, #129, #270 ) ;
#259 = EDGE_LOOP ( 'NONE', ( #274, #54 ) ) ;
#260 = EDGE_LOOP ( 'NONE', ( #196, #185, #188, #32 ) ) ;
#261 = CARTESIAN_POINT ( 'NONE',  ( 2.949332346337811403E-33, 0.0000000000000000000, 2.408312624008205170E-17 ) ) ;
#262 = VERTEX_POINT ( 'NONE', #245 ) ;
#263 = DIRECTION ( 'NONE',  ( -1.224646799147353207E-16, -0.0000000000000000000, -1.000000000000000000 ) ) ;
#264 = ADVANCED_FACE ( 'NONE', ( #86 ), #67, .T. ) ;
#265 = DIRECTION ( 'NONE',  ( -1.000000000000000000, 0.0000000000000000000, 1.224646799147353207E-16 ) ) ;
#266 = CARTESIAN_POINT ( 'NONE',  ( -0.1818505000000002481, 0.0000000000000000000, 2.834646000000000665 ) ) ;
#267 = FACE_OUTER_BOUND ( 'NONE', #76, .T. ) ;
#268 = EDGE_CURVE ( 'NONE', #89, #116, #178, .T. ) ;
#269 = CARTESIAN_POINT ( 'NONE',  ( 0.1968504999999999838, 2.410723347355560646E-17, 2.819646000000000097 ) ) ;
#270 = DIRECTION ( 'NONE',  ( -1.000000000000000000, 0.0000000000000000000, 1.224646799147353207E-16 ) ) ;
#271 =( GEOMETRIC_REPRESENTATION_CONTEXT ( 3 ) GLOBAL_UNCERTAINTY_ASSIGNED_CONTEXT ( ( #136 ) ) GLOBAL_UNIT_ASSIGNED_CONTEXT ( ( #296, #176, #43 ) ) REPRESENTATION_CONTEXT ( 'NONE', 'WORKASPACE' ) );
#272 = DIRECTION ( 'NONE',  ( 0.0000000000000000000, 0.0000000000000000000, 1.000000000000000000 ) ) ;
#273 = APPLICATION_PROTOCOL_DEFINITION ( 'draft international standard', 'automotive_design', 1998, #250 ) ;
#274 = ORIENTED_EDGE ( 'NONE', *, *, #183, .T. ) ;
#275 = CIRCLE ( 'NONE', #101, 0.1818505000000002481 ) ;
#276 = SURFACE_STYLE_FILL_AREA ( #186 ) ;
#277 = ORIENTED_EDGE ( 'NONE', *, *, #44, .T. ) ;
#278 = ADVANCED_FACE ( 'NONE', ( #225 ), #151, .T. ) ;
#279 = VERTEX_POINT ( 'NONE', #139 ) ;
#280 =( LENGTH_UNIT ( ) NAMED_UNIT ( * ) SI_UNIT ( $, .METRE. ) );
#281 = VERTEX_POINT ( 'NONE', #52 ) ;
#282 = DIRECTION ( 'NONE',  ( 1.224646799147353207E-16, 0.0000000000000000000, 1.000000000000000000 ) ) ;
#283 = CARTESIAN_POINT ( 'NONE',  ( 0.0000000000000000000, 0.0000000000000000000, 2.834646000000000665 ) ) ;
#284 = EDGE_CURVE ( 'NONE', #232, #3, #158, .T. ) ;
#285 = VECTOR ( 'NONE', #170, 39.37007874015748143 ) ;
#286 = CONICAL_SURFACE ( 'NONE', #18, 0.1966536495000000273, 0.1745329251994338915 ) ;
#287 = DIRECTION ( 'NONE',  ( -1.224646799147353207E-16, -0.0000000000000000000, -1.000000000000000000 ) ) ;
#288 = EDGE_CURVE ( 'NONE', #279, #262, #4, .T. ) ;
#289 = DIMENSIONAL_EXPONENTS ( 1.000000000000000000, 0.0000000000000000000, 0.0000000000000000000, 0.0000000000000000000, 0.0000000000000000000, 0.0000000000000000000, 0.0000000000000000000 ) ;
#290 = DIRECTION ( 'NONE',  ( -1.000000000000000000, 0.0000000000000000000, 1.224646799147353207E-16 ) ) ;
#291 = DIRECTION ( 'NONE',  ( 0.7071067811865354713, 8.659560562354783714E-17, -0.7071067811865594521 ) ) ;
#292 = DIRECTION ( 'NONE',  ( -1.000000000000000000, 0.0000000000000000000, 0.0000000000000000000 ) ) ;
#293 = CIRCLE ( 'NONE', #240, 0.1968504999999999838 ) ;
#294 = CARTESIAN_POINT ( 'NONE',  ( 2.949332346337811403E-33, 0.0000000000000000000, 2.408312624008205170E-17 ) ) ;
#295 = DIRECTION ( 'NONE',  ( -1.224646799147353207E-16, -0.0000000000000000000, -1.000000000000000000 ) ) ;
#296 =( CONVERSION_BASED_UNIT ( 'INCH', #202 ) LENGTH_UNIT ( ) NAMED_UNIT ( #289 ) );
#297 = AXIS2_PLACEMENT_3D ( 'NONE', #200, #17, #64 ) ;
#298 = EDGE_CURVE ( 'NONE', #89, #279, #57, .T. ) ;
#299 = DIRECTION ( 'NONE',  ( 0.0000000000000000000, 0.0000000000000000000, -1.000000000000000000 ) ) ;
ENDSEC;
END-ISO-10303-21;
