ISO-10303-21;
HEADER;
FILE_DESCRIPTION (( 'STEP AP214' ),
    '1' );
FILE_NAME ('Micro_GEMM-050-4X.STEP',
    '2021-09-01T21:39:14',
    ( '' ),
    ( '' ),
    'SwSTEP 2.0',
    'SolidWorks 2020',
    '' );
FILE_SCHEMA (( 'AUTOMOTIVE_DESIGN' ));
ENDSEC;

DATA;
#1 = CONICAL_SURFACE ( 'NONE', #277, 0.1031100000000002570, 0.7853981633974318477 ) ;
#2 = AXIS2_PLACEMENT_3D ( 'NONE', #102, #79, #245 ) ;
#3 = ORIENTED_EDGE ( 'NONE', *, *, #135, .T. ) ;
#4 = EDGE_LOOP ( 'NONE', ( #22, #263, #228, #65 ) ) ;
#5 = PRESENTATION_STYLE_ASSIGNMENT (( #212 ) ) ;
#6 = ORIENTED_EDGE ( 'NONE', *, *, #39, .F. ) ;
#7 = ADVANCED_FACE ( 'NONE', ( #192 ), #253, .T. ) ;
#8 =( CONVERSION_BASED_UNIT ( 'INCH', #50 ) LENGTH_UNIT ( ) NAMED_UNIT ( #66 ) );
#9 = DIRECTION ( 'NONE',  ( 1.000000000000000000, 0.0000000000000000000, 0.0000000000000000000 ) ) ;
#11 = DIRECTION ( 'NONE',  ( -0.0000000000000000000, -0.0000000000000000000, -1.000000000000000000 ) ) ;
#10 =( LENGTH_UNIT ( ) NAMED_UNIT ( * ) SI_UNIT ( $, .METRE. ) );
#12 = DIRECTION ( 'NONE',  ( -1.000000000000000000, 0.0000000000000000000, 1.224646799147353207E-16 ) ) ;
#14 = CARTESIAN_POINT ( 'NONE',  ( 0.0000000000000000000, 0.0000000000000000000, 2.244094000000000033 ) ) ;
#13 = CARTESIAN_POINT ( 'NONE',  ( 0.09832657499999998552, 1.204153253448721512E-17, 1.895600338963814870E-33 ) ) ;
#15 = DIRECTION ( 'NONE',  ( -1.000000000000000000, 0.0000000000000000000, 0.0000000000000000000 ) ) ;
#16 = CIRCLE ( 'NONE', #72, 0.09832657499999998552 ) ;
#17 = LINE ( 'NONE', #270, #295 ) ;
#18 = PRODUCT_RELATED_PRODUCT_CATEGORY ( 'part', '', ( #169 ) ) ;
#19 = AXIS2_PLACEMENT_3D ( 'NONE', #103, #251, #57 ) ;
#20 = ORIENTED_EDGE ( 'NONE', *, *, #112, .T. ) ;
#21 = DIRECTION ( 'NONE',  ( 0.0000000000000000000, 0.0000000000000000000, 1.000000000000000000 ) ) ;
#22 = ORIENTED_EDGE ( 'NONE', *, *, #152, .F. ) ;
#23 = PLANE ( 'NONE',  #64 ) ;
#24 = SHAPE_DEFINITION_REPRESENTATION ( #230, #162 ) ;
#25 = MANIFOLD_SOLID_BREP ( 'Cut-Revolve1', #227 ) ;
#26 = DIRECTION ( 'NONE',  ( 1.224646799147353207E-16, 0.0000000000000000000, 1.000000000000000000 ) ) ;
#27 =( GEOMETRIC_REPRESENTATION_CONTEXT ( 3 ) GLOBAL_UNCERTAINTY_ASSIGNED_CONTEXT ( ( #67 ) ) GLOBAL_UNIT_ASSIGNED_CONTEXT ( ( #271, #299, #254 ) ) REPRESENTATION_CONTEXT ( 'NONE', 'WORKASPACE' ) );
#28 = ORIENTED_EDGE ( 'NONE', *, *, #296, .T. ) ;
#29 = SURFACE_SIDE_STYLE ('',( #237 ) ) ;
#30 = EDGE_CURVE ( 'NONE', #159, #117, #116, .T. ) ;
#31 = ORIENTED_EDGE ( 'NONE', *, *, #73, .F. ) ;
#32 = AXIS2_PLACEMENT_3D ( 'NONE', #58, #218, #101 ) ;
#33 = CARTESIAN_POINT ( 'NONE',  ( 0.0000000000000000000, 0.0000000000000000000, 2.244094000000000033 ) ) ;
#34 = DIRECTION ( 'NONE',  ( -0.0000000000000000000, -0.0000000000000000000, -1.000000000000000000 ) ) ;
#35 = CIRCLE ( 'NONE', #45, 0.1181100000000000066 ) ;
#37 = CARTESIAN_POINT ( 'NONE',  ( 0.1181100000000000899, 1.446430334472940009E-17, 0.6240083785322699805 ) ) ;
#36 = CARTESIAN_POINT ( 'NONE',  ( -0.09832657499999990225, 1.204153253448721204E-17, 0.5118110000000000159 ) ) ;
#38 = CARTESIAN_POINT ( 'NONE',  ( 0.0000000000000000000, 0.0000000000000000000, 2.244094000000000033 ) ) ;
#39 = EDGE_CURVE ( 'NONE', #275, #262, #35, .T. ) ;
#40 = STYLED_ITEM ( 'NONE', ( #5 ), #25 ) ;
#41 = CARTESIAN_POINT ( 'NONE',  ( 0.0000000000000000000, 0.0000000000000000000, 2.244094000000000033 ) ) ;
#42 = COLOUR_RGB ( '',0.7921568627450980005, 0.8196078431372548767, 0.9333333333333333481 ) ;
#43 = ORIENTED_EDGE ( 'NONE', *, *, #250, .F. ) ;
#44 = EDGE_LOOP ( 'NONE', ( #215, #78, #3, #138 ) ) ;
#45 = AXIS2_PLACEMENT_3D ( 'NONE', #46, #145, #129 ) ;
#46 = CARTESIAN_POINT ( 'NONE',  ( 0.0000000000000000000, 0.0000000000000000000, 2.229093999999999465 ) ) ;
#47 = ADVANCED_FACE ( 'NONE', ( #104 ), #146, .F. ) ;
#49 = FILL_AREA_STYLE_COLOUR ( '', #42 ) ;
#48 = DIRECTION ( 'NONE',  ( -1.000000000000000000, 0.0000000000000000000, 1.224646799147353207E-16 ) ) ;
#51 =( CONVERSION_BASED_UNIT ( 'INCH', #166 ) LENGTH_UNIT ( ) NAMED_UNIT ( #206 ) );
#50 = LENGTH_MEASURE_WITH_UNIT ( LENGTH_MEASURE( 0.02539999999999999897 ), #214 );
#52 = AXIS2_PLACEMENT_3D ( 'NONE', #14, #114, #9 ) ;
#54 = ORIENTED_EDGE ( 'NONE', *, *, #165, .F. ) ;
#53 = LINE ( 'NONE', #36, #130 ) ;
#55 = CARTESIAN_POINT ( 'NONE',  ( 0.1031100000000002570, 1.354581824536888722E-17, 2.244094000000000033 ) ) ;
#56 = DIRECTION ( 'NONE',  ( -1.000000000000000000, 0.0000000000000000000, 0.0000000000000000000 ) ) ;
#57 = DIRECTION ( 'NONE',  ( -1.000000000000000000, 0.0000000000000000000, 0.0000000000000000000 ) ) ;
#58 = CARTESIAN_POINT ( 'NONE',  ( 7.641898634106744880E-17, 0.0000000000000000000, 0.6240083785322699805 ) ) ;
#59 = DIRECTION ( 'NONE',  ( 1.000000000000000000, 0.0000000000000000000, 0.0000000000000000000 ) ) ;
#60 = CARTESIAN_POINT ( 'NONE',  ( -0.1181100000000000066, 0.0000000000000000000, 2.244094000000000033 ) ) ;
#61 = EDGE_CURVE ( 'NONE', #93, #262, #171, .T. ) ;
#62 = DIRECTION ( 'NONE',  ( 1.000000000000000000, 0.0000000000000000000, -0.0000000000000000000 ) ) ;
#63 = DIRECTION ( 'NONE',  ( -1.000000000000000000, 0.0000000000000000000, 1.224646799147353207E-16 ) ) ;
#64 = AXIS2_PLACEMENT_3D ( 'NONE', #41, #151, #62 ) ;
#65 = ORIENTED_EDGE ( 'NONE', *, *, #224, .F. ) ;
#66 = DIMENSIONAL_EXPONENTS ( 1.000000000000000000, 0.0000000000000000000, 0.0000000000000000000, 0.0000000000000000000, 0.0000000000000000000, 0.0000000000000000000, 0.0000000000000000000 ) ;
#67 = UNCERTAINTY_MEASURE_WITH_UNIT (LENGTH_MEASURE( 1.000000000000000082E-05 ), #271, 'distance_accuracy_value', 'NONE');
#68 = VERTEX_POINT ( 'NONE', #37 ) ;
#69 = APPLICATION_PROTOCOL_DEFINITION ( 'draft international standard', 'automotive_design', 1998, #213 ) ;
#70 = AXIS2_PLACEMENT_3D ( 'NONE', #258, #168, #137 ) ;
#71 = CIRCLE ( 'NONE', #220, 0.1031100000000002570 ) ;
#72 = AXIS2_PLACEMENT_3D ( 'NONE', #86, #80, #12 ) ;
#73 = EDGE_CURVE ( 'NONE', #262, #275, #239, .T. ) ;
#74 = DIRECTION ( 'NONE',  ( 1.000000000000000000, 0.0000000000000000000, 0.0000000000000000000 ) ) ;
#75 = EDGE_LOOP ( 'NONE', ( #208, #281, #76, #115 ) ) ;
#76 = ORIENTED_EDGE ( 'NONE', *, *, #135, .F. ) ;
#78 = ORIENTED_EDGE ( 'NONE', *, *, #256, .T. ) ;
#77 = DIRECTION ( 'NONE',  ( 0.0000000000000000000, 0.0000000000000000000, 1.000000000000000000 ) ) ;
#80 = DIRECTION ( 'NONE',  ( -1.224646799147353207E-16, -0.0000000000000000000, -1.000000000000000000 ) ) ;
#79 = DIRECTION ( 'NONE',  ( 1.224646799147353207E-16, 0.0000000000000000000, 1.000000000000000000 ) ) ;
#82 = DIRECTION ( 'NONE',  ( 0.0000000000000000000, 0.0000000000000000000, 1.000000000000000000 ) ) ;
#81 = CARTESIAN_POINT ( 'NONE',  ( 0.0000000000000000000, 0.0000000000000000000, 0.0000000000000000000 ) ) ;
#83 = CARTESIAN_POINT ( 'NONE',  ( 6.267877029184060992E-17, 0.0000000000000000000, 0.5118110000000000159 ) ) ;
#84 = CARTESIAN_POINT ( 'NONE',  ( 7.641898634106744880E-17, 0.0000000000000000000, 0.6240083785322699805 ) ) ;
#85 = PRESENTATION_LAYER_ASSIGNMENT (  '', '', ( #40 ) ) ;
#86 = CARTESIAN_POINT ( 'NONE',  ( 1.474662427518848307E-33, 0.0000000000000000000, 1.204153253448721512E-17 ) ) ;
#87 = CARTESIAN_POINT ( 'NONE',  ( 1.474662427518848307E-33, 0.0000000000000000000, 1.204153253448721512E-17 ) ) ;
#88 = EDGE_LOOP ( 'NONE', ( #43, #241, #234, #6 ) ) ;
#89 = DIMENSIONAL_EXPONENTS ( 1.000000000000000000, 0.0000000000000000000, 0.0000000000000000000, 0.0000000000000000000, 0.0000000000000000000, 0.0000000000000000000, 0.0000000000000000000 ) ;
#90 = AXIS2_PLACEMENT_3D ( 'NONE', #87, #177, #63 ) ;
#91 = CIRCLE ( 'NONE', #90, 0.09832657499999998552 ) ;
#92 = ORIENTED_EDGE ( 'NONE', *, *, #165, .T. ) ;
#93 = VERTEX_POINT ( 'NONE', #126 ) ;
#94 = EDGE_LOOP ( 'NONE', ( #178, #210, #211, #298 ) ) ;
#96 = EDGE_LOOP ( 'NONE', ( #92, #236 ) ) ;
#95 =( NAMED_UNIT ( * ) PLANE_ANGLE_UNIT ( ) SI_UNIT ( $, .RADIAN. ) );
#97 = LINE ( 'NONE', #199, #264 ) ;
#99 = CYLINDRICAL_SURFACE ( 'NONE', #179, 0.09832657499999997164 ) ;
#98 = DIRECTION ( 'NONE',  ( -1.224646799147353207E-16, -0.0000000000000000000, -1.000000000000000000 ) ) ;
#100 = MECHANICAL_DESIGN_GEOMETRIC_PRESENTATION_REPRESENTATION (  '', ( #40 ), #202 ) ;
#101 = DIRECTION ( 'NONE',  ( 1.000000000000000000, 0.0000000000000000000, 0.0000000000000000000 ) ) ;
#103 = CARTESIAN_POINT ( 'NONE',  ( 0.0000000000000000000, 0.0000000000000000000, 2.244094000000000033 ) ) ;
#102 = CARTESIAN_POINT ( 'NONE',  ( 6.267877029184060992E-17, 0.0000000000000000000, 0.5118110000000000159 ) ) ;
#104 = FACE_OUTER_BOUND ( 'NONE', #96, .T. ) ;
#105 = FACE_OUTER_BOUND ( 'NONE', #75, .T. ) ;
#106 = CIRCLE ( 'NONE', #160, 0.1181100000000000066 ) ;
#107 = CONICAL_SURFACE ( 'NONE', #2, 0.09832657499999997164, 0.1745329251994339748 ) ;
#108 = CARTESIAN_POINT ( 'NONE',  ( -0.09832657499999998552, 0.0000000000000000000, 2.408306506897443024E-17 ) ) ;
#109 = AXIS2_PLACEMENT_3D ( 'NONE', #83, #197, #56 ) ;
#110 = ORIENTED_EDGE ( 'NONE', *, *, #112, .F. ) ;
#111 = VERTEX_POINT ( 'NONE', #272 ) ;
#112 = EDGE_CURVE ( 'NONE', #117, #154, #17, .T. ) ;
#114 = DIRECTION ( 'NONE',  ( 0.0000000000000000000, 0.0000000000000000000, 1.000000000000000000 ) ) ;
#113 = CARTESIAN_POINT ( 'NONE',  ( 0.0000000000000000000, 0.0000000000000000000, 0.0000000000000000000 ) ) ;
#115 = ORIENTED_EDGE ( 'NONE', *, *, #255, .F. ) ;
#116 = CIRCLE ( 'NONE', #70, 0.09832657499999997164 ) ;
#117 = VERTEX_POINT ( 'NONE', #150 ) ;
#118 = EDGE_LOOP ( 'NONE', ( #139, #164, #31, #136 ) ) ;
#119 = VECTOR ( 'NONE', #252, 39.37007874015748143 ) ;
#120 = APPLICATION_PROTOCOL_DEFINITION ( 'draft international standard', 'automotive_design', 1998, #134 ) ;
#122 = CARTESIAN_POINT ( 'NONE',  ( 0.0000000000000000000, 0.0000000000000000000, 2.229093999999999465 ) ) ;
#121 = PRESENTATION_STYLE_ASSIGNMENT (( #243 ) ) ;
#124 = FACE_OUTER_BOUND ( 'NONE', #4, .T. ) ;
#123 =( NAMED_UNIT ( * ) SI_UNIT ( $, .STERADIAN. ) SOLID_ANGLE_UNIT ( ) );
#125 = AXIS2_PLACEMENT_3D ( 'NONE', #122, #287, #59 ) ;
#126 = CARTESIAN_POINT ( 'NONE',  ( -0.1031100000000002570, 0.0000000000000000000, 2.244094000000000033 ) ) ;
#127 = LINE ( 'NONE', #60, #290 ) ;
#128 = LINE ( 'NONE', #273, #143 ) ;
#129 = DIRECTION ( 'NONE',  ( 1.000000000000000000, 0.0000000000000000000, 0.0000000000000000000 ) ) ;
#130 = VECTOR ( 'NONE', #163, 39.37007874015748143 ) ;
#131 = STYLED_ITEM ( 'NONE', ( #121 ), #162 ) ;
#132 = AXIS2_PLACEMENT_3D ( 'NONE', #260, #26, #74 ) ;
#133 = ORIENTED_EDGE ( 'NONE', *, *, #191, .F. ) ;
#134 = APPLICATION_CONTEXT ( 'automotive_design' ) ;
#135 = EDGE_CURVE ( 'NONE', #111, #68, #106, .T. ) ;
#136 = ORIENTED_EDGE ( 'NONE', *, *, #61, .F. ) ;
#137 = DIRECTION ( 'NONE',  ( -1.000000000000000000, 0.0000000000000000000, 0.0000000000000000000 ) ) ;
#138 = ORIENTED_EDGE ( 'NONE', *, *, #140, .F. ) ;
#139 = ORIENTED_EDGE ( 'NONE', *, *, #203, .F. ) ;
#140 = EDGE_CURVE ( 'NONE', #159, #68, #274, .T. ) ;
#141 = ADVANCED_FACE ( 'NONE', ( #124 ), #288, .T. ) ;
#142 =( NAMED_UNIT ( * ) PLANE_ANGLE_UNIT ( ) SI_UNIT ( $, .RADIAN. ) );
#143 = VECTOR ( 'NONE', #11, 39.37007874015748143 ) ;
#145 = DIRECTION ( 'NONE',  ( 0.0000000000000000000, 0.0000000000000000000, -1.000000000000000000 ) ) ;
#144 = FACE_OUTER_BOUND ( 'NONE', #207, .T. ) ;
#146 = PLANE ( 'NONE',  #276 ) ;
#147 = LINE ( 'NONE', #285, #183 ) ;
#148 = DIRECTION ( 'NONE',  ( 1.000000000000000000, 0.0000000000000000000, 0.0000000000000000000 ) ) ;
#149 = DIRECTION ( 'NONE',  ( -0.0000000000000000000, -0.0000000000000000000, -1.000000000000000000 ) ) ;
#150 = CARTESIAN_POINT ( 'NONE',  ( -0.09832657499999990225, 1.325291793960830067E-17, 0.5118110000000000159 ) ) ;
#151 = DIRECTION ( 'NONE',  ( 0.0000000000000000000, 0.0000000000000000000, 1.000000000000000000 ) ) ;
#152 = EDGE_CURVE ( 'NONE', #275, #68, #128, .T. ) ;
#153 = FACE_OUTER_BOUND ( 'NONE', #88, .T. ) ;
#154 = VERTEX_POINT ( 'NONE', #108 ) ;
#155 = ADVANCED_FACE ( 'NONE', ( #222 ), #1, .T. ) ;
#156 = UNCERTAINTY_MEASURE_WITH_UNIT (LENGTH_MEASURE( 1.000000000000000082E-05 ), #51, 'distance_accuracy_value', 'NONE');
#157 = CIRCLE ( 'NONE', #32, 0.1181100000000000066 ) ;
#158 = DIRECTION ( 'NONE',  ( -1.000000000000000000, 0.0000000000000000000, 0.0000000000000000000 ) ) ;
#159 = VERTEX_POINT ( 'NONE', #294 ) ;
#160 = AXIS2_PLACEMENT_3D ( 'NONE', #84, #200, #148 ) ;
#161 = VERTEX_POINT ( 'NONE', #55 ) ;
#162 = ADVANCED_BREP_SHAPE_REPRESENTATION ( 'Micro_GEMM-050-4X', ( #25, #259 ), #292 ) ;
#164 = ORIENTED_EDGE ( 'NONE', *, *, #250, .T. ) ;
#163 = DIRECTION ( 'NONE',  ( -0.1736481776669312471, 2.126576849575783933E-17, 0.9848077530122077983 ) ) ;
#165 = EDGE_CURVE ( 'NONE', #154, #278, #91, .T. ) ;
#166 = LENGTH_MEASURE_WITH_UNIT ( LENGTH_MEASURE( 0.02539999999999999897 ), #268 );
#168 = DIRECTION ( 'NONE',  ( -1.224646799147353207E-16, -0.0000000000000000000, -1.000000000000000000 ) ) ;
#167 = SURFACE_STYLE_FILL_AREA ( #284 ) ;
#169 = PRODUCT ( 'Micro_GEMM-050-4X', 'Micro_GEMM-050-4X', '', ( #181 ) ) ;
#171 = LINE ( 'NONE', #248, #174 ) ;
#170 = LENGTH_MEASURE_WITH_UNIT ( LENGTH_MEASURE( 0.02539999999999999897 ), #10 );
#172 = DIRECTION ( 'NONE',  ( -1.224646799147353207E-16, -0.0000000000000000000, -1.000000000000000000 ) ) ;
#173 = DIRECTION ( 'NONE',  ( -0.7071067811865358044, 0.0000000000000000000, -0.7071067811865590080 ) ) ;
#174 = VECTOR ( 'NONE', #173, 39.37007874015748854 ) ;
#175 = PRODUCT_DEFINITION ( 'UNKNOWN', '', #265, #257 ) ;
#176 = ADVANCED_FACE ( 'NONE', ( #105 ), #244, .T. ) ;
#177 = DIRECTION ( 'NONE',  ( -1.224646799147353207E-16, -0.0000000000000000000, -1.000000000000000000 ) ) ;
#178 = ORIENTED_EDGE ( 'NONE', *, *, #256, .F. ) ;
#179 = AXIS2_PLACEMENT_3D ( 'NONE', #201, #195, #291 ) ;
#180 = ORIENTED_EDGE ( 'NONE', *, *, #232, .T. ) ;
#181 = PRODUCT_CONTEXT ( 'NONE', #134, 'mechanical' ) ;
#182 = CONICAL_SURFACE ( 'NONE', #242, 0.1031100000000002570, 0.7853981633974318477 ) ;
#183 = VECTOR ( 'NONE', #249, 39.37007874015748854 ) ;
#184 = ORIENTED_EDGE ( 'NONE', *, *, #233, .F. ) ;
#185 = DIRECTION ( 'NONE',  ( 0.0000000000000000000, 0.0000000000000000000, -1.000000000000000000 ) ) ;
#186 = ADVANCED_FACE ( 'NONE', ( #219 ), #99, .T. ) ;
#187 = ORIENTED_EDGE ( 'NONE', *, *, #233, .T. ) ;
#188 = MECHANICAL_DESIGN_GEOMETRIC_PRESENTATION_REPRESENTATION (  '', ( #131 ), #27 ) ;
#190 = ORIENTED_EDGE ( 'NONE', *, *, #203, .T. ) ;
#189 = DIRECTION ( 'NONE',  ( 1.000000000000000000, 0.0000000000000000000, 0.0000000000000000000 ) ) ;
#191 = EDGE_CURVE ( 'NONE', #278, #154, #16, .T. ) ;
#192 = FACE_OUTER_BOUND ( 'NONE', #44, .T. ) ;
#193 = FILL_AREA_STYLE_COLOUR ( '', #196 ) ;
#195 = DIRECTION ( 'NONE',  ( -1.224646799147353207E-16, -0.0000000000000000000, -1.000000000000000000 ) ) ;
#194 = CARTESIAN_POINT ( 'NONE',  ( -0.1181100000000000066, 0.0000000000000000000, 2.229093999999999465 ) ) ;
#196 = COLOUR_RGB ( '',0.7921568627450980005, 0.8196078431372548767, 0.9333333333333333481 ) ;
#197 = DIRECTION ( 'NONE',  ( -1.224646799147353207E-16, -0.0000000000000000000, -1.000000000000000000 ) ) ;
#198 = CARTESIAN_POINT ( 'NONE',  ( 0.0000000000000000000, 0.0000000000000000000, 0.0000000000000000000 ) ) ;
#199 = CARTESIAN_POINT ( 'NONE',  ( 0.09832657499999997164, 1.204153253448721204E-17, -1.204153253448721204E-17 ) ) ;
#200 = DIRECTION ( 'NONE',  ( -1.224646799147353207E-16, -0.0000000000000000000, -1.000000000000000000 ) ) ;
#201 = CARTESIAN_POINT ( 'NONE',  ( 0.0000000000000000000, 0.0000000000000000000, 0.0000000000000000000 ) ) ;
#202 =( GEOMETRIC_REPRESENTATION_CONTEXT ( 3 ) GLOBAL_UNCERTAINTY_ASSIGNED_CONTEXT ( ( #156 ) ) GLOBAL_UNIT_ASSIGNED_CONTEXT ( ( #51, #142, #216 ) ) REPRESENTATION_CONTEXT ( 'NONE', 'WORKASPACE' ) );
#203 = EDGE_CURVE ( 'NONE', #161, #93, #235, .T. ) ;
#204 = AXIS2_PLACEMENT_3D ( 'NONE', #33, #34, #217 ) ;
#205 = DIRECTION ( 'NONE',  ( 0.0000000000000000000, 0.0000000000000000000, -1.000000000000000000 ) ) ;
#206 = DIMENSIONAL_EXPONENTS ( 1.000000000000000000, 0.0000000000000000000, 0.0000000000000000000, 0.0000000000000000000, 0.0000000000000000000, 0.0000000000000000000, 0.0000000000000000000 ) ;
#207 = EDGE_LOOP ( 'NONE', ( #180, #187, #54, #110 ) ) ;
#208 = ORIENTED_EDGE ( 'NONE', *, *, #73, .T. ) ;
#209 = ADVANCED_FACE ( 'NONE', ( #293 ), #23, .T. ) ;
#210 = ORIENTED_EDGE ( 'NONE', *, *, #30, .F. ) ;
#211 = ORIENTED_EDGE ( 'NONE', *, *, #140, .T. ) ;
#212 = SURFACE_STYLE_USAGE ( .BOTH. , #29 ) ;
#213 = APPLICATION_CONTEXT ( 'automotive_design' ) ;
#215 = ORIENTED_EDGE ( 'NONE', *, *, #232, .F. ) ;
#214 =( LENGTH_UNIT ( ) NAMED_UNIT ( * ) SI_UNIT ( $, .METRE. ) );
#216 =( NAMED_UNIT ( * ) SI_UNIT ( $, .STERADIAN. ) SOLID_ANGLE_UNIT ( ) );
#217 = DIRECTION ( 'NONE',  ( -1.000000000000000000, 0.0000000000000000000, 0.0000000000000000000 ) ) ;
#218 = DIRECTION ( 'NONE',  ( -1.224646799147353207E-16, -0.0000000000000000000, -1.000000000000000000 ) ) ;
#219 = FACE_OUTER_BOUND ( 'NONE', #280, .T. ) ;
#220 = AXIS2_PLACEMENT_3D ( 'NONE', #221, #77, #189 ) ;
#222 = FACE_OUTER_BOUND ( 'NONE', #118, .T. ) ;
#221 = CARTESIAN_POINT ( 'NONE',  ( 0.0000000000000000000, 0.0000000000000000000, 2.244094000000000033 ) ) ;
#223 = ADVANCED_FACE ( 'NONE', ( #153 ), #182, .T. ) ;
#224 = EDGE_CURVE ( 'NONE', #68, #111, #157, .T. ) ;
#225 = DIRECTION ( 'NONE',  ( 1.000000000000000000, 0.0000000000000000000, -0.0000000000000000000 ) ) ;
#226 = CIRCLE ( 'NONE', #109, 0.09832657499999997164 ) ;
#227 = CLOSED_SHELL ( 'NONE', ( #266, #7, #155, #176, #141, #209, #223, #283, #186, #47 ) ) ;
#228 = ORIENTED_EDGE ( 'NONE', *, *, #255, .T. ) ;
#229 = EDGE_LOOP ( 'NONE', ( #28, #190 ) ) ;
#230 = PRODUCT_DEFINITION_SHAPE ( 'NONE', 'NONE',  #175 ) ;
#231 = DIRECTION ( 'NONE',  ( 1.000000000000000000, 0.0000000000000000000, 0.0000000000000000000 ) ) ;
#232 = EDGE_CURVE ( 'NONE', #117, #159, #226, .T. ) ;
#233 = EDGE_CURVE ( 'NONE', #159, #278, #97, .T. ) ;
#234 = ORIENTED_EDGE ( 'NONE', *, *, #61, .T. ) ;
#235 = CIRCLE ( 'NONE', #52, 0.1031100000000002570 ) ;
#236 = ORIENTED_EDGE ( 'NONE', *, *, #191, .T. ) ;
#237 = SURFACE_STYLE_FILL_AREA ( #282 ) ;
#238 = ORIENTED_EDGE ( 'NONE', *, *, #30, .T. ) ;
#239 = CIRCLE ( 'NONE', #125, 0.1181100000000000066 ) ;
#240 = PRESENTATION_LAYER_ASSIGNMENT (  '', '', ( #131 ) ) ;
#241 = ORIENTED_EDGE ( 'NONE', *, *, #296, .F. ) ;
#242 = AXIS2_PLACEMENT_3D ( 'NONE', #279, #185, #158 ) ;
#244 = CYLINDRICAL_SURFACE ( 'NONE', #204, 0.1181100000000000066 ) ;
#243 = SURFACE_STYLE_USAGE ( .BOTH. , #267 ) ;
#246 = DIRECTION ( 'NONE',  ( -1.224646799147353207E-16, -0.0000000000000000000, -1.000000000000000000 ) ) ;
#245 = DIRECTION ( 'NONE',  ( 1.000000000000000000, 0.0000000000000000000, 0.0000000000000000000 ) ) ;
#248 = CARTESIAN_POINT ( 'NONE',  ( -0.1031100000000002570, 0.0000000000000000000, 2.244094000000000033 ) ) ;
#247 = FACE_OUTER_BOUND ( 'NONE', #94, .T. ) ;
#249 = DIRECTION ( 'NONE',  ( 0.7071067811865358044, 8.659560562354788645E-17, -0.7071067811865590080 ) ) ;
#250 = EDGE_CURVE ( 'NONE', #161, #275, #147, .T. ) ;
#251 = DIRECTION ( 'NONE',  ( -0.0000000000000000000, -0.0000000000000000000, -1.000000000000000000 ) ) ;
#252 = DIRECTION ( 'NONE',  ( 0.1736481776669314692, 0.0000000000000000000, 0.9848077530122077983 ) ) ;
#253 = CONICAL_SURFACE ( 'NONE', #132, 0.09832657499999997164, 0.1745329251994339748 ) ;
#254 =( NAMED_UNIT ( * ) SI_UNIT ( $, .STERADIAN. ) SOLID_ANGLE_UNIT ( ) );
#255 = EDGE_CURVE ( 'NONE', #262, #111, #127, .T. ) ;
#256 = EDGE_CURVE ( 'NONE', #117, #111, #53, .T. ) ;
#257 = PRODUCT_DEFINITION_CONTEXT ( 'detailed design', #213, 'design' ) ;
#258 = CARTESIAN_POINT ( 'NONE',  ( 6.267877029184060992E-17, 0.0000000000000000000, 0.5118110000000000159 ) ) ;
#259 = AXIS2_PLACEMENT_3D ( 'NONE', #113, #21, #231 ) ;
#260 = CARTESIAN_POINT ( 'NONE',  ( 6.267877029184060992E-17, 0.0000000000000000000, 0.5118110000000000159 ) ) ;
#262 = VERTEX_POINT ( 'NONE', #194 ) ;
#261 = CYLINDRICAL_SURFACE ( 'NONE', #269, 0.09832657499999997164 ) ;
#263 = ORIENTED_EDGE ( 'NONE', *, *, #39, .T. ) ;
#264 = VECTOR ( 'NONE', #172, 39.37007874015748143 ) ;
#265 = PRODUCT_DEFINITION_FORMATION_WITH_SPECIFIED_SOURCE ( 'ANY', '', #169, .NOT_KNOWN. ) ;
#266 = ADVANCED_FACE ( 'NONE', ( #144 ), #261, .T. ) ;
#268 =( LENGTH_UNIT ( ) NAMED_UNIT ( * ) SI_UNIT ( $, .METRE. ) );
#267 = SURFACE_SIDE_STYLE ('',( #167 ) ) ;
#269 = AXIS2_PLACEMENT_3D ( 'NONE', #81, #98, #48 ) ;
#270 = CARTESIAN_POINT ( 'NONE',  ( -0.09832657499999997164, 0.0000000000000000000, 1.204153253448721204E-17 ) ) ;
#272 = CARTESIAN_POINT ( 'NONE',  ( -0.1181099999999999373, 0.0000000000000000000, 0.6240083785322699805 ) ) ;
#271 =( CONVERSION_BASED_UNIT ( 'INCH', #170 ) LENGTH_UNIT ( ) NAMED_UNIT ( #89 ) );
#273 = CARTESIAN_POINT ( 'NONE',  ( 0.1181100000000000066, 1.446430334472939084E-17, 2.244094000000000033 ) ) ;
#274 = LINE ( 'NONE', #289, #119 ) ;
#275 = VERTEX_POINT ( 'NONE', #286 ) ;
#276 = AXIS2_PLACEMENT_3D ( 'NONE', #198, #82, #225 ) ;
#277 = AXIS2_PLACEMENT_3D ( 'NONE', #38, #205, #15 ) ;
#278 = VERTEX_POINT ( 'NONE', #13 ) ;
#279 = CARTESIAN_POINT ( 'NONE',  ( 0.0000000000000000000, 0.0000000000000000000, 2.244094000000000033 ) ) ;
#280 = EDGE_LOOP ( 'NONE', ( #184, #238, #20, #133 ) ) ;
#281 = ORIENTED_EDGE ( 'NONE', *, *, #152, .T. ) ;
#282 = FILL_AREA_STYLE ('',( #49 ) ) ;
#283 = ADVANCED_FACE ( 'NONE', ( #247 ), #107, .T. ) ;
#284 = FILL_AREA_STYLE ('',( #193 ) ) ;
#285 = CARTESIAN_POINT ( 'NONE',  ( 0.1031100000000002570, 1.262733314600838667E-17, 2.244094000000000033 ) ) ;
#287 = DIRECTION ( 'NONE',  ( 0.0000000000000000000, 0.0000000000000000000, -1.000000000000000000 ) ) ;
#286 = CARTESIAN_POINT ( 'NONE',  ( 0.1181100000000000066, 1.446430334472939084E-17, 2.229093999999999465 ) ) ;
#288 = CYLINDRICAL_SURFACE ( 'NONE', #19, 0.1181100000000000066 ) ;
#289 = CARTESIAN_POINT ( 'NONE',  ( 0.09832657500000004103, 0.0000000000000000000, 0.5118110000000000159 ) ) ;
#290 = VECTOR ( 'NONE', #149, 39.37007874015748143 ) ;
#291 = DIRECTION ( 'NONE',  ( -1.000000000000000000, 0.0000000000000000000, 1.224646799147353207E-16 ) ) ;
#292 =( GEOMETRIC_REPRESENTATION_CONTEXT ( 3 ) GLOBAL_UNCERTAINTY_ASSIGNED_CONTEXT ( ( #297 ) ) GLOBAL_UNIT_ASSIGNED_CONTEXT ( ( #8, #95, #123 ) ) REPRESENTATION_CONTEXT ( 'NONE', 'WORKASPACE' ) );
#293 = FACE_OUTER_BOUND ( 'NONE', #229, .T. ) ;
#294 = CARTESIAN_POINT ( 'NONE',  ( 0.09832657500000004103, 0.0000000000000000000, 0.5118110000000000159 ) ) ;
#295 = VECTOR ( 'NONE', #246, 39.37007874015748143 ) ;
#296 = EDGE_CURVE ( 'NONE', #93, #161, #71, .T. ) ;
#297 = UNCERTAINTY_MEASURE_WITH_UNIT (LENGTH_MEASURE( 1.000000000000000082E-05 ), #8, 'distance_accuracy_value', 'NONE');
#298 = ORIENTED_EDGE ( 'NONE', *, *, #224, .T. ) ;
#299 =( NAMED_UNIT ( * ) PLANE_ANGLE_UNIT ( ) SI_UNIT ( $, .RADIAN. ) );
ENDSEC;
END-ISO-10303-21;
