ISO-10303-21;
HEADER;
FILE_DESCRIPTION (( 'STEP AP214' ),
    '1' );
FILE_NAME ('Micro_DR-062-2.STEP',
    '2021-09-01T15:31:16',
    ( '' ),
    ( '' ),
    'SwSTEP 2.0',
    'SolidWorks 2020',
    '' );
FILE_SCHEMA (( 'AUTOMOTIVE_DESIGN' ));
ENDSEC;

DATA;
#1 = DIRECTION ( 'NONE',  ( 1.000000000000000000, 0.0000000000000000000, -0.0000000000000000000 ) ) ;
#2 = EDGE_CURVE ( 'NONE', #32, #72, #253, .T. ) ;
#3 = ORIENTED_EDGE ( 'NONE', *, *, #146, .T. ) ;
#4 = FACE_OUTER_BOUND ( 'NONE', #295, .T. ) ;
#5 =( NAMED_UNIT ( * ) SI_UNIT ( $, .STERADIAN. ) SOLID_ANGLE_UNIT ( ) );
#6 = CARTESIAN_POINT ( 'NONE',  ( -0.03119999999999999857, 3.823959630337610550E-18, 0.7500000000000002220 ) ) ;
#7 = CARTESIAN_POINT ( 'NONE',  ( 0.0000000000000000000, 0.0000000000000000000, 1.500000000000000222 ) ) ;
#8 = CARTESIAN_POINT ( 'NONE',  ( 0.01625000000000094771, 2.908536147975021753E-18, 1.500000000000000222 ) ) ;
#9 = ORIENTED_EDGE ( 'NONE', *, *, #136, .T. ) ;
#10 = FACE_OUTER_BOUND ( 'NONE', #283, .T. ) ;
#11 = ORIENTED_EDGE ( 'NONE', *, *, #97, .F. ) ;
#12 = CIRCLE ( 'NONE', #93, 0.01625000000000094771 ) ;
#13 =( NAMED_UNIT ( * ) SI_UNIT ( $, .STERADIAN. ) SOLID_ANGLE_UNIT ( ) );
#14 = DIRECTION ( 'NONE',  ( 1.000000000000000000, 0.0000000000000000000, 0.0000000000000000000 ) ) ;
#15 = CONICAL_SURFACE ( 'NONE', #96, 65.52281426576966794, 1.029744258676662749 ) ;
#16 = DIRECTION ( 'NONE',  ( 1.000000000000000000, 0.0000000000000000000, 0.0000000000000000000 ) ) ;
#17 = CARTESIAN_POINT ( 'NONE',  ( 0.0000000000000000000, 0.0000000000000000000, 0.7500000000000002220 ) ) ;
#18 = DIRECTION ( 'NONE',  ( 1.000000000000000000, 0.0000000000000000000, 0.0000000000000000000 ) ) ;
#19 = ORIENTED_EDGE ( 'NONE', *, *, #144, .F. ) ;
#20 = APPLICATION_CONTEXT ( 'automotive_design' ) ;
#21 = CARTESIAN_POINT ( 'NONE',  ( -0.03125000000000000000, 0.0000000000000000000, 0.7500866025403786219 ) ) ;
#22 = EDGE_CURVE ( 'NONE', #188, #178, #168, .T. ) ;
#23 = ORIENTED_EDGE ( 'NONE', *, *, #81, .F. ) ;
#24 = LINE ( 'NONE', #142, #258 ) ;
#25 = CONICAL_SURFACE ( 'NONE', #214, 0.01625000000000094771, 0.7853981633974447263 ) ;
#26 = CARTESIAN_POINT ( 'NONE',  ( 0.0000000000000000000, 0.0000000000000000000, 1.500000000000000222 ) ) ;
#27 = VECTOR ( 'NONE', #159, 39.37007874015748143 ) ;
#28 = LINE ( 'NONE', #310, #171 ) ;
#29 = EDGE_LOOP ( 'NONE', ( #124, #50, #261, #75 ) ) ;
#30 = CARTESIAN_POINT ( 'NONE',  ( 0.0000000000000000000, 0.0000000000000000000, 1.485000000000000986 ) ) ;
#31 = CARTESIAN_POINT ( 'NONE',  ( 0.0000000000000000000, 0.0000000000000000000, 1.500000000000000222 ) ) ;
#32 = VERTEX_POINT ( 'NONE', #8 ) ;
#33 = EDGE_CURVE ( 'NONE', #216, #169, #225, .T. ) ;
#34 = DIRECTION ( 'NONE',  ( -0.0000000000000000000, -0.0000000000000000000, 1.000000000000000000 ) ) ;
#35 = CONICAL_SURFACE ( 'NONE', #217, 0.01625000000000094771, 0.7853981633974447263 ) ;
#36 = CARTESIAN_POINT ( 'NONE',  ( 0.03125000000000000000, 3.827021247335478002E-18, 0.7500866025403786219 ) ) ;
#37 =( LENGTH_UNIT ( ) NAMED_UNIT ( * ) SI_UNIT ( $, .METRE. ) );
#38 = DIRECTION ( 'NONE',  ( 1.000000000000000000, 0.0000000000000000000, 0.0000000000000000000 ) ) ;
#39 = ORIENTED_EDGE ( 'NONE', *, *, #41, .F. ) ;
#40 = CARTESIAN_POINT ( 'NONE',  ( -0.01625000000000094771, 0.0000000000000000000, 1.500000000000000222 ) ) ;
#41 = EDGE_CURVE ( 'NONE', #229, #241, #71, .T. ) ;
#42 = DIRECTION ( 'NONE',  ( 1.000000000000000000, 0.0000000000000000000, 0.0000000000000000000 ) ) ;
#43 = EDGE_LOOP ( 'NONE', ( #208, #276 ) ) ;
#44 = CARTESIAN_POINT ( 'NONE',  ( 0.03119999999999999857, 0.0000000000000000000, 1.485000000000000986 ) ) ;
#45 = AXIS2_PLACEMENT_3D ( 'NONE', #31, #163, #65 ) ;
#46 = PRODUCT_DEFINITION ( 'UNKNOWN', '', #254, #243 ) ;
#47 = CARTESIAN_POINT ( 'NONE',  ( 0.0000000000000000000, 0.0000000000000000000, 1.500000000000000222 ) ) ;
#48 = ORIENTED_EDGE ( 'NONE', *, *, #174, .T. ) ;
#49 = CARTESIAN_POINT ( 'NONE',  ( 0.0000000000000000000, 0.0000000000000000000, 1.485000000000000986 ) ) ;
#50 = ORIENTED_EDGE ( 'NONE', *, *, #81, .T. ) ;
#51 = ADVANCED_FACE ( 'NONE', ( #194 ), #170, .T. ) ;
#52 = CARTESIAN_POINT ( 'NONE',  ( 0.0000000000000000000, 0.0000000000000000000, 0.7500866025403786219 ) ) ;
#53 = VECTOR ( 'NONE', #215, 39.37007874015748143 ) ;
#54 = CARTESIAN_POINT ( 'NONE',  ( 0.0000000000000000000, 0.0000000000000000000, 1.500000000000000222 ) ) ;
#55 = AXIS2_PLACEMENT_3D ( 'NONE', #17, #86, #16 ) ;
#56 = ADVANCED_FACE ( 'NONE', ( #137 ), #25, .T. ) ;
#57 = SURFACE_SIDE_STYLE ('',( #82 ) ) ;
#58 = EDGE_CURVE ( 'NONE', #169, #241, #70, .T. ) ;
#59 = CIRCLE ( 'NONE', #165, 0.03125000000000000000 ) ;
#60 = ORIENTED_EDGE ( 'NONE', *, *, #256, .F. ) ;
#61 = PRESENTATION_STYLE_ASSIGNMENT (( #152 ) ) ;
#62 = DIRECTION ( 'NONE',  ( -0.0000000000000000000, -0.0000000000000000000, 1.000000000000000000 ) ) ;
#63 = EDGE_LOOP ( 'NONE', ( #60, #130, #48, #319 ) ) ;
#64 = FACE_OUTER_BOUND ( 'NONE', #43, .T. ) ;
#65 = DIRECTION ( 'NONE',  ( 1.000000000000000000, 0.0000000000000000000, 0.0000000000000000000 ) ) ;
#66 = ORIENTED_EDGE ( 'NONE', *, *, #302, .F. ) ;
#67 = ADVANCED_FACE ( 'NONE', ( #73 ), #260, .T. ) ;
#68 = DIRECTION ( 'NONE',  ( -1.000000000000000000, 0.0000000000000000000, 0.0000000000000000000 ) ) ;
#69 = ORIENTED_EDGE ( 'NONE', *, *, #251, .F. ) ;
#70 = LINE ( 'NONE', #44, #249 ) ;
#71 = CIRCLE ( 'NONE', #92, 0.03119999999999999857 ) ;
#72 = VERTEX_POINT ( 'NONE', #282 ) ;
#73 = FACE_OUTER_BOUND ( 'NONE', #286, .T. ) ;
#74 = CARTESIAN_POINT ( 'NONE',  ( -0.03125000000000000000, 0.0000000000000000000, 1.500000000000000222 ) ) ;
#75 = ORIENTED_EDGE ( 'NONE', *, *, #122, .T. ) ;
#76 = DIMENSIONAL_EXPONENTS ( 1.000000000000000000, 0.0000000000000000000, 0.0000000000000000000, 0.0000000000000000000, 0.0000000000000000000, 0.0000000000000000000, 0.0000000000000000000 ) ;
#77 = COLOUR_RGB ( '',0.7921568627450980005, 0.8196078431372548767, 0.9333333333333333481 ) ;
#78 =( GEOMETRIC_REPRESENTATION_CONTEXT ( 3 ) GLOBAL_UNCERTAINTY_ASSIGNED_CONTEXT ( ( #114 ) ) GLOBAL_UNIT_ASSIGNED_CONTEXT ( ( #279, #210, #5 ) ) REPRESENTATION_CONTEXT ( 'NONE', 'WORKASPACE' ) );
#79 =( CONVERSION_BASED_UNIT ( 'INCH', #320 ) LENGTH_UNIT ( ) NAMED_UNIT ( #315 ) );
#80 =( CONVERSION_BASED_UNIT ( 'INCH', #115 ) LENGTH_UNIT ( ) NAMED_UNIT ( #76 ) );
#81 = EDGE_CURVE ( 'NONE', #72, #178, #290, .T. ) ;
#82 = SURFACE_STYLE_FILL_AREA ( #83 ) ;
#83 = FILL_AREA_STYLE ('',( #323 ) ) ;
#84 = SHAPE_DEFINITION_REPRESENTATION ( #321, #266 ) ;
#85 = COLOUR_RGB ( '',0.7921568627450980005, 0.8196078431372548767, 0.9333333333333333481 ) ;
#86 = DIRECTION ( 'NONE',  ( -0.0000000000000000000, -0.0000000000000000000, 1.000000000000000000 ) ) ;
#87 = DIRECTION ( 'NONE',  ( 1.000000000000000000, 0.0000000000000000000, 0.0000000000000000000 ) ) ;
#88 = ORIENTED_EDGE ( 'NONE', *, *, #33, .F. ) ;
#89 = VERTEX_POINT ( 'NONE', #36 ) ;
#90 = CARTESIAN_POINT ( 'NONE',  ( -0.01625000000000094771, 0.0000000000000000000, 1.500000000000000222 ) ) ;
#91 = LINE ( 'NONE', #298, #172 ) ;
#92 = AXIS2_PLACEMENT_3D ( 'NONE', #278, #257, #179 ) ;
#93 = AXIS2_PLACEMENT_3D ( 'NONE', #54, #220, #218 ) ;
#94 = APPLICATION_PROTOCOL_DEFINITION ( 'draft international standard', 'automotive_design', 1998, #119 ) ;
#95 = EDGE_LOOP ( 'NONE', ( #281, #164, #157, #23 ) ) ;
#96 = AXIS2_PLACEMENT_3D ( 'NONE', #252, #155, #87 ) ;
#97 = EDGE_CURVE ( 'NONE', #203, #216, #287, .T. ) ;
#98 = DIRECTION ( 'NONE',  ( 0.0000000000000000000, 0.0000000000000000000, 1.000000000000000000 ) ) ;
#99 = CARTESIAN_POINT ( 'NONE',  ( 0.0000000000000000000, 0.0000000000000000000, 1.485000000000000986 ) ) ;
#100 = ORIENTED_EDGE ( 'NONE', *, *, #204, .T. ) ;
#101 = DIRECTION ( 'NONE',  ( -1.000000000000000000, 0.0000000000000000000, 0.0000000000000000000 ) ) ;
#102 = FACE_OUTER_BOUND ( 'NONE', #106, .T. ) ;
#103 =( GEOMETRIC_REPRESENTATION_CONTEXT ( 3 ) GLOBAL_UNCERTAINTY_ASSIGNED_CONTEXT ( ( #314 ) ) GLOBAL_UNIT_ASSIGNED_CONTEXT ( ( #79, #190, #13 ) ) REPRESENTATION_CONTEXT ( 'NONE', 'WORKASPACE' ) );
#104 = ORIENTED_EDGE ( 'NONE', *, *, #292, .F. ) ;
#105 = CARTESIAN_POINT ( 'NONE',  ( 0.01625000000000094771, 1.990051048614565118E-18, 1.500000000000000222 ) ) ;
#106 = EDGE_LOOP ( 'NONE', ( #69, #308, #66, #313 ) ) ;
#107 = AXIS2_PLACEMENT_3D ( 'NONE', #47, #182, #68 ) ;
#108 = EDGE_CURVE ( 'NONE', #188, #32, #12, .T. ) ;
#109 = DIRECTION ( 'NONE',  ( -0.8571673007021165525, 1.049727191138623873E-16, 0.5150380749100470501 ) ) ;
#110 = SURFACE_SIDE_STYLE ('',( #246 ) ) ;
#111 = PRODUCT ( 'Micro_DR-062-2', 'Micro_DR-062-2', '', ( #160 ) ) ;
#112 = CARTESIAN_POINT ( 'NONE',  ( 0.0000000000000000000, 0.0000000000000000000, 0.0000000000000000000 ) ) ;
#113 = CIRCLE ( 'NONE', #118, 0.03125000000000000000 ) ;
#114 = UNCERTAINTY_MEASURE_WITH_UNIT (LENGTH_MEASURE( 1.000000000000000082E-05 ), #279, 'distance_accuracy_value', 'NONE');
#115 = LENGTH_MEASURE_WITH_UNIT ( LENGTH_MEASURE( 0.02539999999999999897 ), #37 );
#116 = STYLED_ITEM ( 'NONE', ( #140 ), #266 ) ;
#117 = ADVANCED_FACE ( 'NONE', ( #196 ), #222, .T. ) ;
#118 = AXIS2_PLACEMENT_3D ( 'NONE', #120, #175, #268 ) ;
#119 = APPLICATION_CONTEXT ( 'automotive_design' ) ;
#120 = CARTESIAN_POINT ( 'NONE',  ( 0.0000000000000000000, 0.0000000000000000000, 0.7500866025403786219 ) ) ;
#121 = DIRECTION ( 'NONE',  ( 1.000000000000000000, 0.0000000000000000000, 0.0000000000000000000 ) ) ;
#122 = EDGE_CURVE ( 'NONE', #183, #89, #59, .T. ) ;
#123 = DIRECTION ( 'NONE',  ( 0.0000000000000000000, 0.0000000000000000000, 1.000000000000000000 ) ) ;
#124 = ORIENTED_EDGE ( 'NONE', *, *, #204, .F. ) ;
#125 = DIRECTION ( 'NONE',  ( -0.7071067811865450192, 0.0000000000000000000, -0.7071067811865500152 ) ) ;
#126 = CARTESIAN_POINT ( 'NONE',  ( 0.0000000000000000000, 0.0000000000000000000, 0.01874685131365953425 ) ) ;
#127 = MANIFOLD_SOLID_BREP ( 'Cut-Revolve1', #270 ) ;
#128 = LENGTH_MEASURE_WITH_UNIT ( LENGTH_MEASURE( 0.02539999999999999897 ), #166 );
#129 = MECHANICAL_DESIGN_GEOMETRIC_PRESENTATION_REPRESENTATION (  '', ( #116 ), #103 ) ;
#130 = ORIENTED_EDGE ( 'NONE', *, *, #41, .T. ) ;
#131 = PLANE ( 'NONE',  #189 ) ;
#132 = AXIS2_PLACEMENT_3D ( 'NONE', #49, #242, #14 ) ;
#133 = CYLINDRICAL_SURFACE ( 'NONE', #107, 0.03125000000000000000 ) ;
#134 = APPLICATION_PROTOCOL_DEFINITION ( 'draft international standard', 'automotive_design', 1998, #20 ) ;
#135 = AXIS2_PLACEMENT_3D ( 'NONE', #284, #34, #148 ) ;
#136 = EDGE_CURVE ( 'NONE', #241, #229, #247, .T. ) ;
#137 = FACE_OUTER_BOUND ( 'NONE', #95, .T. ) ;
#138 = LINE ( 'NONE', #74, #53 ) ;
#139 = ORIENTED_EDGE ( 'NONE', *, *, #146, .F. ) ;
#140 = PRESENTATION_STYLE_ASSIGNMENT (( #262 ) ) ;
#141 = DIRECTION ( 'NONE',  ( -0.0000000000000000000, -0.0000000000000000000, 1.000000000000000000 ) ) ;
#142 = CARTESIAN_POINT ( 'NONE',  ( -0.03119999999999999857, 3.820898013339742328E-18, 0.7500000000000002220 ) ) ;
#143 = ORIENTED_EDGE ( 'NONE', *, *, #181, .T. ) ;
#144 = EDGE_CURVE ( 'NONE', #203, #169, #224, .T. ) ;
#145 = FILL_AREA_STYLE ('',( #187 ) ) ;
#146 = EDGE_CURVE ( 'NONE', #89, #183, #113, .T. ) ;
#147 = VECTOR ( 'NONE', #125, 39.37007874015748143 ) ;
#148 = DIRECTION ( 'NONE',  ( 1.000000000000000000, 0.0000000000000000000, 0.0000000000000000000 ) ) ;
#149 = CARTESIAN_POINT ( 'NONE',  ( 0.0000000000000000000, 0.0000000000000000000, 0.0000000000000000000 ) ) ;
#150 = AXIS2_PLACEMENT_3D ( 'NONE', #99, #177, #42 ) ;
#151 = AXIS2_PLACEMENT_3D ( 'NONE', #30, #141, #191 ) ;
#152 = SURFACE_STYLE_USAGE ( .BOTH. , #57 ) ;
#153 = FACE_OUTER_BOUND ( 'NONE', #237, .T. ) ;
#154 = CARTESIAN_POINT ( 'NONE',  ( 0.0000000000000000000, 0.0000000000000000000, 0.0000000000000000000 ) ) ;
#155 = DIRECTION ( 'NONE',  ( -0.0000000000000000000, -0.0000000000000000000, 1.000000000000000000 ) ) ;
#156 = DIRECTION ( 'NONE',  ( 1.000000000000000000, 0.0000000000000000000, 0.0000000000000000000 ) ) ;
#157 = ORIENTED_EDGE ( 'NONE', *, *, #22, .T. ) ;
#158 = DIRECTION ( 'NONE',  ( 0.7071067811865450192, 8.659560562354902043E-17, -0.7071067811865500152 ) ) ;
#159 = DIRECTION ( 'NONE',  ( 0.4999999999999977240, 0.0000000000000000000, 0.8660254037844398178 ) ) ;
#160 = PRODUCT_CONTEXT ( 'NONE', #119, 'mechanical' ) ;
#161 = ADVANCED_FACE ( 'NONE', ( #153 ), #293, .T. ) ;
#162 = ORIENTED_EDGE ( 'NONE', *, *, #181, .F. ) ;
#163 = DIRECTION ( 'NONE',  ( 0.0000000000000000000, 0.0000000000000000000, 1.000000000000000000 ) ) ;
#164 = ORIENTED_EDGE ( 'NONE', *, *, #108, .F. ) ;
#165 = AXIS2_PLACEMENT_3D ( 'NONE', #52, #245, #316 ) ;
#166 =( LENGTH_UNIT ( ) NAMED_UNIT ( * ) SI_UNIT ( $, .METRE. ) );
#167 = ORIENTED_EDGE ( 'NONE', *, *, #33, .T. ) ;
#168 = LINE ( 'NONE', #90, #147 ) ;
#169 = VERTEX_POINT ( 'NONE', #230 ) ;
#170 = CYLINDRICAL_SURFACE ( 'NONE', #173, 0.03125000000000000000 ) ;
#171 = VECTOR ( 'NONE', #240, 39.37007874015748143 ) ;
#172 = VECTOR ( 'NONE', #180, 39.37007874015748143 ) ;
#173 = AXIS2_PLACEMENT_3D ( 'NONE', #26, #213, #205 ) ;
#174 = EDGE_CURVE ( 'NONE', #241, #89, #294, .T. ) ;
#175 = DIRECTION ( 'NONE',  ( -0.0000000000000000000, -0.0000000000000000000, 1.000000000000000000 ) ) ;
#176 = DIRECTION ( 'NONE',  ( -0.0000000000000000000, -0.0000000000000000000, 1.000000000000000000 ) ) ;
#177 = DIRECTION ( 'NONE',  ( 0.0000000000000000000, 0.0000000000000000000, -1.000000000000000000 ) ) ;
#178 = VERTEX_POINT ( 'NONE', #250 ) ;
#179 = DIRECTION ( 'NONE',  ( 1.000000000000000000, 0.0000000000000000000, 0.0000000000000000000 ) ) ;
#180 = DIRECTION ( 'NONE',  ( -0.0000000000000000000, -0.0000000000000000000, -1.000000000000000000 ) ) ;
#181 = EDGE_CURVE ( 'NONE', #169, #216, #221, .T. ) ;
#182 = DIRECTION ( 'NONE',  ( -0.0000000000000000000, -0.0000000000000000000, -1.000000000000000000 ) ) ;
#183 = VERTEX_POINT ( 'NONE', #21 ) ;
#184 = CARTESIAN_POINT ( 'NONE',  ( 0.0000000000000000000, 0.0000000000000000000, 1.485000000000000986 ) ) ;
#185 = ORIENTED_EDGE ( 'NONE', *, *, #58, .T. ) ;
#186 = CARTESIAN_POINT ( 'NONE',  ( 0.0000000000000000000, 0.0000000000000000000, 1.500000000000000222 ) ) ;
#187 = FILL_AREA_STYLE_COLOUR ( '', #77 ) ;
#188 = VERTEX_POINT ( 'NONE', #40 ) ;
#189 = AXIS2_PLACEMENT_3D ( 'NONE', #234, #98, #1 ) ;
#190 =( NAMED_UNIT ( * ) PLANE_ANGLE_UNIT ( ) SI_UNIT ( $, .RADIAN. ) );
#191 = DIRECTION ( 'NONE',  ( 1.000000000000000000, 0.0000000000000000000, 0.0000000000000000000 ) ) ;
#192 = ORIENTED_EDGE ( 'NONE', *, *, #263, .F. ) ;
#193 = ADVANCED_FACE ( 'NONE', ( #4 ), #201, .T. ) ;
#194 = FACE_OUTER_BOUND ( 'NONE', #303, .T. ) ;
#195 = ADVANCED_FACE ( 'NONE', ( #64 ), #131, .T. ) ;
#196 = FACE_OUTER_BOUND ( 'NONE', #63, .T. ) ;
#197 = VECTOR ( 'NONE', #109, 39.37007874015748143 ) ;
#198 = ADVANCED_FACE ( 'NONE', ( #209 ), #15, .T. ) ;
#199 = CARTESIAN_POINT ( 'NONE',  ( 0.0000000000000000000, 0.0000000000000000000, 39.37007874015748143 ) ) ;
#200 = AXIS2_PLACEMENT_3D ( 'NONE', #154, #123, #156 ) ;
#201 = CONICAL_SURFACE ( 'NONE', #312, 0.03119999999999999857, 0.5235987755982962621 ) ;
#202 = DIRECTION ( 'NONE',  ( -0.0000000000000000000, -0.0000000000000000000, 1.000000000000000000 ) ) ;
#203 = VERTEX_POINT ( 'NONE', #271 ) ;
#204 = EDGE_CURVE ( 'NONE', #72, #89, #91, .T. ) ;
#205 = DIRECTION ( 'NONE',  ( -1.000000000000000000, 0.0000000000000000000, 0.0000000000000000000 ) ) ;
#206 = CARTESIAN_POINT ( 'NONE',  ( 0.03119999999999999857, 0.0000000000000000000, 0.7500000000000002220 ) ) ;
#207 = DIRECTION ( 'NONE',  ( -0.4999999999999977240, 6.123233995736737686E-17, 0.8660254037844398178 ) ) ;
#208 = ORIENTED_EDGE ( 'NONE', *, *, #108, .T. ) ;
#209 = FACE_OUTER_BOUND ( 'NONE', #299, .T. ) ;
#210 =( NAMED_UNIT ( * ) PLANE_ANGLE_UNIT ( ) SI_UNIT ( $, .RADIAN. ) );
#211 = ORIENTED_EDGE ( 'NONE', *, *, #263, .T. ) ;
#212 = PRESENTATION_LAYER_ASSIGNMENT (  '', '', ( #116 ) ) ;
#213 = DIRECTION ( 'NONE',  ( -0.0000000000000000000, -0.0000000000000000000, -1.000000000000000000 ) ) ;
#214 = AXIS2_PLACEMENT_3D ( 'NONE', #186, #238, #101 ) ;
#215 = DIRECTION ( 'NONE',  ( -0.0000000000000000000, -0.0000000000000000000, -1.000000000000000000 ) ) ;
#216 = VERTEX_POINT ( 'NONE', #255 ) ;
#217 = AXIS2_PLACEMENT_3D ( 'NONE', #7, #235, #306 ) ;
#218 = DIRECTION ( 'NONE',  ( 1.000000000000000000, 0.0000000000000000000, 0.0000000000000000000 ) ) ;
#219 =( LENGTH_UNIT ( ) NAMED_UNIT ( * ) SI_UNIT ( $, .METRE. ) );
#220 = DIRECTION ( 'NONE',  ( 0.0000000000000000000, 0.0000000000000000000, 1.000000000000000000 ) ) ;
#221 = CIRCLE ( 'NONE', #318, 0.03119999999999999857 ) ;
#222 = CONICAL_SURFACE ( 'NONE', #135, 0.03119999999999999857, 0.5235987755982962621 ) ;
#223 =( NAMED_UNIT ( * ) SI_UNIT ( $, .STERADIAN. ) SOLID_ANGLE_UNIT ( ) );
#224 = LINE ( 'NONE', #149, #291 ) ;
#225 = CIRCLE ( 'NONE', #317, 0.03119999999999999857 ) ;
#226 =( NAMED_UNIT ( * ) PLANE_ANGLE_UNIT ( ) SI_UNIT ( $, .RADIAN. ) );
#227 = MECHANICAL_DESIGN_GEOMETRIC_PRESENTATION_REPRESENTATION (  '', ( #280 ), #265 ) ;
#228 = DIRECTION ( 'NONE',  ( -0.0000000000000000000, -0.0000000000000000000, 1.000000000000000000 ) ) ;
#229 = VERTEX_POINT ( 'NONE', #6 ) ;
#230 = CARTESIAN_POINT ( 'NONE',  ( 0.03120000000000000551, 0.0000000000000000000, 0.01874685131365953425 ) ) ;
#231 = CYLINDRICAL_SURFACE ( 'NONE', #236, 0.03119999999999999857 ) ;
#232 = ORIENTED_EDGE ( 'NONE', *, *, #58, .F. ) ;
#233 = VECTOR ( 'NONE', #158, 39.37007874015748143 ) ;
#234 = CARTESIAN_POINT ( 'NONE',  ( 0.0000000000000000000, 0.0000000000000000000, 1.500000000000000222 ) ) ;
#235 = DIRECTION ( 'NONE',  ( 0.0000000000000000000, 0.0000000000000000000, -1.000000000000000000 ) ) ;
#236 = AXIS2_PLACEMENT_3D ( 'NONE', #184, #62, #272 ) ;
#237 = EDGE_LOOP ( 'NONE', ( #19, #275, #162 ) ) ;
#238 = DIRECTION ( 'NONE',  ( 0.0000000000000000000, 0.0000000000000000000, -1.000000000000000000 ) ) ;
#239 = ORIENTED_EDGE ( 'NONE', *, *, #136, .F. ) ;
#240 = DIRECTION ( 'NONE',  ( -0.0000000000000000000, -0.0000000000000000000, 1.000000000000000000 ) ) ;
#241 = VERTEX_POINT ( 'NONE', #301 ) ;
#242 = DIRECTION ( 'NONE',  ( 0.0000000000000000000, 0.0000000000000000000, -1.000000000000000000 ) ) ;
#243 = PRODUCT_DEFINITION_CONTEXT ( 'detailed design', #20, 'design' ) ;
#244 = ADVANCED_FACE ( 'NONE', ( #274 ), #133, .T. ) ;
#245 = DIRECTION ( 'NONE',  ( -0.0000000000000000000, -0.0000000000000000000, 1.000000000000000000 ) ) ;
#246 = SURFACE_STYLE_FILL_AREA ( #145 ) ;
#247 = CIRCLE ( 'NONE', #55, 0.03119999999999999857 ) ;
#248 = PRESENTATION_LAYER_ASSIGNMENT (  '', '', ( #280 ) ) ;
#249 = VECTOR ( 'NONE', #309, 39.37007874015748143 ) ;
#250 = CARTESIAN_POINT ( 'NONE',  ( -0.03125000000000000000, 0.0000000000000000000, 1.485000000000000986 ) ) ;
#251 = EDGE_CURVE ( 'NONE', #32, #188, #264, .T. ) ;
#252 = CARTESIAN_POINT ( 'NONE',  ( 0.0000000000000000000, 0.0000000000000000000, 39.37007874015748143 ) ) ;
#253 = LINE ( 'NONE', #105, #233 ) ;
#254 = PRODUCT_DEFINITION_FORMATION_WITH_SPECIFIED_SOURCE ( 'ANY', '', #111, .NOT_KNOWN. ) ;
#255 = CARTESIAN_POINT ( 'NONE',  ( -0.03120000000000000551, 3.820898013339743098E-18, 0.01874685131365953425 ) ) ;
#256 = EDGE_CURVE ( 'NONE', #229, #183, #24, .T. ) ;
#257 = DIRECTION ( 'NONE',  ( -0.0000000000000000000, -0.0000000000000000000, 1.000000000000000000 ) ) ;
#258 = VECTOR ( 'NONE', #207, 39.37007874015748143 ) ;
#259 = ORIENTED_EDGE ( 'NONE', *, *, #144, .T. ) ;
#260 = CYLINDRICAL_SURFACE ( 'NONE', #151, 0.03119999999999999857 ) ;
#261 = ORIENTED_EDGE ( 'NONE', *, *, #292, .T. ) ;
#262 = SURFACE_STYLE_USAGE ( .BOTH. , #110 ) ;
#263 = EDGE_CURVE ( 'NONE', #216, #229, #28, .T. ) ;
#264 = CIRCLE ( 'NONE', #45, 0.01625000000000094771 ) ;
#265 =( GEOMETRIC_REPRESENTATION_CONTEXT ( 3 ) GLOBAL_UNCERTAINTY_ASSIGNED_CONTEXT ( ( #304 ) ) GLOBAL_UNIT_ASSIGNED_CONTEXT ( ( #80, #226, #223 ) ) REPRESENTATION_CONTEXT ( 'NONE', 'WORKASPACE' ) );
#266 = ADVANCED_BREP_SHAPE_REPRESENTATION ( 'Micro_DR-062-2', ( #127, #200 ), #78 ) ;
#267 = ADVANCED_FACE ( 'NONE', ( #102 ), #35, .T. ) ;
#268 = DIRECTION ( 'NONE',  ( 1.000000000000000000, 0.0000000000000000000, 0.0000000000000000000 ) ) ;
#269 = PRODUCT_RELATED_PRODUCT_CATEGORY ( 'part', '', ( #111 ) ) ;
#270 = CLOSED_SHELL ( 'NONE', ( #67, #161, #193, #267, #51, #244, #195, #56, #117, #198, #289 ) ) ;
#271 = CARTESIAN_POINT ( 'NONE',  ( 0.0000000000000000000, 0.0000000000000000000, 0.0000000000000000000 ) ) ;
#272 = DIRECTION ( 'NONE',  ( 1.000000000000000000, 0.0000000000000000000, 0.0000000000000000000 ) ) ;
#273 = CARTESIAN_POINT ( 'NONE',  ( 0.0000000000000000000, 0.0000000000000000000, 0.7500000000000002220 ) ) ;
#274 = FACE_OUTER_BOUND ( 'NONE', #29, .T. ) ;
#275 = ORIENTED_EDGE ( 'NONE', *, *, #97, .T. ) ;
#276 = ORIENTED_EDGE ( 'NONE', *, *, #251, .T. ) ;
#277 = ORIENTED_EDGE ( 'NONE', *, *, #256, .T. ) ;
#278 = CARTESIAN_POINT ( 'NONE',  ( 0.0000000000000000000, 0.0000000000000000000, 0.7500000000000002220 ) ) ;
#279 =( CONVERSION_BASED_UNIT ( 'INCH', #128 ) LENGTH_UNIT ( ) NAMED_UNIT ( #311 ) );
#280 = STYLED_ITEM ( 'NONE', ( #61 ), #127 ) ;
#281 = ORIENTED_EDGE ( 'NONE', *, *, #2, .F. ) ;
#282 = CARTESIAN_POINT ( 'NONE',  ( 0.03125000000000000000, 3.827021247335478002E-18, 1.485000000000000986 ) ) ;
#283 = EDGE_LOOP ( 'NONE', ( #192, #167, #185, #39 ) ) ;
#284 = CARTESIAN_POINT ( 'NONE',  ( 0.0000000000000000000, 0.0000000000000000000, 0.7500000000000002220 ) ) ;
#285 = CIRCLE ( 'NONE', #150, 0.03125000000000000000 ) ;
#286 = EDGE_LOOP ( 'NONE', ( #143, #211, #239, #232 ) ) ;
#287 = LINE ( 'NONE', #112, #197 ) ;
#288 = ORIENTED_EDGE ( 'NONE', *, *, #302, .T. ) ;
#289 = ADVANCED_FACE ( 'NONE', ( #10 ), #231, .T. ) ;
#290 = CIRCLE ( 'NONE', #132, 0.03125000000000000000 ) ;
#291 = VECTOR ( 'NONE', #322, 39.37007874015748143 ) ;
#292 = EDGE_CURVE ( 'NONE', #178, #183, #138, .T. ) ;
#293 = CONICAL_SURFACE ( 'NONE', #297, 65.52281426576966794, 1.029744258676662749 ) ;
#294 = LINE ( 'NONE', #206, #27 ) ;
#295 = EDGE_LOOP ( 'NONE', ( #9, #277, #139, #307 ) ) ;
#296 = CARTESIAN_POINT ( 'NONE',  ( 0.0000000000000000000, 0.0000000000000000000, 0.01874685131365953425 ) ) ;
#297 = AXIS2_PLACEMENT_3D ( 'NONE', #199, #176, #38 ) ;
#298 = CARTESIAN_POINT ( 'NONE',  ( 0.03125000000000000000, 3.827021247335478002E-18, 1.500000000000000222 ) ) ;
#299 = EDGE_LOOP ( 'NONE', ( #11, #259, #88 ) ) ;
#300 = DIRECTION ( 'NONE',  ( -0.0000000000000000000, -0.0000000000000000000, 1.000000000000000000 ) ) ;
#301 = CARTESIAN_POINT ( 'NONE',  ( 0.03119999999999999857, 0.0000000000000000000, 0.7500000000000002220 ) ) ;
#302 = EDGE_CURVE ( 'NONE', #178, #72, #285, .T. ) ;
#303 = EDGE_LOOP ( 'NONE', ( #288, #100, #3, #104 ) ) ;
#304 = UNCERTAINTY_MEASURE_WITH_UNIT (LENGTH_MEASURE( 1.000000000000000082E-05 ), #80, 'distance_accuracy_value', 'NONE');
#305 = DIRECTION ( 'NONE',  ( 1.000000000000000000, 0.0000000000000000000, 0.0000000000000000000 ) ) ;
#306 = DIRECTION ( 'NONE',  ( -1.000000000000000000, 0.0000000000000000000, 0.0000000000000000000 ) ) ;
#307 = ORIENTED_EDGE ( 'NONE', *, *, #174, .F. ) ;
#308 = ORIENTED_EDGE ( 'NONE', *, *, #2, .T. ) ;
#309 = DIRECTION ( 'NONE',  ( -0.0000000000000000000, -0.0000000000000000000, 1.000000000000000000 ) ) ;
#310 = CARTESIAN_POINT ( 'NONE',  ( -0.03119999999999999857, 3.820898013339742328E-18, 1.485000000000000986 ) ) ;
#311 = DIMENSIONAL_EXPONENTS ( 1.000000000000000000, 0.0000000000000000000, 0.0000000000000000000, 0.0000000000000000000, 0.0000000000000000000, 0.0000000000000000000, 0.0000000000000000000 ) ;
#312 = AXIS2_PLACEMENT_3D ( 'NONE', #273, #228, #121 ) ;
#313 = ORIENTED_EDGE ( 'NONE', *, *, #22, .F. ) ;
#314 = UNCERTAINTY_MEASURE_WITH_UNIT (LENGTH_MEASURE( 1.000000000000000082E-05 ), #79, 'distance_accuracy_value', 'NONE');
#315 = DIMENSIONAL_EXPONENTS ( 1.000000000000000000, 0.0000000000000000000, 0.0000000000000000000, 0.0000000000000000000, 0.0000000000000000000, 0.0000000000000000000, 0.0000000000000000000 ) ;
#316 = DIRECTION ( 'NONE',  ( 1.000000000000000000, 0.0000000000000000000, 0.0000000000000000000 ) ) ;
#317 = AXIS2_PLACEMENT_3D ( 'NONE', #296, #300, #305 ) ;
#318 = AXIS2_PLACEMENT_3D ( 'NONE', #126, #202, #18 ) ;
#319 = ORIENTED_EDGE ( 'NONE', *, *, #122, .F. ) ;
#320 = LENGTH_MEASURE_WITH_UNIT ( LENGTH_MEASURE( 0.02539999999999999897 ), #219 );
#321 = PRODUCT_DEFINITION_SHAPE ( 'NONE', 'NONE',  #46 ) ;
#322 = DIRECTION ( 'NONE',  ( 0.8571673007021165525, 0.0000000000000000000, 0.5150380749100470501 ) ) ;
#323 = FILL_AREA_STYLE_COLOUR ( '', #85 ) ;
ENDSEC;
END-ISO-10303-21;
