ISO-10303-21;
HEADER;
FILE_DESCRIPTION (( 'STEP AP214' ),
    '1' );
FILE_NAME ('83408.STEP',
    '2023-06-23T09:49:44',
    ( '' ),
    ( '' ),
    'SwSTEP 2.0',
    'SolidWorks 2023',
    '' );
FILE_SCHEMA (( 'AUTOMOTIVE_DESIGN' ));
ENDSEC;

DATA;
#1 = CARTESIAN_POINT ( 'NONE',  ( 0.06250000000000002776, 2.500000000000000000, 7.654042494670954463E-18 ) ) ;
#2 = VERTEX_POINT ( 'NONE', #266 ) ;
#3 = EDGE_CURVE ( 'NONE', #2, #151, #83, .T. ) ;
#4 = DIRECTION ( 'NONE',  ( -1.000000000000000000, 0.000000000000000000, 0.000000000000000000 ) ) ;
#5 = DIRECTION ( 'NONE',  ( 0.000000000000000000, 0.000000000000000000, -1.000000000000000000 ) ) ;
#6 = FILL_AREA_STYLE ('',( #293 ) ) ;
#7 = COLOUR_RGB ( '',0.7921568627450980005, 0.8196078431372548767, 0.9333333333333333481 ) ;
#8 = EDGE_CURVE ( 'NONE', #151, #125, #265, .T. ) ;
#9 = PRESENTATION_STYLE_ASSIGNMENT (( #129 ) ) ;
#10 =( CONVERSION_BASED_UNIT ( 'INCH', #292 ) LENGTH_UNIT ( ) NAMED_UNIT ( #271 ) );
#11 = LENGTH_MEASURE_WITH_UNIT ( LENGTH_MEASURE( 0.02539999999999999897 ), #209 );
#12 = AXIS2_PLACEMENT_3D ( 'NONE', #195, #170, #119 ) ;
#13 = DIRECTION ( 'NONE',  ( 0.000000000000000000, 0.000000000000000000, -1.000000000000000000 ) ) ;
#14 = SURFACE_SIDE_STYLE ('',( #250 ) ) ;
#15 = LENGTH_MEASURE_WITH_UNIT ( LENGTH_MEASURE( 0.02539999999999999897 ), #28 );
#16 = DIRECTION ( 'NONE',  ( 3.768143997376474441E-17, 1.000000000000000000, -0.000000000000000000 ) ) ;
#17 = STYLED_ITEM ( 'NONE', ( #89 ), #56 ) ;
#18 = EDGE_CURVE ( 'NONE', #288, #44, #64, .T. ) ;
#19 = ORIENTED_EDGE ( 'NONE', *, *, #215, .F. ) ;
#20 =( CONVERSION_BASED_UNIT ( 'INCH', #309 ) LENGTH_UNIT ( ) NAMED_UNIT ( #65 ) );
#21 = ORIENTED_EDGE ( 'NONE', *, *, #296, .T. ) ;
#22 =( CONVERSION_BASED_UNIT ( 'INCH', #279 ) LENGTH_UNIT ( ) NAMED_UNIT ( #196 ) );
#23 = PRESENTATION_LAYER_ASSIGNMENT (  '', '', ( #149 ) ) ;
#24 = VECTOR ( 'NONE', #171, 39.37007874015748143 ) ;
#25 = ORIENTED_EDGE ( 'NONE', *, *, #215, .T. ) ;
#26 =( NAMED_UNIT ( * ) PLANE_ANGLE_UNIT ( ) SI_UNIT ( $, .RADIAN. ) );
#27 = CARTESIAN_POINT ( 'NONE',  ( -0.06250000000000000000, 0.8749999999999997780, 0.000000000000000000 ) ) ;
#28 =( LENGTH_UNIT ( ) NAMED_UNIT ( * ) SI_UNIT ( $, .METRE. ) );
#29 = DIRECTION ( 'NONE',  ( -0.000000000000000000, -1.000000000000000000, -0.000000000000000000 ) ) ;
#30 = DIRECTION ( 'NONE',  ( 0.000000000000000000, -1.000000000000000000, -0.000000000000000000 ) ) ;
#31 = CARTESIAN_POINT ( 'NONE',  ( 7.654042494670957545E-18, 0.000000000000000000, 0.06250000000000000000 ) ) ;
#32 = AXIS2_PLACEMENT_3D ( 'NONE', #235, #306, #174 ) ;
#33 = AXIS2_PLACEMENT_3D ( 'NONE', #140, #304, #216 ) ;
#34 = CARTESIAN_POINT ( 'NONE',  ( 7.654042494670957545E-18, 0.000000000000000000, 0.06250000000000000000 ) ) ;
#35 = LENGTH_MEASURE_WITH_UNIT ( LENGTH_MEASURE( 0.02539999999999999897 ), #73 );
#36 = CYLINDRICAL_SURFACE ( 'NONE', #113, 0.06250000000000000000 ) ;
#37 =( GEOMETRIC_REPRESENTATION_CONTEXT ( 3 ) GLOBAL_UNCERTAINTY_ASSIGNED_CONTEXT ( ( #41 ) ) GLOBAL_UNIT_ASSIGNED_CONTEXT ( ( #20, #84, #245 ) ) REPRESENTATION_CONTEXT ( 'NONE', 'WORKASPACE' ) );
#38 = SHAPE_DEFINITION_REPRESENTATION ( #72, #132 ) ;
#39 = DIRECTION ( 'NONE',  ( -1.000000000000000000, 0.000000000000000000, 0.000000000000000000 ) ) ;
#40 =( GEOMETRIC_REPRESENTATION_CONTEXT ( 3 ) GLOBAL_UNCERTAINTY_ASSIGNED_CONTEXT ( ( #146 ) ) GLOBAL_UNIT_ASSIGNED_CONTEXT ( ( #194, #164, #143 ) ) REPRESENTATION_CONTEXT ( 'NONE', 'WORKASPACE' ) );
#41 = UNCERTAINTY_MEASURE_WITH_UNIT (LENGTH_MEASURE( 1.000000000000000082E-05 ), #20, 'distance_accuracy_value', 'NONE');
#42 =( NAMED_UNIT ( * ) PLANE_ANGLE_UNIT ( ) SI_UNIT ( $, .RADIAN. ) );
#43 = DIRECTION ( 'NONE',  ( 3.768143997376474441E-17, 1.000000000000000000, -0.000000000000000000 ) ) ;
#44 = VERTEX_POINT ( 'NONE', #27 ) ;
#45 = UNCERTAINTY_MEASURE_WITH_UNIT (LENGTH_MEASURE( 1.000000000000000082E-05 ), #211, 'distance_accuracy_value', 'NONE');
#46 = SURFACE_STYLE_FILL_AREA ( #121 ) ;
#47 = MANIFOLD_SOLID_BREP ( 'Revolve - Cutting Edge', #93 ) ;
#48 = ORIENTED_EDGE ( 'NONE', *, *, #187, .T. ) ;
#49 = FILL_AREA_STYLE ('',( #307 ) ) ;
#50 = VERTEX_POINT ( 'NONE', #192 ) ;
#51 = UNCERTAINTY_MEASURE_WITH_UNIT (LENGTH_MEASURE( 1.000000000000000082E-05 ), #22, 'distance_accuracy_value', 'NONE');
#52 = DIRECTION ( 'NONE',  ( -1.000000000000000000, 0.000000000000000000, 0.000000000000000000 ) ) ;
#53 = ORIENTED_EDGE ( 'NONE', *, *, #120, .T. ) ;
#54 = AXIS2_PLACEMENT_3D ( 'NONE', #108, #290, #5 ) ;
#55 =( NAMED_UNIT ( * ) PLANE_ANGLE_UNIT ( ) SI_UNIT ( $, .RADIAN. ) );
#56 = MANIFOLD_SOLID_BREP ( 'Revolve - Tool Body (Straight Shanked)', #268 ) ;
#57 = ORIENTED_EDGE ( 'NONE', *, *, #8, .T. ) ;
#58 = COLOUR_RGB ( '',1.000000000000000000, 0.000000000000000000, 0.000000000000000000 ) ;
#59 = CARTESIAN_POINT ( 'NONE',  ( 0.000000000000000000, 0.000000000000000000, 0.000000000000000000 ) ) ;
#60 = ORIENTED_EDGE ( 'NONE', *, *, #3, .F. ) ;
#61 = EDGE_CURVE ( 'NONE', #44, #161, #224, .T. ) ;
#62 = FILL_AREA_STYLE ('',( #242 ) ) ;
#63 = EDGE_LOOP ( 'NONE', ( #60, #239 ) ) ;
#64 = CIRCLE ( 'NONE', #228, 0.06250000000000000000 ) ;
#65 = DIMENSIONAL_EXPONENTS ( 1.000000000000000000, 0.000000000000000000, 0.000000000000000000, 0.000000000000000000, 0.000000000000000000, 0.000000000000000000, 0.000000000000000000 ) ;
#66 = ORIENTED_EDGE ( 'NONE', *, *, #18, .F. ) ;
#67 = APPLICATION_PROTOCOL_DEFINITION ( 'draft international standard', 'automotive_design', 1998, #264 ) ;
#68 = ORIENTED_EDGE ( 'NONE', *, *, #120, .F. ) ;
#69 = CARTESIAN_POINT ( 'NONE',  ( 6.123233995736772199E-17, 2.500000000000000000, 0.000000000000000000 ) ) ;
#70 = PRODUCT_CONTEXT ( 'NONE', #97, 'mechanical' ) ;
#71 = ADVANCED_FACE ( 'NONE', ( #270 ), #252, .T. ) ;
#72 = PRODUCT_DEFINITION_SHAPE ( 'NONE', 'NONE',  #122 ) ;
#73 =( LENGTH_UNIT ( ) NAMED_UNIT ( * ) SI_UNIT ( $, .METRE. ) );
#74 =( NAMED_UNIT ( * ) PLANE_ANGLE_UNIT ( ) SI_UNIT ( $, .RADIAN. ) );
#75 = DIRECTION ( 'NONE',  ( 3.768143997376474441E-17, 1.000000000000000000, -0.000000000000000000 ) ) ;
#76 = VERTEX_POINT ( 'NONE', #273 ) ;
#77 = ADVANCED_FACE ( 'NONE', ( #230 ), #214, .T. ) ;
#78 = PRESENTATION_STYLE_ASSIGNMENT (( #281 ) ) ;
#79 = ORIENTED_EDGE ( 'NONE', *, *, #18, .T. ) ;
#80 = AXIS2_PLACEMENT_3D ( 'NONE', #259, #203, #152 ) ;
#81 = AXIS2_PLACEMENT_3D ( 'NONE', #222, #29, #294 ) ;
#82 = CARTESIAN_POINT ( 'NONE',  ( 0.000000000000000000, 0.000000000000000000, 0.000000000000000000 ) ) ;
#83 = CIRCLE ( 'NONE', #241, 0.06250000000000000000 ) ;
#84 =( NAMED_UNIT ( * ) PLANE_ANGLE_UNIT ( ) SI_UNIT ( $, .RADIAN. ) );
#85 = AXIS2_PLACEMENT_3D ( 'NONE', #104, #16, #237 ) ;
#86 = PLANE ( 'NONE',  #96 ) ;
#87 = SURFACE_SIDE_STYLE ('',( #291 ) ) ;
#88 = PRESENTATION_LAYER_ASSIGNMENT (  '', '', ( #103 ) ) ;
#89 = PRESENTATION_STYLE_ASSIGNMENT (( #109 ) ) ;
#90 = FILL_AREA_STYLE_COLOUR ( '', #7 ) ;
#91 = CARTESIAN_POINT ( 'NONE',  ( 0.000000000000000000, 0.000000000000000000, 0.000000000000000000 ) ) ;
#92 = PRODUCT_DEFINITION_FORMATION_WITH_SPECIFIED_SOURCE ( 'ANY', '', #257, .NOT_KNOWN. ) ;
#93 = CLOSED_SHELL ( 'NONE', ( #282, #166, #181, #298 ) ) ;
#94 =( GEOMETRIC_REPRESENTATION_CONTEXT ( 3 ) GLOBAL_UNCERTAINTY_ASSIGNED_CONTEXT ( ( #176 ) ) GLOBAL_UNIT_ASSIGNED_CONTEXT ( ( #233, #74, #247 ) ) REPRESENTATION_CONTEXT ( 'NONE', 'WORKASPACE' ) );
#95 = DIRECTION ( 'NONE',  ( -0.000000000000000000, -1.000000000000000000, -0.000000000000000000 ) ) ;
#96 = AXIS2_PLACEMENT_3D ( 'NONE', #91, #30, #160 ) ;
#97 = APPLICATION_CONTEXT ( 'automotive_design' ) ;
#98 = SURFACE_STYLE_USAGE ( .BOTH. , #14 ) ;
#99 = CARTESIAN_POINT ( 'NONE',  ( 7.654042494670957545E-18, 0.8750000000000000000, 0.06250000000000000000 ) ) ;
#100 = FILL_AREA_STYLE_COLOUR ( '', #58 ) ;
#101 = CIRCLE ( 'NONE', #80, 0.06250000000000000000 ) ;
#102 = DIRECTION ( 'NONE',  ( 0.000000000000000000, 0.000000000000000000, -1.000000000000000000 ) ) ;
#103 = STYLED_ITEM ( 'NONE', ( #9 ), #47 ) ;
#104 = CARTESIAN_POINT ( 'NONE',  ( 4.437159120301361236E-35, 0.8750000000000000000, 0.000000000000000000 ) ) ;
#105 = ORIENTED_EDGE ( 'NONE', *, *, #126, .F. ) ;
#106 = DIRECTION ( 'NONE',  ( -0.000000000000000000, -1.000000000000000000, -0.000000000000000000 ) ) ;
#107 = PRESENTATION_LAYER_ASSIGNMENT (  '', '', ( #289 ) ) ;
#108 = CARTESIAN_POINT ( 'NONE',  ( 0.000000000000000000, 0.000000000000000000, 0.000000000000000000 ) ) ;
#109 = SURFACE_STYLE_USAGE ( .BOTH. , #87 ) ;
#110 = ORIENTED_EDGE ( 'NONE', *, *, #296, .F. ) ;
#111 = DIRECTION ( 'NONE',  ( 3.768143997376474441E-17, 1.000000000000000000, -0.000000000000000000 ) ) ;
#112 = LENGTH_MEASURE_WITH_UNIT ( LENGTH_MEASURE( 0.02539999999999999897 ), #137 );
#113 = AXIS2_PLACEMENT_3D ( 'NONE', #82, #106, #102 ) ;
#114 = CIRCLE ( 'NONE', #182, 0.06249999999999993755 ) ;
#115 = DIMENSIONAL_EXPONENTS ( 1.000000000000000000, 0.000000000000000000, 0.000000000000000000, 0.000000000000000000, 0.000000000000000000, 0.000000000000000000, 0.000000000000000000 ) ;
#116 = DIRECTION ( 'NONE',  ( 0.000000000000000000, 1.000000000000000000, 0.000000000000000000 ) ) ;
#117 = PRESENTATION_LAYER_ASSIGNMENT (  '', '', ( #17 ) ) ;
#118 = DIRECTION ( 'NONE',  ( 3.768143997376474441E-17, 1.000000000000000000, -0.000000000000000000 ) ) ;
#119 = DIRECTION ( 'NONE',  ( -1.000000000000000000, 0.000000000000000000, 0.000000000000000000 ) ) ;
#120 = EDGE_CURVE ( 'NONE', #2, #50, #272, .T. ) ;
#121 = FILL_AREA_STYLE ('',( #128 ) ) ;
#122 = PRODUCT_DEFINITION ( 'UNKNOWN', '', #92, #234 ) ;
#123 = FACE_OUTER_BOUND ( 'NONE', #286, .T. ) ;
#124 = SURFACE_SIDE_STYLE ('',( #179 ) ) ;
#125 = VERTEX_POINT ( 'NONE', #34 ) ;
#126 = EDGE_CURVE ( 'NONE', #50, #125, #229, .T. ) ;
#127 = AXIS2_PLACEMENT_3D ( 'NONE', #255, #253, #285 ) ;
#128 = FILL_AREA_STYLE_COLOUR ( '', #145 ) ;
#129 = SURFACE_STYLE_USAGE ( .BOTH. , #262 ) ;
#130 = CARTESIAN_POINT ( 'NONE',  ( 0.06250000000000000000, 0.8749999999999997780, 7.654042494670956004E-18 ) ) ;
#131 = FILL_AREA_STYLE ('',( #90 ) ) ;
#132 = ADVANCED_BREP_SHAPE_REPRESENTATION ( '83408', ( #47, #56, #197 ), #276 ) ;
#133 = APPLICATION_PROTOCOL_DEFINITION ( 'draft international standard', 'automotive_design', 1998, #97 ) ;
#134 = SURFACE_STYLE_FILL_AREA ( #62 ) ;
#135 = AXIS2_PLACEMENT_3D ( 'NONE', #69, #118, #39 ) ;
#136 = CARTESIAN_POINT ( 'NONE',  ( 0.000000000000000000, 0.8750000000000000000, 0.000000000000000000 ) ) ;
#137 =( LENGTH_UNIT ( ) NAMED_UNIT ( * ) SI_UNIT ( $, .METRE. ) );
#138 = ORIENTED_EDGE ( 'NONE', *, *, #258, .T. ) ;
#139 = PRODUCT_RELATED_PRODUCT_CATEGORY ( 'part', '', ( #257 ) ) ;
#140 = CARTESIAN_POINT ( 'NONE',  ( 6.123233995736772199E-17, 2.500000000000000000, 0.000000000000000000 ) ) ;
#141 = STYLED_ITEM ( 'NONE', ( #213 ), #166 ) ;
#142 = FACE_OUTER_BOUND ( 'NONE', #63, .T. ) ;
#143 =( NAMED_UNIT ( * ) SI_UNIT ( $, .STERADIAN. ) SOLID_ANGLE_UNIT ( ) );
#144 = FILL_AREA_STYLE ('',( #100 ) ) ;
#145 = COLOUR_RGB ( '',1.000000000000000000, 0.000000000000000000, 0.000000000000000000 ) ;
#146 = UNCERTAINTY_MEASURE_WITH_UNIT (LENGTH_MEASURE( 1.000000000000000082E-05 ), #194, 'distance_accuracy_value', 'NONE');
#147 =( GEOMETRIC_REPRESENTATION_CONTEXT ( 3 ) GLOBAL_UNCERTAINTY_ASSIGNED_CONTEXT ( ( #51 ) ) GLOBAL_UNIT_ASSIGNED_CONTEXT ( ( #22, #42, #261 ) ) REPRESENTATION_CONTEXT ( 'NONE', 'WORKASPACE' ) );
#148 = PLANE ( 'NONE',  #85 ) ;
#149 = STYLED_ITEM ( 'NONE', ( #263 ), #298 ) ;
#150 = PLANE ( 'NONE',  #127 ) ;
#151 = VERTEX_POINT ( 'NONE', #99 ) ;
#152 = DIRECTION ( 'NONE',  ( 0.000000000000000000, 0.000000000000000000, -1.000000000000000000 ) ) ;
#153 = ORIENTED_EDGE ( 'NONE', *, *, #61, .F. ) ;
#154 = FACE_OUTER_BOUND ( 'NONE', #260, .T. ) ;
#155 = STYLED_ITEM ( 'NONE', ( #78 ), #282 ) ;
#156 = DIRECTION ( 'NONE',  ( 0.000000000000000000, 0.000000000000000000, 1.000000000000000000 ) ) ;
#157 = EDGE_CURVE ( 'NONE', #161, #76, #232, .T. ) ;
#158 = ORIENTED_EDGE ( 'NONE', *, *, #240, .T. ) ;
#159 = MECHANICAL_DESIGN_GEOMETRIC_PRESENTATION_REPRESENTATION (  '', ( #17 ), #40 ) ;
#160 = DIRECTION ( 'NONE',  ( 0.000000000000000000, 0.000000000000000000, -1.000000000000000000 ) ) ;
#161 = VERTEX_POINT ( 'NONE', #249 ) ;
#162 = DIRECTION ( 'NONE',  ( 1.000000000000000000, 0.000000000000000000, 0.000000000000000000 ) ) ;
#163 = EDGE_LOOP ( 'NONE', ( #244, #158 ) ) ;
#164 =( NAMED_UNIT ( * ) PLANE_ANGLE_UNIT ( ) SI_UNIT ( $, .RADIAN. ) );
#165 = COLOUR_RGB ( '',0.7921568627450980005, 0.8196078431372548767, 0.9333333333333333481 ) ;
#166 = ADVANCED_FACE ( 'NONE', ( #142 ), #193, .T. ) ;
#167 = DIMENSIONAL_EXPONENTS ( 1.000000000000000000, 0.000000000000000000, 0.000000000000000000, 0.000000000000000000, 0.000000000000000000, 0.000000000000000000, 0.000000000000000000 ) ;
#168 = AXIS2_PLACEMENT_3D ( 'NONE', #169, #95, #13 ) ;
#169 = CARTESIAN_POINT ( 'NONE',  ( 0.000000000000000000, 0.000000000000000000, 0.000000000000000000 ) ) ;
#170 = DIRECTION ( 'NONE',  ( 3.768143997376474441E-17, 1.000000000000000000, -0.000000000000000000 ) ) ;
#171 = DIRECTION ( 'NONE',  ( 3.768143997376474441E-17, 1.000000000000000000, -0.000000000000000000 ) ) ;
#172 = MECHANICAL_DESIGN_GEOMETRIC_PRESENTATION_REPRESENTATION (  '', ( #155 ), #37 ) ;
#173 = DIMENSIONAL_EXPONENTS ( 1.000000000000000000, 0.000000000000000000, 0.000000000000000000, 0.000000000000000000, 0.000000000000000000, 0.000000000000000000, 0.000000000000000000 ) ;
#174 = DIRECTION ( 'NONE',  ( -1.000000000000000000, 0.000000000000000000, 0.000000000000000000 ) ) ;
#175 = EDGE_LOOP ( 'NONE', ( #180, #48, #53, #110 ) ) ;
#176 = UNCERTAINTY_MEASURE_WITH_UNIT (LENGTH_MEASURE( 1.000000000000000082E-05 ), #233, 'distance_accuracy_value', 'NONE');
#177 =( LENGTH_UNIT ( ) NAMED_UNIT ( * ) SI_UNIT ( $, .METRE. ) );
#178 = MECHANICAL_DESIGN_GEOMETRIC_PRESENTATION_REPRESENTATION (  '', ( #103 ), #299 ) ;
#179 = SURFACE_STYLE_FILL_AREA ( #49 ) ;
#180 = ORIENTED_EDGE ( 'NONE', *, *, #8, .F. ) ;
#181 = ADVANCED_FACE ( 'NONE', ( #303 ), #36, .T. ) ;
#182 = AXIS2_PLACEMENT_3D ( 'NONE', #199, #75, #52 ) ;
#183 =( NAMED_UNIT ( * ) SI_UNIT ( $, .STERADIAN. ) SOLID_ANGLE_UNIT ( ) );
#184 = VECTOR ( 'NONE', #207, 39.37007874015748143 ) ;
#185 = SURFACE_STYLE_FILL_AREA ( #131 ) ;
#186 = ORIENTED_EDGE ( 'NONE', *, *, #126, .T. ) ;
#187 = EDGE_CURVE ( 'NONE', #151, #2, #101, .T. ) ;
#188 = FACE_OUTER_BOUND ( 'NONE', #238, .T. ) ;
#189 = PRESENTATION_LAYER_ASSIGNMENT (  '', '', ( #155 ) ) ;
#190 = SURFACE_SIDE_STYLE ('',( #134 ) ) ;
#191 =( NAMED_UNIT ( * ) SI_UNIT ( $, .STERADIAN. ) SOLID_ANGLE_UNIT ( ) );
#192 = CARTESIAN_POINT ( 'NONE',  ( 0.000000000000000000, 0.000000000000000000, -0.06250000000000000000 ) ) ;
#193 = PLANE ( 'NONE',  #204 ) ;
#194 =( CONVERSION_BASED_UNIT ( 'INCH', #15 ) LENGTH_UNIT ( ) NAMED_UNIT ( #173 ) );
#195 = CARTESIAN_POINT ( 'NONE',  ( 6.123233995736772199E-17, 2.500000000000000000, 0.000000000000000000 ) ) ;
#196 = DIMENSIONAL_EXPONENTS ( 1.000000000000000000, 0.000000000000000000, 0.000000000000000000, 0.000000000000000000, 0.000000000000000000, 0.000000000000000000, 0.000000000000000000 ) ;
#197 = AXIS2_PLACEMENT_3D ( 'NONE', #59, #156, #162 ) ;
#198 = VECTOR ( 'NONE', #227, 39.37007874015748143 ) ;
#199 = CARTESIAN_POINT ( 'NONE',  ( 6.123233995736772199E-17, 2.500000000000000000, 0.000000000000000000 ) ) ;
#200 = ORIENTED_EDGE ( 'NONE', *, *, #3, .T. ) ;
#201 = FACE_OUTER_BOUND ( 'NONE', #163, .T. ) ;
#202 = ORIENTED_EDGE ( 'NONE', *, *, #258, .F. ) ;
#203 = DIRECTION ( 'NONE',  ( -0.000000000000000000, -1.000000000000000000, -0.000000000000000000 ) ) ;
#204 = AXIS2_PLACEMENT_3D ( 'NONE', #251, #116, #301 ) ;
#205 = CARTESIAN_POINT ( 'NONE',  ( -0.06249999999999990286, 2.500000000000000000, 0.000000000000000000 ) ) ;
#206 = DIRECTION ( 'NONE',  ( -0.000000000000000000, -1.000000000000000000, -0.000000000000000000 ) ) ;
#207 = DIRECTION ( 'NONE',  ( -0.000000000000000000, -1.000000000000000000, -0.000000000000000000 ) ) ;
#208 =( LENGTH_UNIT ( ) NAMED_UNIT ( * ) SI_UNIT ( $, .METRE. ) );
#209 =( LENGTH_UNIT ( ) NAMED_UNIT ( * ) SI_UNIT ( $, .METRE. ) );
#210 = COLOUR_RGB ( '',1.000000000000000000, 0.000000000000000000, 0.000000000000000000 ) ;
#211 =( CONVERSION_BASED_UNIT ( 'INCH', #112 ) LENGTH_UNIT ( ) NAMED_UNIT ( #231 ) );
#212 = ADVANCED_FACE ( 'NONE', ( #201 ), #150, .F. ) ;
#213 = PRESENTATION_STYLE_ASSIGNMENT (( #98 ) ) ;
#214 = CYLINDRICAL_SURFACE ( 'NONE', #33, 0.06249999999999996531 ) ;
#215 = EDGE_CURVE ( 'NONE', #44, #288, #221, .T. ) ;
#216 = DIRECTION ( 'NONE',  ( -1.000000000000000000, 0.000000000000000000, 0.000000000000000000 ) ) ;
#217 =( LENGTH_UNIT ( ) NAMED_UNIT ( * ) SI_UNIT ( $, .METRE. ) );
#218 = CYLINDRICAL_SURFACE ( 'NONE', #54, 0.06250000000000000000 ) ;
#219 = PRESENTATION_STYLE_ASSIGNMENT (( #287 ) ) ;
#220 =( NAMED_UNIT ( * ) SI_UNIT ( $, .STERADIAN. ) SOLID_ANGLE_UNIT ( ) );
#221 = CIRCLE ( 'NONE', #32, 0.06250000000000000000 ) ;
#222 = CARTESIAN_POINT ( 'NONE',  ( 0.000000000000000000, 0.000000000000000000, 0.000000000000000000 ) ) ;
#223 = DIRECTION ( 'NONE',  ( 0.000000000000000000, 0.000000000000000000, -1.000000000000000000 ) ) ;
#224 = LINE ( 'NONE', #205, #24 ) ;
#225 =( CONVERSION_BASED_UNIT ( 'INCH', #11 ) LENGTH_UNIT ( ) NAMED_UNIT ( #115 ) );
#226 = MECHANICAL_DESIGN_GEOMETRIC_PRESENTATION_REPRESENTATION (  '', ( #149 ), #256 ) ;
#227 = DIRECTION ( 'NONE',  ( -0.000000000000000000, -1.000000000000000000, -0.000000000000000000 ) ) ;
#228 = AXIS2_PLACEMENT_3D ( 'NONE', #297, #111, #4 ) ;
#229 = CIRCLE ( 'NONE', #168, 0.06250000000000000000 ) ;
#230 = FACE_OUTER_BOUND ( 'NONE', #300, .T. ) ;
#231 = DIMENSIONAL_EXPONENTS ( 1.000000000000000000, 0.000000000000000000, 0.000000000000000000, 0.000000000000000000, 0.000000000000000000, 0.000000000000000000, 0.000000000000000000 ) ;
#232 = CIRCLE ( 'NONE', #135, 0.06249999999999993755 ) ;
#233 =( CONVERSION_BASED_UNIT ( 'INCH', #35 ) LENGTH_UNIT ( ) NAMED_UNIT ( #167 ) );
#234 = PRODUCT_DEFINITION_CONTEXT ( 'detailed design', #264, 'design' ) ;
#235 = CARTESIAN_POINT ( 'NONE',  ( 0.000000000000000000, 0.8749999999999997780, 0.000000000000000000 ) ) ;
#236 = MECHANICAL_DESIGN_GEOMETRIC_PRESENTATION_REPRESENTATION (  '', ( #289 ), #147 ) ;
#237 = DIRECTION ( 'NONE',  ( -1.000000000000000000, 3.768143997376474441E-17, 0.000000000000000000 ) ) ;
#238 = EDGE_LOOP ( 'NONE', ( #186, #21 ) ) ;
#239 = ORIENTED_EDGE ( 'NONE', *, *, #187, .F. ) ;
#240 = EDGE_CURVE ( 'NONE', #76, #161, #114, .T. ) ;
#241 = AXIS2_PLACEMENT_3D ( 'NONE', #136, #206, #223 ) ;
#242 = FILL_AREA_STYLE_COLOUR ( '', #302 ) ;
#243 =( NAMED_UNIT ( * ) PLANE_ANGLE_UNIT ( ) SI_UNIT ( $, .RADIAN. ) );
#244 = ORIENTED_EDGE ( 'NONE', *, *, #157, .T. ) ;
#245 =( NAMED_UNIT ( * ) SI_UNIT ( $, .STERADIAN. ) SOLID_ANGLE_UNIT ( ) );
#246 = ORIENTED_EDGE ( 'NONE', *, *, #157, .F. ) ;
#247 =( NAMED_UNIT ( * ) SI_UNIT ( $, .STERADIAN. ) SOLID_ANGLE_UNIT ( ) );
#248 = VECTOR ( 'NONE', #43, 39.37007874015748143 ) ;
#249 = CARTESIAN_POINT ( 'NONE',  ( -0.06249999999999988204, 2.500000000000000000, 0.000000000000000000 ) ) ;
#250 = SURFACE_STYLE_FILL_AREA ( #144 ) ;
#251 = CARTESIAN_POINT ( 'NONE',  ( 0.000000000000000000, 0.8750000000000000000, 0.000000000000000000 ) ) ;
#252 = CYLINDRICAL_SURFACE ( 'NONE', #12, 0.06249999999999996531 ) ;
#253 = DIRECTION ( 'NONE',  ( -3.768143997376474441E-17, -1.000000000000000000, 0.000000000000000000 ) ) ;
#254 = LINE ( 'NONE', #1, #248 ) ;
#255 = CARTESIAN_POINT ( 'NONE',  ( 0.06250000000000000000, 2.500000000000000000, 0.000000000000000000 ) ) ;
#256 =( GEOMETRIC_REPRESENTATION_CONTEXT ( 3 ) GLOBAL_UNCERTAINTY_ASSIGNED_CONTEXT ( ( #274 ) ) GLOBAL_UNIT_ASSIGNED_CONTEXT ( ( #10, #26, #220 ) ) REPRESENTATION_CONTEXT ( 'NONE', 'WORKASPACE' ) );
#257 = PRODUCT ( '83408', '83408', '', ( #70 ) ) ;
#258 = EDGE_CURVE ( 'NONE', #288, #76, #254, .T. ) ;
#259 = CARTESIAN_POINT ( 'NONE',  ( 0.000000000000000000, 0.8750000000000000000, 0.000000000000000000 ) ) ;
#260 = EDGE_LOOP ( 'NONE', ( #19, #66 ) ) ;
#261 =( NAMED_UNIT ( * ) SI_UNIT ( $, .STERADIAN. ) SOLID_ANGLE_UNIT ( ) );
#262 = SURFACE_SIDE_STYLE ('',( #185 ) ) ;
#263 = PRESENTATION_STYLE_ASSIGNMENT (( #267 ) ) ;
#264 = APPLICATION_CONTEXT ( 'automotive_design' ) ;
#265 = LINE ( 'NONE', #31, #184 ) ;
#266 = CARTESIAN_POINT ( 'NONE',  ( 0.000000000000000000, 0.8750000000000000000, -0.06250000000000000000 ) ) ;
#267 = SURFACE_STYLE_USAGE ( .BOTH. , #190 ) ;
#268 = CLOSED_SHELL ( 'NONE', ( #71, #277, #77, #212 ) ) ;
#269 = ORIENTED_EDGE ( 'NONE', *, *, #61, .T. ) ;
#270 = FACE_OUTER_BOUND ( 'NONE', #295, .T. ) ;
#271 = DIMENSIONAL_EXPONENTS ( 1.000000000000000000, 0.000000000000000000, 0.000000000000000000, 0.000000000000000000, 0.000000000000000000, 0.000000000000000000, 0.000000000000000000 ) ;
#272 = LINE ( 'NONE', #305, #198 ) ;
#273 = CARTESIAN_POINT ( 'NONE',  ( 0.06250000000000000000, 2.500000000000000000, 7.654042494670956004E-18 ) ) ;
#274 = UNCERTAINTY_MEASURE_WITH_UNIT (LENGTH_MEASURE( 1.000000000000000082E-05 ), #10, 'distance_accuracy_value', 'NONE');
#275 = CIRCLE ( 'NONE', #81, 0.06250000000000000000 ) ;
#276 =( GEOMETRIC_REPRESENTATION_CONTEXT ( 3 ) GLOBAL_UNCERTAINTY_ASSIGNED_CONTEXT ( ( #45 ) ) GLOBAL_UNIT_ASSIGNED_CONTEXT ( ( #211, #55, #183 ) ) REPRESENTATION_CONTEXT ( 'NONE', 'WORKASPACE' ) );
#277 = ADVANCED_FACE ( 'NONE', ( #154 ), #148, .F. ) ;
#278 = PRESENTATION_LAYER_ASSIGNMENT (  '', '', ( #141 ) ) ;
#279 = LENGTH_MEASURE_WITH_UNIT ( LENGTH_MEASURE( 0.02539999999999999897 ), #217 );
#280 = MECHANICAL_DESIGN_GEOMETRIC_PRESENTATION_REPRESENTATION (  '', ( #141 ), #94 ) ;
#281 = SURFACE_STYLE_USAGE ( .BOTH. , #124 ) ;
#282 = ADVANCED_FACE ( 'NONE', ( #123 ), #218, .T. ) ;
#283 = SURFACE_SIDE_STYLE ('',( #46 ) ) ;
#284 = UNCERTAINTY_MEASURE_WITH_UNIT (LENGTH_MEASURE( 1.000000000000000082E-05 ), #225, 'distance_accuracy_value', 'NONE');
#285 = DIRECTION ( 'NONE',  ( 1.000000000000000000, -3.768143997376474441E-17, 0.000000000000000000 ) ) ;
#286 = EDGE_LOOP ( 'NONE', ( #200, #57, #105, #68 ) ) ;
#287 = SURFACE_STYLE_USAGE ( .BOTH. , #283 ) ;
#288 = VERTEX_POINT ( 'NONE', #130 ) ;
#289 = STYLED_ITEM ( 'NONE', ( #219 ), #181 ) ;
#290 = DIRECTION ( 'NONE',  ( -0.000000000000000000, -1.000000000000000000, -0.000000000000000000 ) ) ;
#291 = SURFACE_STYLE_FILL_AREA ( #6 ) ;
#292 = LENGTH_MEASURE_WITH_UNIT ( LENGTH_MEASURE( 0.02539999999999999897 ), #208 );
#293 = FILL_AREA_STYLE_COLOUR ( '', #165 ) ;
#294 = DIRECTION ( 'NONE',  ( 0.000000000000000000, 0.000000000000000000, -1.000000000000000000 ) ) ;
#295 = EDGE_LOOP ( 'NONE', ( #25, #138, #246, #153 ) ) ;
#296 = EDGE_CURVE ( 'NONE', #125, #50, #275, .T. ) ;
#297 = CARTESIAN_POINT ( 'NONE',  ( 0.000000000000000000, 0.8749999999999997780, 0.000000000000000000 ) ) ;
#298 = ADVANCED_FACE ( 'NONE', ( #188 ), #86, .T. ) ;
#299 =( GEOMETRIC_REPRESENTATION_CONTEXT ( 3 ) GLOBAL_UNCERTAINTY_ASSIGNED_CONTEXT ( ( #284 ) ) GLOBAL_UNIT_ASSIGNED_CONTEXT ( ( #225, #243, #191 ) ) REPRESENTATION_CONTEXT ( 'NONE', 'WORKASPACE' ) );
#300 = EDGE_LOOP ( 'NONE', ( #202, #79, #269, #308 ) ) ;
#301 = DIRECTION ( 'NONE',  ( 0.000000000000000000, -0.000000000000000000, 1.000000000000000000 ) ) ;
#302 = COLOUR_RGB ( '',1.000000000000000000, 0.000000000000000000, 0.000000000000000000 ) ;
#303 = FACE_OUTER_BOUND ( 'NONE', #175, .T. ) ;
#304 = DIRECTION ( 'NONE',  ( 3.768143997376474441E-17, 1.000000000000000000, -0.000000000000000000 ) ) ;
#305 = CARTESIAN_POINT ( 'NONE',  ( 0.000000000000000000, 0.000000000000000000, -0.06250000000000000000 ) ) ;
#306 = DIRECTION ( 'NONE',  ( 3.768143997376474441E-17, 1.000000000000000000, -0.000000000000000000 ) ) ;
#307 = FILL_AREA_STYLE_COLOUR ( '', #210 ) ;
#308 = ORIENTED_EDGE ( 'NONE', *, *, #240, .F. ) ;
#309 = LENGTH_MEASURE_WITH_UNIT ( LENGTH_MEASURE( 0.02539999999999999897 ), #177 );
ENDSEC;
END-ISO-10303-21;
