ISO-10303-21;
HEADER;
FILE_DESCRIPTION (( 'STEP AP214' ),
    '1' );
FILE_NAME ('Micro_GEC-093-4-005X.STEP',
    '2021-09-03T17:05:57',
    ( '' ),
    ( '' ),
    'SwSTEP 2.0',
    'SolidWorks 2020',
    '' );
FILE_SCHEMA (( 'AUTOMOTIVE_DESIGN' ));
ENDSEC;

DATA;
#1 = EDGE_LOOP ( 'NONE', ( #89, #131, #293, #159 ) ) ;
#2 = ORIENTED_EDGE ( 'NONE', *, *, #94, .T. ) ;
#3 = CIRCLE ( 'NONE', #108, 0.06250000000000002776 ) ;
#4 = DIRECTION ( 'NONE',  ( -0.0000000000000000000, -0.0000000000000000000, -1.000000000000000000 ) ) ;
#5 = EDGE_CURVE ( 'NONE', #222, #106, #326, .T. ) ;
#6 = DIRECTION ( 'NONE',  ( -0.0000000000000000000, -0.0000000000000000000, -1.000000000000000000 ) ) ;
#7 = FACE_OUTER_BOUND ( 'NONE', #351, .T. ) ;
#8 = LINE ( 'NONE', #10, #130 ) ;
#9 = CARTESIAN_POINT ( 'NONE',  ( 0.0000000000000000000, 0.0000000000000000000, 0.0000000000000000000 ) ) ;
#10 = CARTESIAN_POINT ( 'NONE',  ( -0.04685310000000000169, 0.0000000000000000000, 5.737849894513087439E-18 ) ) ;
#11 = PRESENTATION_LAYER_ASSIGNMENT (  '', '', ( #80 ) ) ;
#12 = CARTESIAN_POINT ( 'NONE',  ( -0.04750000000000064587, 0.0000000000000000000, 1.500000000000000222 ) ) ;
#13 = DIRECTION ( 'NONE',  ( -1.000000000000000000, 0.0000000000000000000, 1.224646799147353700E-16 ) ) ;
#14 = DIRECTION ( 'NONE',  ( -0.7071067811865462405, 0.0000000000000000000, -0.7071067811865486830 ) ) ;
#15 =( LENGTH_UNIT ( ) NAMED_UNIT ( * ) SI_UNIT ( $, .METRE. ) );
#16 = STYLED_ITEM ( 'NONE', ( #324 ), #105 ) ;
#17 = PRODUCT ( 'Micro_GEC-093-4-005X', 'Micro_GEC-093-4-005X', '', ( #132 ) ) ;
#18 = VERTEX_POINT ( 'NONE', #192 ) ;
#19 = SURFACE_SIDE_STYLE ('',( #258 ) ) ;
#20 = ORIENTED_EDGE ( 'NONE', *, *, #233, .T. ) ;
#21 = APPLICATION_PROTOCOL_DEFINITION ( 'draft international standard', 'automotive_design', 1998, #67 ) ;
#22 = EDGE_LOOP ( 'NONE', ( #193, #61 ) ) ;
#23 = EDGE_CURVE ( 'NONE', #46, #84, #217, .T. ) ;
#24 = CARTESIAN_POINT ( 'NONE',  ( -0.04750000000000064587, 0.0000000000000000000, 1.500000000000000222 ) ) ;
#25 = DIRECTION ( 'NONE',  ( 1.000000000000000000, 0.0000000000000000000, 0.0000000000000000000 ) ) ;
#26 = LINE ( 'NONE', #245, #294 ) ;
#27 = CARTESIAN_POINT ( 'NONE',  ( 0.06250000000000008327, 7.654042494670966789E-18, 0.4637379795033760299 ) ) ;
#28 = EDGE_CURVE ( 'NONE', #262, #342, #195, .T. ) ;
#29 = CARTESIAN_POINT ( 'NONE',  ( 4.592425496802576684E-17, 0.0000000000000000000, 0.3750000000000000555 ) ) ;
#30 = AXIS2_PLACEMENT_3D ( 'NONE', #281, #279, #32 ) ;
#31 = CARTESIAN_POINT ( 'NONE',  ( 0.06250000000000002776, 7.654042494670959086E-18, 1.500000000000000222 ) ) ;
#32 = DIRECTION ( 'NONE',  ( 1.000000000000000000, 0.0000000000000000000, -0.0000000000000000000 ) ) ;
#33 = EDGE_CURVE ( 'NONE', #84, #232, #277, .T. ) ;
#34 = CARTESIAN_POINT ( 'NONE',  ( 4.592425496802576684E-17, 0.0000000000000000000, 0.3750000000000000555 ) ) ;
#35 = APPLICATION_CONTEXT ( 'automotive_design' ) ;
#36 = DIRECTION ( 'NONE',  ( -1.000000000000000000, 0.0000000000000000000, 0.0000000000000000000 ) ) ;
#37 = DIRECTION ( 'NONE',  ( 0.0000000000000000000, 0.0000000000000000000, 1.000000000000000000 ) ) ;
#38 = AXIS2_PLACEMENT_3D ( 'NONE', #165, #303, #247 ) ;
#39 = CARTESIAN_POINT ( 'NONE',  ( 0.0000000000000000000, 0.0000000000000000000, 1.500000000000000222 ) ) ;
#40 = CARTESIAN_POINT ( 'NONE',  ( 0.04185310000000000419, 0.0000000000000000000, 0.005000000000000000104 ) ) ;
#41 = CYLINDRICAL_SURFACE ( 'NONE', #57, 0.04685310000000000169 ) ;
#42 = ORIENTED_EDGE ( 'NONE', *, *, #5, .F. ) ;
#43 = ORIENTED_EDGE ( 'NONE', *, *, #115, .T. ) ;
#44 = DIRECTION ( 'NONE',  ( 0.0000000000000000000, 0.0000000000000000000, 1.000000000000000000 ) ) ;
#45 = ORIENTED_EDGE ( 'NONE', *, *, #156, .T. ) ;
#46 = VERTEX_POINT ( 'NONE', #117 ) ;
#47 =( CONVERSION_BASED_UNIT ( 'INCH', #235 ) LENGTH_UNIT ( ) NAMED_UNIT ( #166 ) );
#48 = ORIENTED_EDGE ( 'NONE', *, *, #33, .F. ) ;
#49 = DIRECTION ( 'NONE',  ( 1.000000000000000000, 0.0000000000000000000, 0.0000000000000000000 ) ) ;
#50 = AXIS2_PLACEMENT_3D ( 'NONE', #273, #86, #243 ) ;
#51 = ORIENTED_EDGE ( 'NONE', *, *, #233, .F. ) ;
#52 =( LENGTH_UNIT ( ) NAMED_UNIT ( * ) SI_UNIT ( $, .METRE. ) );
#53 = DIRECTION ( 'NONE',  ( -1.000000000000000000, 0.0000000000000000000, 0.0000000000000000000 ) ) ;
#54 = LINE ( 'NONE', #237, #164 ) ;
#55 = CARTESIAN_POINT ( 'NONE',  ( 5.679152322418704750E-17, 0.0000000000000000000, 0.4637379795033760299 ) ) ;
#56 = TOROIDAL_SURFACE ( 'NONE', #316, 0.04185310000000000419, 0.005000000000000000104 ) ;
#57 = AXIS2_PLACEMENT_3D ( 'NONE', #9, #284, #13 ) ;
#58 = CYLINDRICAL_SURFACE ( 'NONE', #38, 0.04685310000000000169 ) ;
#59 = ORIENTED_EDGE ( 'NONE', *, *, #28, .T. ) ;
#60 = VERTEX_POINT ( 'NONE', #24 ) ;
#61 = ORIENTED_EDGE ( 'NONE', *, *, #128, .T. ) ;
#62 = CARTESIAN_POINT ( 'NONE',  ( -0.04185310000000000419, 5.125526494939409110E-18, 0.005000000000000000104 ) ) ;
#63 = ORIENTED_EDGE ( 'NONE', *, *, #343, .T. ) ;
#64 = PLANE ( 'NONE',  #30 ) ;
#65 = EDGE_CURVE ( 'NONE', #163, #97, #139, .T. ) ;
#66 = DIRECTION ( 'NONE',  ( 1.000000000000000000, 0.0000000000000000000, 0.0000000000000000000 ) ) ;
#67 = APPLICATION_CONTEXT ( 'automotive_design' ) ;
#68 = VECTOR ( 'NONE', #325, 39.37007874015748143 ) ;
#69 = CARTESIAN_POINT ( 'NONE',  ( 6.123233995736768848E-19, 0.0000000000000000000, 0.0000000000000000000 ) ) ;
#70 = PRODUCT_DEFINITION_FORMATION_WITH_SPECIFIED_SOURCE ( 'ANY', '', #17, .NOT_KNOWN. ) ;
#71 = DIRECTION ( 'NONE',  ( 0.0000000000000000000, 0.0000000000000000000, 1.000000000000000000 ) ) ;
#72 = ADVANCED_FACE ( 'NONE', ( #242 ), #56, .T. ) ;
#73 = DIRECTION ( 'NONE',  ( -1.000000000000000000, 0.0000000000000000000, 0.0000000000000000000 ) ) ;
#74 = AXIS2_PLACEMENT_3D ( 'NONE', #168, #143, #25 ) ;
#75 = AXIS2_PLACEMENT_3D ( 'NONE', #124, #227, #73 ) ;
#76 = DIRECTION ( 'NONE',  ( 1.000000000000000000, 0.0000000000000000000, 0.0000000000000000000 ) ) ;
#77 = FILL_AREA_STYLE ('',( #239 ) ) ;
#78 = EDGE_CURVE ( 'NONE', #46, #60, #206, .T. ) ;
#79 = ORIENTED_EDGE ( 'NONE', *, *, #254, .F. ) ;
#80 = STYLED_ITEM ( 'NONE', ( #142 ), #336 ) ;
#81 = ORIENTED_EDGE ( 'NONE', *, *, #187, .T. ) ;
#82 = DIRECTION ( 'NONE',  ( -0.0000000000000000000, -0.0000000000000000000, -1.000000000000000000 ) ) ;
#83 = CARTESIAN_POINT ( 'NONE',  ( 6.123233995736769811E-19, 0.0000000000000000000, 0.005000000000000000971 ) ) ;
#84 = VERTEX_POINT ( 'NONE', #114 ) ;
#85 = AXIS2_PLACEMENT_3D ( 'NONE', #224, #44, #250 ) ;
#86 = DIRECTION ( 'NONE',  ( 0.0000000000000000000, 0.0000000000000000000, -1.000000000000000000 ) ) ;
#87 = DIRECTION ( 'NONE',  ( 0.0000000000000000000, 0.0000000000000000000, 1.000000000000000000 ) ) ;
#88 = PRODUCT_DEFINITION ( 'UNKNOWN', '', #70, #182 ) ;
#89 = ORIENTED_EDGE ( 'NONE', *, *, #115, .F. ) ;
#90 = AXIS2_PLACEMENT_3D ( 'NONE', #69, #176, #66 ) ;
#91 = CIRCLE ( 'NONE', #147, 0.04750000000000064587 ) ;
#92 = CONICAL_SURFACE ( 'NONE', #295, 0.04685310000000000863, 0.1745329251994338637 ) ;
#93 = DIRECTION ( 'NONE',  ( 0.0000000000000000000, 0.0000000000000000000, -1.000000000000000000 ) ) ;
#94 = EDGE_CURVE ( 'NONE', #18, #97, #127, .T. ) ;
#95 = CYLINDRICAL_SURFACE ( 'NONE', #265, 0.06250000000000002776 ) ;
#96 = PRODUCT_DEFINITION_SHAPE ( 'NONE', 'NONE',  #88 ) ;
#97 = VERTEX_POINT ( 'NONE', #27 ) ;
#98 = AXIS2_PLACEMENT_3D ( 'NONE', #55, #137, #189 ) ;
#99 = ADVANCED_FACE ( 'NONE', ( #300 ), #58, .T. ) ;
#100 = PLANE ( 'NONE',  #241 ) ;
#101 = VECTOR ( 'NONE', #249, 39.37007874015747433 ) ;
#102 = LENGTH_MEASURE_WITH_UNIT ( LENGTH_MEASURE( 0.02539999999999999897 ), #15 );
#103 = EDGE_CURVE ( 'NONE', #232, #18, #26, .T. ) ;
#104 = EDGE_LOOP ( 'NONE', ( #188, #20, #340, #155 ) ) ;
#105 = ADVANCED_BREP_SHAPE_REPRESENTATION ( 'Micro_GEC-093-4-005X', ( #336, #310 ), #141 ) ;
#106 = VERTEX_POINT ( 'NONE', #119 ) ;
#107 =( NAMED_UNIT ( * ) SI_UNIT ( $, .STERADIAN. ) SOLID_ANGLE_UNIT ( ) );
#108 = AXIS2_PLACEMENT_3D ( 'NONE', #312, #315, #76 ) ;
#109 = SHAPE_DEFINITION_REPRESENTATION ( #96, #105 ) ;
#110 = SURFACE_SIDE_STYLE ('',( #183 ) ) ;
#111 = ORIENTED_EDGE ( 'NONE', *, *, #272, .F. ) ;
#112 = DIRECTION ( 'NONE',  ( 1.000000000000000000, 0.0000000000000000000, 0.0000000000000000000 ) ) ;
#113 = VECTOR ( 'NONE', #327, 39.37007874015748854 ) ;
#114 = CARTESIAN_POINT ( 'NONE',  ( 0.06250000000000002776, 7.654042494670959086E-18, 1.485000000000000764 ) ) ;
#115 = EDGE_CURVE ( 'NONE', #84, #97, #328, .T. ) ;
#116 = VERTEX_POINT ( 'NONE', #122 ) ;
#117 = CARTESIAN_POINT ( 'NONE',  ( 0.04750000000000064587, 6.735557395310483192E-18, 1.500000000000000222 ) ) ;
#118 = MECHANICAL_DESIGN_GEOMETRIC_PRESENTATION_REPRESENTATION (  '', ( #16 ), #288 ) ;
#119 = CARTESIAN_POINT ( 'NONE',  ( -0.04185310000000000419, 5.431688194726247504E-18, 0.0000000000000000000 ) ) ;
#120 = UNCERTAINTY_MEASURE_WITH_UNIT (LENGTH_MEASURE( 1.000000000000000082E-05 ), #202, 'distance_accuracy_value', 'NONE');
#121 = DIRECTION ( 'NONE',  ( 1.000000000000000000, 0.0000000000000000000, 0.0000000000000000000 ) ) ;
#122 = CARTESIAN_POINT ( 'NONE',  ( -0.04685309999999996700, 6.695946194592023262E-18, 0.3750000000000000555 ) ) ;
#123 = DIRECTION ( 'NONE',  ( 1.224646799147353700E-16, 0.0000000000000000000, 1.000000000000000000 ) ) ;
#124 = CARTESIAN_POINT ( 'NONE',  ( 4.592425496802576684E-17, 0.0000000000000000000, 0.3750000000000000555 ) ) ;
#125 = AXIS2_PLACEMENT_3D ( 'NONE', #40, #251, #126 ) ;
#126 = DIRECTION ( 'NONE',  ( 0.0000000000000000000, 0.0000000000000000000, -1.000000000000000000 ) ) ;
#127 = CIRCLE ( 'NONE', #98, 0.06250000000000002776 ) ;
#128 = EDGE_CURVE ( 'NONE', #106, #222, #236, .T. ) ;
#129 = FACE_OUTER_BOUND ( 'NONE', #296, .T. ) ;
#130 = VECTOR ( 'NONE', #229, 39.37007874015748143 ) ;
#131 = ORIENTED_EDGE ( 'NONE', *, *, #33, .T. ) ;
#132 = PRODUCT_CONTEXT ( 'NONE', #67, 'mechanical' ) ;
#133 = ORIENTED_EDGE ( 'NONE', *, *, #272, .T. ) ;
#134 = CARTESIAN_POINT ( 'NONE',  ( 0.04685310000000005026, 0.0000000000000000000, 0.3750000000000000555 ) ) ;
#135 = EDGE_LOOP ( 'NONE', ( #348, #321, #173, #292 ) ) ;
#136 = CARTESIAN_POINT ( 'NONE',  ( 6.123233995736769811E-19, 0.0000000000000000000, 0.005000000000000000971 ) ) ;
#137 = DIRECTION ( 'NONE',  ( -1.224646799147353700E-16, -0.0000000000000000000, -1.000000000000000000 ) ) ;
#138 = DIMENSIONAL_EXPONENTS ( 1.000000000000000000, 0.0000000000000000000, 0.0000000000000000000, 0.0000000000000000000, 0.0000000000000000000, 0.0000000000000000000, 0.0000000000000000000 ) ;
#139 = LINE ( 'NONE', #134, #68 ) ;
#140 = CIRCLE ( 'NONE', #125, 0.005000000000000000104 ) ;
#141 =( GEOMETRIC_REPRESENTATION_CONTEXT ( 3 ) GLOBAL_UNCERTAINTY_ASSIGNED_CONTEXT ( ( #313 ) ) GLOBAL_UNIT_ASSIGNED_CONTEXT ( ( #291, #267, #215 ) ) REPRESENTATION_CONTEXT ( 'NONE', 'WORKASPACE' ) );
#142 = PRESENTATION_STYLE_ASSIGNMENT (( #339 ) ) ;
#143 = DIRECTION ( 'NONE',  ( -0.0000000000000000000, -0.0000000000000000000, -1.000000000000000000 ) ) ;
#144 = CARTESIAN_POINT ( 'NONE',  ( 0.04185310000000000419, 0.0000000000000000000, 0.0000000000000000000 ) ) ;
#145 = DIRECTION ( 'NONE',  ( -1.224646799147353700E-16, -0.0000000000000000000, -1.000000000000000000 ) ) ;
#146 = DIRECTION ( 'NONE',  ( 1.000000000000000000, 0.0000000000000000000, 0.0000000000000000000 ) ) ;
#147 = AXIS2_PLACEMENT_3D ( 'NONE', #177, #37, #287 ) ;
#148 = FACE_OUTER_BOUND ( 'NONE', #1, .T. ) ;
#149 = CARTESIAN_POINT ( 'NONE',  ( 0.04685310000000005026, 0.0000000000000000000, 0.3750000000000000555 ) ) ;
#150 = ADVANCED_FACE ( 'NONE', ( #172 ), #95, .T. ) ;
#151 = CYLINDRICAL_SURFACE ( 'NONE', #259, 0.06250000000000002776 ) ;
#152 = DIRECTION ( 'NONE',  ( 0.0000000000000000000, 0.0000000000000000000, -1.000000000000000000 ) ) ;
#153 = FILL_AREA_STYLE ('',( #154 ) ) ;
#154 = FILL_AREA_STYLE_COLOUR ( '', #181 ) ;
#155 = ORIENTED_EDGE ( 'NONE', *, *, #204, .F. ) ;
#156 = EDGE_CURVE ( 'NONE', #222, #342, #140, .T. ) ;
#157 = ORIENTED_EDGE ( 'NONE', *, *, #94, .F. ) ;
#158 = EDGE_LOOP ( 'NONE', ( #51, #63, #319, #59 ) ) ;
#159 = ORIENTED_EDGE ( 'NONE', *, *, #345, .F. ) ;
#160 = AXIS2_PLACEMENT_3D ( 'NONE', #83, #87, #269 ) ;
#161 = AXIS2_PLACEMENT_3D ( 'NONE', #62, #335, #198 ) ;
#162 = ADVANCED_FACE ( 'NONE', ( #280 ), #338, .T. ) ;
#163 = VERTEX_POINT ( 'NONE', #149 ) ;
#164 = VECTOR ( 'NONE', #213, 39.37007874015748143 ) ;
#165 = CARTESIAN_POINT ( 'NONE',  ( 0.0000000000000000000, 0.0000000000000000000, 0.0000000000000000000 ) ) ;
#166 = DIMENSIONAL_EXPONENTS ( 1.000000000000000000, 0.0000000000000000000, 0.0000000000000000000, 0.0000000000000000000, 0.0000000000000000000, 0.0000000000000000000, 0.0000000000000000000 ) ;
#167 = CARTESIAN_POINT ( 'NONE',  ( 0.0000000000000000000, 0.0000000000000000000, 1.500000000000000222 ) ) ;
#168 = CARTESIAN_POINT ( 'NONE',  ( 6.123233995736768848E-19, 0.0000000000000000000, 0.0000000000000000000 ) ) ;
#169 = CIRCLE ( 'NONE', #161, 0.004999999999999997502 ) ;
#170 = FACE_OUTER_BOUND ( 'NONE', #205, .T. ) ;
#171 = DIRECTION ( 'NONE',  ( 1.000000000000000000, 0.0000000000000000000, 0.0000000000000000000 ) ) ;
#172 = FACE_OUTER_BOUND ( 'NONE', #274, .T. ) ;
#173 = ORIENTED_EDGE ( 'NONE', *, *, #180, .F. ) ;
#174 = CARTESIAN_POINT ( 'NONE',  ( 0.0000000000000000000, 0.0000000000000000000, 1.500000000000000222 ) ) ;
#175 = FACE_OUTER_BOUND ( 'NONE', #104, .T. ) ;
#176 = DIRECTION ( 'NONE',  ( -0.0000000000000000000, -0.0000000000000000000, -1.000000000000000000 ) ) ;
#177 = CARTESIAN_POINT ( 'NONE',  ( 0.0000000000000000000, 0.0000000000000000000, 1.500000000000000222 ) ) ;
#178 = ORIENTED_EDGE ( 'NONE', *, *, #128, .F. ) ;
#179 = DIMENSIONAL_EXPONENTS ( 1.000000000000000000, 0.0000000000000000000, 0.0000000000000000000, 0.0000000000000000000, 0.0000000000000000000, 0.0000000000000000000, 0.0000000000000000000 ) ;
#180 = EDGE_CURVE ( 'NONE', #232, #84, #226, .T. ) ;
#181 = COLOUR_RGB ( '',0.7921568627450980005, 0.8196078431372548767, 0.9333333333333333481 ) ;
#182 = PRODUCT_DEFINITION_CONTEXT ( 'detailed design', #35, 'design' ) ;
#183 = SURFACE_STYLE_FILL_AREA ( #77 ) ;
#184 = TOROIDAL_SURFACE ( 'NONE', #85, 0.04185310000000000419, 0.005000000000000000104 ) ;
#185 = ORIENTED_EDGE ( 'NONE', *, *, #65, .F. ) ;
#186 = APPLICATION_PROTOCOL_DEFINITION ( 'draft international standard', 'automotive_design', 1998, #35 ) ;
#187 = EDGE_CURVE ( 'NONE', #60, #232, #200, .T. ) ;
#188 = ORIENTED_EDGE ( 'NONE', *, *, #201, .T. ) ;
#189 = DIRECTION ( 'NONE',  ( 1.000000000000000000, 0.0000000000000000000, 0.0000000000000000000 ) ) ;
#190 = AXIS2_PLACEMENT_3D ( 'NONE', #167, #275, #299 ) ;
#191 = AXIS2_PLACEMENT_3D ( 'NONE', #309, #152, #36 ) ;
#192 = CARTESIAN_POINT ( 'NONE',  ( -0.06249999999999996531, 0.0000000000000000000, 0.4637379795033760299 ) ) ;
#193 = ORIENTED_EDGE ( 'NONE', *, *, #5, .T. ) ;
#194 = ORIENTED_EDGE ( 'NONE', *, *, #286, .T. ) ;
#195 = CIRCLE ( 'NONE', #160, 0.04685310000000000169 ) ;
#196 = ADVANCED_FACE ( 'NONE', ( #129 ), #283, .T. ) ;
#197 = CIRCLE ( 'NONE', #256, 0.04685310000000000169 ) ;
#198 = DIRECTION ( 'NONE',  ( -1.000000000000000000, 1.224646799147352961E-16, 0.0000000000000000000 ) ) ;
#199 = DIRECTION ( 'NONE',  ( -0.0000000000000000000, -0.0000000000000000000, -1.000000000000000000 ) ) ;
#200 = LINE ( 'NONE', #12, #219 ) ;
#201 = EDGE_CURVE ( 'NONE', #116, #163, #271, .T. ) ;
#202 =( CONVERSION_BASED_UNIT ( 'INCH', #102 ) LENGTH_UNIT ( ) NAMED_UNIT ( #138 ) );
#203 = LINE ( 'NONE', #344, #101 ) ;
#204 = EDGE_CURVE ( 'NONE', #116, #262, #8, .T. ) ;
#205 = EDGE_LOOP ( 'NONE', ( #178, #133, #79, #329 ) ) ;
#206 = CIRCLE ( 'NONE', #190, 0.04750000000000064587 ) ;
#207 = CONICAL_SURFACE ( 'NONE', #248, 0.04750000000000064587, 0.7853981633974466137 ) ;
#208 = ORIENTED_EDGE ( 'NONE', *, *, #23, .F. ) ;
#209 = ORIENTED_EDGE ( 'NONE', *, *, #65, .T. ) ;
#210 = SURFACE_STYLE_USAGE ( .BOTH. , #110 ) ;
#211 = AXIS2_PLACEMENT_3D ( 'NONE', #337, #311, #146 ) ;
#212 = CARTESIAN_POINT ( 'NONE',  ( 0.0000000000000000000, 0.0000000000000000000, 0.0000000000000000000 ) ) ;
#213 = DIRECTION ( 'NONE',  ( -1.224646799147353700E-16, -0.0000000000000000000, -1.000000000000000000 ) ) ;
#214 = CARTESIAN_POINT ( 'NONE',  ( 6.123233995736768848E-19, 0.0000000000000000000, 0.005000000000000000104 ) ) ;
#215 =( NAMED_UNIT ( * ) SI_UNIT ( $, .STERADIAN. ) SOLID_ANGLE_UNIT ( ) );
#216 = ADVANCED_FACE ( 'NONE', ( #332 ), #100, .F. ) ;
#217 = LINE ( 'NONE', #305, #113 ) ;
#218 = EDGE_LOOP ( 'NONE', ( #111, #42, #45, #314 ) ) ;
#219 = VECTOR ( 'NONE', #14, 39.37007874015748854 ) ;
#220 = ADVANCED_FACE ( 'NONE', ( #175 ), #41, .T. ) ;
#221 = ORIENTED_EDGE ( 'NONE', *, *, #345, .T. ) ;
#222 = VERTEX_POINT ( 'NONE', #144 ) ;
#223 =( LENGTH_UNIT ( ) NAMED_UNIT ( * ) SI_UNIT ( $, .METRE. ) );
#224 = CARTESIAN_POINT ( 'NONE',  ( 6.123233995736768848E-19, 0.0000000000000000000, 0.005000000000000000104 ) ) ;
#225 = DIRECTION ( 'NONE',  ( -1.000000000000000000, 0.0000000000000000000, 0.0000000000000000000 ) ) ;
#226 = CIRCLE ( 'NONE', #230, 0.06250000000000002776 ) ;
#227 = DIRECTION ( 'NONE',  ( -1.224646799147353700E-16, -0.0000000000000000000, -1.000000000000000000 ) ) ;
#228 = ADVANCED_FACE ( 'NONE', ( #148 ), #151, .T. ) ;
#229 = DIRECTION ( 'NONE',  ( -1.224646799147353700E-16, -0.0000000000000000000, -1.000000000000000000 ) ) ;
#230 = AXIS2_PLACEMENT_3D ( 'NONE', #257, #282, #171 ) ;
#231 = CARTESIAN_POINT ( 'NONE',  ( -0.04685310000000000169, 0.0000000000000000000, 0.005000000000000000971 ) ) ;
#232 = VERTEX_POINT ( 'NONE', #246 ) ;
#233 = EDGE_CURVE ( 'NONE', #163, #342, #54, .T. ) ;
#234 = CARTESIAN_POINT ( 'NONE',  ( 0.0000000000000000000, 0.0000000000000000000, 1.500000000000000222 ) ) ;
#235 = LENGTH_MEASURE_WITH_UNIT ( LENGTH_MEASURE( 0.02539999999999999897 ), #52 );
#236 = CIRCLE ( 'NONE', #90, 0.04185310000000000419 ) ;
#237 = CARTESIAN_POINT ( 'NONE',  ( 0.04685310000000000169, 5.737849894513085128E-18, -5.737849894513087439E-18 ) ) ;
#238 = ORIENTED_EDGE ( 'NONE', *, *, #78, .T. ) ;
#239 = FILL_AREA_STYLE_COLOUR ( '', #350 ) ;
#240 = MECHANICAL_DESIGN_GEOMETRIC_PRESENTATION_REPRESENTATION (  '', ( #80 ), #322 ) ;
#241 = AXIS2_PLACEMENT_3D ( 'NONE', #253, #71, #341 ) ;
#242 = FACE_OUTER_BOUND ( 'NONE', #218, .T. ) ;
#243 = DIRECTION ( 'NONE',  ( 1.000000000000000000, 0.0000000000000000000, 0.0000000000000000000 ) ) ;
#244 = ORIENTED_EDGE ( 'NONE', *, *, #255, .T. ) ;
#245 = CARTESIAN_POINT ( 'NONE',  ( -0.06250000000000002776, 0.0000000000000000000, 1.500000000000000222 ) ) ;
#246 = CARTESIAN_POINT ( 'NONE',  ( -0.06250000000000002776, 0.0000000000000000000, 1.485000000000000764 ) ) ;
#247 = DIRECTION ( 'NONE',  ( -1.000000000000000000, 0.0000000000000000000, 1.224646799147353700E-16 ) ) ;
#248 = AXIS2_PLACEMENT_3D ( 'NONE', #174, #93, #308 ) ;
#249 = DIRECTION ( 'NONE',  ( -0.1736481776669311639, 2.126576849575783008E-17, 0.9848077530122080203 ) ) ;
#250 = DIRECTION ( 'NONE',  ( 1.000000000000000000, 0.0000000000000000000, 0.0000000000000000000 ) ) ;
#251 = DIRECTION ( 'NONE',  ( 0.0000000000000000000, -1.000000000000000000, 0.0000000000000000000 ) ) ;
#252 = CARTESIAN_POINT ( 'NONE',  ( 0.04685310000000000169, 5.737849894513085128E-18, 0.005000000000000000971 ) ) ;
#253 = CARTESIAN_POINT ( 'NONE',  ( 0.0000000000000000000, 0.0000000000000000000, 0.0000000000000000000 ) ) ;
#254 = EDGE_CURVE ( 'NONE', #342, #262, #197, .T. ) ;
#255 = EDGE_CURVE ( 'NONE', #60, #46, #91, .T. ) ;
#256 = AXIS2_PLACEMENT_3D ( 'NONE', #136, #349, #112 ) ;
#257 = CARTESIAN_POINT ( 'NONE',  ( 0.0000000000000000000, 0.0000000000000000000, 1.485000000000000764 ) ) ;
#258 = SURFACE_STYLE_FILL_AREA ( #153 ) ;
#259 = AXIS2_PLACEMENT_3D ( 'NONE', #234, #82, #53 ) ;
#260 = PRODUCT_RELATED_PRODUCT_CATEGORY ( 'part', '', ( #17 ) ) ;
#261 =( NAMED_UNIT ( * ) PLANE_ANGLE_UNIT ( ) SI_UNIT ( $, .RADIAN. ) );
#262 = VERTEX_POINT ( 'NONE', #231 ) ;
#263 = LENGTH_MEASURE_WITH_UNIT ( LENGTH_MEASURE( 0.02539999999999999897 ), #223 );
#264 = EDGE_LOOP ( 'NONE', ( #208, #323, #81, #48 ) ) ;
#265 = AXIS2_PLACEMENT_3D ( 'NONE', #39, #199, #285 ) ;
#266 = ORIENTED_EDGE ( 'NONE', *, *, #103, .F. ) ;
#267 =( NAMED_UNIT ( * ) PLANE_ANGLE_UNIT ( ) SI_UNIT ( $, .RADIAN. ) );
#268 = ORIENTED_EDGE ( 'NONE', *, *, #201, .F. ) ;
#269 = DIRECTION ( 'NONE',  ( 1.000000000000000000, 0.0000000000000000000, 0.0000000000000000000 ) ) ;
#270 =( NAMED_UNIT ( * ) SI_UNIT ( $, .STERADIAN. ) SOLID_ANGLE_UNIT ( ) );
#271 = CIRCLE ( 'NONE', #278, 0.04685310000000000863 ) ;
#272 = EDGE_CURVE ( 'NONE', #106, #262, #169, .T. ) ;
#273 = CARTESIAN_POINT ( 'NONE',  ( 0.0000000000000000000, 0.0000000000000000000, 1.485000000000000764 ) ) ;
#274 = EDGE_LOOP ( 'NONE', ( #289, #43, #157, #266 ) ) ;
#275 = DIRECTION ( 'NONE',  ( 0.0000000000000000000, 0.0000000000000000000, 1.000000000000000000 ) ) ;
#276 = DIRECTION ( 'NONE',  ( 0.0000000000000000000, 0.0000000000000000000, 1.000000000000000000 ) ) ;
#277 = CIRCLE ( 'NONE', #50, 0.06250000000000002776 ) ;
#278 = AXIS2_PLACEMENT_3D ( 'NONE', #34, #145, #225 ) ;
#279 = DIRECTION ( 'NONE',  ( 0.0000000000000000000, 0.0000000000000000000, 1.000000000000000000 ) ) ;
#280 = FACE_OUTER_BOUND ( 'NONE', #264, .T. ) ;
#281 = CARTESIAN_POINT ( 'NONE',  ( 0.0000000000000000000, 0.0000000000000000000, 1.500000000000000222 ) ) ;
#282 = DIRECTION ( 'NONE',  ( 0.0000000000000000000, 0.0000000000000000000, -1.000000000000000000 ) ) ;
#283 = CONICAL_SURFACE ( 'NONE', #211, 0.04685310000000000863, 0.1745329251994338637 ) ;
#284 = DIRECTION ( 'NONE',  ( -1.224646799147353700E-16, -0.0000000000000000000, -1.000000000000000000 ) ) ;
#285 = DIRECTION ( 'NONE',  ( -1.000000000000000000, 0.0000000000000000000, 0.0000000000000000000 ) ) ;
#286 = EDGE_CURVE ( 'NONE', #116, #18, #203, .T. ) ;
#287 = DIRECTION ( 'NONE',  ( 1.000000000000000000, 0.0000000000000000000, 0.0000000000000000000 ) ) ;
#288 =( GEOMETRIC_REPRESENTATION_CONTEXT ( 3 ) GLOBAL_UNCERTAINTY_ASSIGNED_CONTEXT ( ( #302 ) ) GLOBAL_UNIT_ASSIGNED_CONTEXT ( ( #47, #317, #270 ) ) REPRESENTATION_CONTEXT ( 'NONE', 'WORKASPACE' ) );
#289 = ORIENTED_EDGE ( 'NONE', *, *, #180, .T. ) ;
#290 = ORIENTED_EDGE ( 'NONE', *, *, #286, .F. ) ;
#291 =( CONVERSION_BASED_UNIT ( 'INCH', #263 ) LENGTH_UNIT ( ) NAMED_UNIT ( #179 ) );
#292 = ORIENTED_EDGE ( 'NONE', *, *, #187, .F. ) ;
#293 = ORIENTED_EDGE ( 'NONE', *, *, #103, .T. ) ;
#294 = VECTOR ( 'NONE', #4, 39.37007874015748143 ) ;
#295 = AXIS2_PLACEMENT_3D ( 'NONE', #29, #123, #121 ) ;
#296 = EDGE_LOOP ( 'NONE', ( #268, #194, #2, #185 ) ) ;
#297 = ADVANCED_FACE ( 'NONE', ( #307 ), #207, .T. ) ;
#298 = ADVANCED_FACE ( 'NONE', ( #331 ), #64, .T. ) ;
#299 = DIRECTION ( 'NONE',  ( 1.000000000000000000, 0.0000000000000000000, 0.0000000000000000000 ) ) ;
#300 = FACE_OUTER_BOUND ( 'NONE', #158, .T. ) ;
#301 = DIRECTION ( 'NONE',  ( 1.000000000000000000, 0.0000000000000000000, 0.0000000000000000000 ) ) ;
#302 = UNCERTAINTY_MEASURE_WITH_UNIT (LENGTH_MEASURE( 1.000000000000000082E-05 ), #47, 'distance_accuracy_value', 'NONE');
#303 = DIRECTION ( 'NONE',  ( -1.224646799147353700E-16, -0.0000000000000000000, -1.000000000000000000 ) ) ;
#304 = CLOSED_SHELL ( 'NONE', ( #330, #220, #196, #297, #150, #228, #298, #162, #334, #99, #216, #72 ) ) ;
#305 = CARTESIAN_POINT ( 'NONE',  ( 0.04750000000000064587, 5.817072295950006528E-18, 1.500000000000000222 ) ) ;
#306 = VECTOR ( 'NONE', #6, 39.37007874015748143 ) ;
#307 = FACE_OUTER_BOUND ( 'NONE', #135, .T. ) ;
#308 = DIRECTION ( 'NONE',  ( -1.000000000000000000, 0.0000000000000000000, 0.0000000000000000000 ) ) ;
#309 = CARTESIAN_POINT ( 'NONE',  ( 0.0000000000000000000, 0.0000000000000000000, 1.500000000000000222 ) ) ;
#310 = AXIS2_PLACEMENT_3D ( 'NONE', #212, #320, #49 ) ;
#311 = DIRECTION ( 'NONE',  ( 1.224646799147353700E-16, 0.0000000000000000000, 1.000000000000000000 ) ) ;
#312 = CARTESIAN_POINT ( 'NONE',  ( 5.679152322418704750E-17, 0.0000000000000000000, 0.4637379795033760299 ) ) ;
#313 = UNCERTAINTY_MEASURE_WITH_UNIT (LENGTH_MEASURE( 1.000000000000000082E-05 ), #291, 'distance_accuracy_value', 'NONE');
#314 = ORIENTED_EDGE ( 'NONE', *, *, #28, .F. ) ;
#315 = DIRECTION ( 'NONE',  ( -1.224646799147353700E-16, -0.0000000000000000000, -1.000000000000000000 ) ) ;
#316 = AXIS2_PLACEMENT_3D ( 'NONE', #214, #276, #301 ) ;
#317 =( NAMED_UNIT ( * ) PLANE_ANGLE_UNIT ( ) SI_UNIT ( $, .RADIAN. ) );
#318 = ORIENTED_EDGE ( 'NONE', *, *, #343, .F. ) ;
#319 = ORIENTED_EDGE ( 'NONE', *, *, #204, .T. ) ;
#320 = DIRECTION ( 'NONE',  ( 0.0000000000000000000, 0.0000000000000000000, 1.000000000000000000 ) ) ;
#321 = ORIENTED_EDGE ( 'NONE', *, *, #23, .T. ) ;
#322 =( GEOMETRIC_REPRESENTATION_CONTEXT ( 3 ) GLOBAL_UNCERTAINTY_ASSIGNED_CONTEXT ( ( #120 ) ) GLOBAL_UNIT_ASSIGNED_CONTEXT ( ( #202, #261, #107 ) ) REPRESENTATION_CONTEXT ( 'NONE', 'WORKASPACE' ) );
#323 = ORIENTED_EDGE ( 'NONE', *, *, #255, .F. ) ;
#324 = PRESENTATION_STYLE_ASSIGNMENT (( #210 ) ) ;
#325 = DIRECTION ( 'NONE',  ( 0.1736481776669313581, 0.0000000000000000000, 0.9848077530122077983 ) ) ;
#326 = CIRCLE ( 'NONE', #74, 0.04185310000000000419 ) ;
#327 = DIRECTION ( 'NONE',  ( 0.7071067811865462405, 8.659560562354916834E-17, -0.7071067811865486830 ) ) ;
#328 = LINE ( 'NONE', #31, #306 ) ;
#329 = ORIENTED_EDGE ( 'NONE', *, *, #156, .F. ) ;
#330 = ADVANCED_FACE ( 'NONE', ( #170 ), #184, .T. ) ;
#331 = FACE_OUTER_BOUND ( 'NONE', #346, .T. ) ;
#332 = FACE_OUTER_BOUND ( 'NONE', #22, .T. ) ;
#333 = CIRCLE ( 'NONE', #75, 0.04685310000000000863 ) ;
#334 = ADVANCED_FACE ( 'NONE', ( #7 ), #92, .T. ) ;
#335 = DIRECTION ( 'NONE',  ( 1.224646799147353207E-16, 1.000000000000000000, -0.0000000000000000000 ) ) ;
#336 = MANIFOLD_SOLID_BREP ( 'Fillet1', #304 ) ;
#337 = CARTESIAN_POINT ( 'NONE',  ( 4.592425496802576684E-17, 0.0000000000000000000, 0.3750000000000000555 ) ) ;
#338 = CONICAL_SURFACE ( 'NONE', #191, 0.04750000000000064587, 0.7853981633974466137 ) ;
#339 = SURFACE_STYLE_USAGE ( .BOTH. , #19 ) ;
#340 = ORIENTED_EDGE ( 'NONE', *, *, #254, .T. ) ;
#341 = DIRECTION ( 'NONE',  ( 1.000000000000000000, 0.0000000000000000000, -0.0000000000000000000 ) ) ;
#342 = VERTEX_POINT ( 'NONE', #252 ) ;
#343 = EDGE_CURVE ( 'NONE', #163, #116, #333, .T. ) ;
#344 = CARTESIAN_POINT ( 'NONE',  ( -0.04685309999999996700, 5.737849894513086668E-18, 0.3750000000000000555 ) ) ;
#345 = EDGE_CURVE ( 'NONE', #97, #18, #3, .T. ) ;
#346 = EDGE_LOOP ( 'NONE', ( #244, #238 ) ) ;
#347 = PRESENTATION_LAYER_ASSIGNMENT (  '', '', ( #16 ) ) ;
#348 = ORIENTED_EDGE ( 'NONE', *, *, #78, .F. ) ;
#349 = DIRECTION ( 'NONE',  ( 0.0000000000000000000, 0.0000000000000000000, 1.000000000000000000 ) ) ;
#350 = COLOUR_RGB ( '',0.7921568627450980005, 0.8196078431372548767, 0.9333333333333333481 ) ;
#351 = EDGE_LOOP ( 'NONE', ( #290, #318, #209, #221 ) ) ;
ENDSEC;
END-ISO-10303-21;
