ISO-10303-21;
HEADER;
FILE_DESCRIPTION (( 'STEP AP214' ),
    '1' );
FILE_NAME ('Micro_MMBM-015-15X.STEP',
    '2021-09-03T16:29:10',
    ( '' ),
    ( '' ),
    'SwSTEP 2.0',
    'SolidWorks 2020',
    '' );
FILE_SCHEMA (( 'AUTOMOTIVE_DESIGN' ));
ENDSEC;

DATA;
#1 = AXIS2_PLACEMENT_3D ( 'NONE', #193, #365, #313 ) ;
#2 = VERTEX_POINT ( 'NONE', #242 ) ;
#3 = ORIENTED_EDGE ( 'NONE', *, *, #153, .F. ) ;
#4 = FILL_AREA_STYLE_COLOUR ( '', #258 ) ;
#5 =( LENGTH_UNIT ( ) NAMED_UNIT ( * ) SI_UNIT ( $, .METRE. ) );
#6 = FACE_OUTER_BOUND ( 'NONE', #67, .T. ) ;
#7 = CYLINDRICAL_SURFACE ( 'NONE', #171, 0.02854350000000003759 ) ;
#8 = DIRECTION ( 'NONE',  ( -1.000000000000000000, 0.0000000000000000000, 0.0000000000000000000 ) ) ;
#9 = EDGE_LOOP ( 'NONE', ( #81, #283, #119, #344 ) ) ;
#10 = APPLICATION_CONTEXT ( 'automotive_design' ) ;
#11 = CARTESIAN_POINT ( 'NONE',  ( 0.0000000000000000000, 0.0000000000000000000, 0.0000000000000000000 ) ) ;
#12 = ORIENTED_EDGE ( 'NONE', *, *, #351, .F. ) ;
#13 = AXIS2_PLACEMENT_3D ( 'NONE', #123, #352, #331 ) ;
#14 = CARTESIAN_POINT ( 'NONE',  ( 0.0000000000000000000, 0.0000000000000000000, 2.244094000000000033 ) ) ;
#15 = ORIENTED_EDGE ( 'NONE', *, *, #367, .F. ) ;
#16 = DIRECTION ( 'NONE',  ( -1.000000000000000000, 0.0000000000000000000, 0.0000000000000000000 ) ) ;
#17 = ORIENTED_EDGE ( 'NONE', *, *, #310, .T. ) ;
#18 = DIRECTION ( 'NONE',  ( -1.000000000000000000, 0.0000000000000000000, 0.0000000000000000000 ) ) ;
#19 = ORIENTED_EDGE ( 'NONE', *, *, #26, .T. ) ;
#20 = CIRCLE ( 'NONE', #244, 0.1031100000000002570 ) ;
#21 = DIRECTION ( 'NONE',  ( -0.0000000000000000000, 0.0000000000000000000, -1.000000000000000000 ) ) ;
#22 = DIRECTION ( 'NONE',  ( -0.0000000000000000000, -0.0000000000000000000, -1.000000000000000000 ) ) ;
#23 = DIRECTION ( 'NONE',  ( 1.000000000000000000, 0.0000000000000000000, 0.0000000000000000000 ) ) ;
#24 = AXIS2_PLACEMENT_3D ( 'NONE', #227, #343, #340 ) ;
#25 = DIRECTION ( 'NONE',  ( -0.7071067811865358044, 0.0000000000000000000, -0.7071067811865590080 ) ) ;
#26 = EDGE_CURVE ( 'NONE', #251, #207, #69, .T. ) ;
#27 = PRESENTATION_STYLE_ASSIGNMENT (( #215 ) ) ;
#28 = AXIS2_PLACEMENT_3D ( 'NONE', #375, #88, #87 ) ;
#29 = AXIS2_PLACEMENT_3D ( 'NONE', #30, #56, #53 ) ;
#30 = CARTESIAN_POINT ( 'NONE',  ( 0.0000000000000000000, 0.0000000000000000000, 0.5905510000000000481 ) ) ;
#31 = DIMENSIONAL_EXPONENTS ( 1.000000000000000000, 0.0000000000000000000, 0.0000000000000000000, 0.0000000000000000000, 0.0000000000000000000, 0.0000000000000000000, 0.0000000000000000000 ) ;
#32 = ORIENTED_EDGE ( 'NONE', *, *, #310, .F. ) ;
#33 = VECTOR ( 'NONE', #22, 39.37007874015748143 ) ;
#34 = DIRECTION ( 'NONE',  ( -0.0000000000000000000, -0.0000000000000000000, -1.000000000000000000 ) ) ;
#35 = EDGE_CURVE ( 'NONE', #178, #72, #260, .T. ) ;
#36 = ORIENTED_EDGE ( 'NONE', *, *, #222, .F. ) ;
#37 = DIRECTION ( 'NONE',  ( -1.000000000000000000, 0.0000000000000000000, 0.0000000000000000000 ) ) ;
#38 = ORIENTED_EDGE ( 'NONE', *, *, #177, .F. ) ;
#39 = AXIS2_PLACEMENT_3D ( 'NONE', #196, #129, #42 ) ;
#40 = CARTESIAN_POINT ( 'NONE',  ( 0.0000000000000000000, 0.0000000000000000000, 2.244094000000000033 ) ) ;
#41 = EDGE_LOOP ( 'NONE', ( #38, #54 ) ) ;
#42 = DIRECTION ( 'NONE',  ( -1.000000000000000000, 0.0000000000000000000, 0.0000000000000000000 ) ) ;
#43 = ORIENTED_EDGE ( 'NONE', *, *, #285, .T. ) ;
#44 = CYLINDRICAL_SURFACE ( 'NONE', #80, 0.1181100000000000066 ) ;
#45 = MANIFOLD_SOLID_BREP ( 'Cut-Revolve1', #289 ) ;
#46 = CARTESIAN_POINT ( 'NONE',  ( 0.02952454724999999808, 3.615714228598728577E-18, 0.05905500000000000332 ) ) ;
#47 = CARTESIAN_POINT ( 'NONE',  ( 0.0000000000000000000, 0.0000000000000000000, 2.229093999999999465 ) ) ;
#48 = CONICAL_SURFACE ( 'NONE', #131, 0.02952454724999999808, 0.1745329251994336694 ) ;
#49 = EDGE_CURVE ( 'NONE', #128, #221, #235, .T. ) ;
#50 = PRODUCT_RELATED_PRODUCT_CATEGORY ( 'part', '', ( #290 ) ) ;
#51 = AXIS2_PLACEMENT_3D ( 'NONE', #149, #271, #266 ) ;
#52 = VECTOR ( 'NONE', #25, 39.37007874015748854 ) ;
#53 = DIRECTION ( 'NONE',  ( -1.000000000000000000, 0.0000000000000000000, 0.0000000000000000000 ) ) ;
#54 = ORIENTED_EDGE ( 'NONE', *, *, #49, .F. ) ;
#55 = SURFACE_STYLE_FILL_AREA ( #203 ) ;
#56 = DIRECTION ( 'NONE',  ( -0.0000000000000000000, -0.0000000000000000000, -1.000000000000000000 ) ) ;
#57 = VECTOR ( 'NONE', #210, 39.37007874015748143 ) ;
#58 = APPLICATION_PROTOCOL_DEFINITION ( 'draft international standard', 'automotive_design', 1998, #10 ) ;
#59 = DIRECTION ( 'NONE',  ( -1.000000000000000000, 0.0000000000000000000, 0.0000000000000000000 ) ) ;
#60 = STYLED_ITEM ( 'NONE', ( #350 ), #102 ) ;
#61 = ADVANCED_FACE ( 'NONE', ( #301 ), #48, .T. ) ;
#62 = DIRECTION ( 'NONE',  ( -0.0000000000000000000, -0.0000000000000000000, -1.000000000000000000 ) ) ;
#63 = LINE ( 'NONE', #371, #216 ) ;
#64 = AXIS2_PLACEMENT_3D ( 'NONE', #369, #66, #165 ) ;
#65 = EDGE_CURVE ( 'NONE', #297, #178, #245, .T. ) ;
#66 = DIRECTION ( 'NONE',  ( -0.0000000000000000000, -0.0000000000000000000, -1.000000000000000000 ) ) ;
#67 = EDGE_LOOP ( 'NONE', ( #257, #286, #3, #354 ) ) ;
#68 = DIRECTION ( 'NONE',  ( -0.0000000000000000000, -0.0000000000000000000, -1.000000000000000000 ) ) ;
#69 = LINE ( 'NONE', #191, #267 ) ;
#70 = VERTEX_POINT ( 'NONE', #127 ) ;
#71 = DIRECTION ( 'NONE',  ( -0.0000000000000000000, -0.0000000000000000000, -1.000000000000000000 ) ) ;
#72 = VERTEX_POINT ( 'NONE', #150 ) ;
#73 = ADVANCED_FACE ( 'NONE', ( #6 ), #7, .T. ) ;
#74 = CONICAL_SURFACE ( 'NONE', #332, 0.1031100000000002570, 0.7853981633974318477 ) ;
#75 = CARTESIAN_POINT ( 'NONE',  ( -0.02854350000000000637, 0.0000000000000000000, 0.06461879543311090102 ) ) ;
#76 = EDGE_LOOP ( 'NONE', ( #189, #361, #111, #15 ) ) ;
#77 =( GEOMETRIC_REPRESENTATION_CONTEXT ( 3 ) GLOBAL_UNCERTAINTY_ASSIGNED_CONTEXT ( ( #93 ) ) GLOBAL_UNIT_ASSIGNED_CONTEXT ( ( #174, #346, #114 ) ) REPRESENTATION_CONTEXT ( 'NONE', 'WORKASPACE' ) );
#78 = EDGE_CURVE ( 'NONE', #169, #90, #229, .T. ) ;
#79 = DIRECTION ( 'NONE',  ( -0.0000000000000000000, -0.0000000000000000000, -1.000000000000000000 ) ) ;
#80 = AXIS2_PLACEMENT_3D ( 'NONE', #40, #34, #18 ) ;
#81 = ORIENTED_EDGE ( 'NONE', *, *, #378, .T. ) ;
#82 = PRODUCT_DEFINITION_SHAPE ( 'NONE', 'NONE',  #126 ) ;
#83 = LENGTH_MEASURE_WITH_UNIT ( LENGTH_MEASURE( 0.02539999999999999897 ), #117 );
#84 = FILL_AREA_STYLE_COLOUR ( '', #294 ) ;
#85 = STYLED_ITEM ( 'NONE', ( #27 ), #45 ) ;
#86 = CARTESIAN_POINT ( 'NONE',  ( 0.02952454724999999808, 3.615714228598728577E-18, 0.0000000000000000000 ) ) ;
#87 = DIRECTION ( 'NONE',  ( 1.000000000000000000, 0.0000000000000000000, 0.0000000000000000000 ) ) ;
#88 = DIRECTION ( 'NONE',  ( 0.0000000000000000000, 0.0000000000000000000, -1.000000000000000000 ) ) ;
#89 = EDGE_CURVE ( 'NONE', #72, #178, #362, .T. ) ;
#90 = VERTEX_POINT ( 'NONE', #247 ) ;
#91 = ADVANCED_FACE ( 'NONE', ( #270 ), #124, .T. ) ;
#92 =( LENGTH_UNIT ( ) NAMED_UNIT ( * ) SI_UNIT ( $, .METRE. ) );
#93 = UNCERTAINTY_MEASURE_WITH_UNIT (LENGTH_MEASURE( 1.000000000000000082E-05 ), #174, 'distance_accuracy_value', 'NONE');
#94 = CARTESIAN_POINT ( 'NONE',  ( 0.0000000000000000000, 0.0000000000000000000, 0.5905510000000000481 ) ) ;
#95 = AXIS2_PLACEMENT_3D ( 'NONE', #324, #299, #241 ) ;
#96 = PRODUCT_CONTEXT ( 'NONE', #217, 'mechanical' ) ;
#97 = DIRECTION ( 'NONE',  ( -0.1736481776669310528, 0.0000000000000000000, -0.9848077530122080203 ) ) ;
#98 =( NAMED_UNIT ( * ) PLANE_ANGLE_UNIT ( ) SI_UNIT ( $, .RADIAN. ) );
#99 = CARTESIAN_POINT ( 'NONE',  ( 0.0000000000000000000, 0.0000000000000000000, 0.05905500000000000332 ) ) ;
#100 = DIRECTION ( 'NONE',  ( 1.000000000000000000, 0.0000000000000000000, 0.0000000000000000000 ) ) ;
#101 = ORIENTED_EDGE ( 'NONE', *, *, #199, .T. ) ;
#102 = ADVANCED_BREP_SHAPE_REPRESENTATION ( 'Micro_MMBM-015-15X', ( #45, #51 ), #77 ) ;
#103 = CARTESIAN_POINT ( 'NONE',  ( -0.02952454724999999808, 0.0000000000000000000, 0.05905500000000000332 ) ) ;
#104 = ORIENTED_EDGE ( 'NONE', *, *, #106, .F. ) ;
#105 = DIRECTION ( 'NONE',  ( 0.0000000000000000000, 0.0000000000000000000, -1.000000000000000000 ) ) ;
#106 = EDGE_CURVE ( 'NONE', #372, #251, #183, .T. ) ;
#107 = ORIENTED_EDGE ( 'NONE', *, *, #89, .T. ) ;
#108 = CARTESIAN_POINT ( 'NONE',  ( 0.1031100000000002570, 1.354581824536888722E-17, 2.244094000000000033 ) ) ;
#109 = ORIENTED_EDGE ( 'NONE', *, *, #240, .T. ) ;
#110 = FACE_OUTER_BOUND ( 'NONE', #163, .T. ) ;
#111 = ORIENTED_EDGE ( 'NONE', *, *, #345, .T. ) ;
#112 = CARTESIAN_POINT ( 'NONE',  ( 0.0000000000000000000, 0.0000000000000000000, 0.0000000000000000000 ) ) ;
#113 = APPLICATION_PROTOCOL_DEFINITION ( 'draft international standard', 'automotive_design', 1998, #217 ) ;
#114 =( NAMED_UNIT ( * ) SI_UNIT ( $, .STERADIAN. ) SOLID_ANGLE_UNIT ( ) );
#115 = AXIS2_PLACEMENT_3D ( 'NONE', #252, #68, #190 ) ;
#116 = FACE_OUTER_BOUND ( 'NONE', #277, .T. ) ;
#117 =( LENGTH_UNIT ( ) NAMED_UNIT ( * ) SI_UNIT ( $, .METRE. ) );
#118 = AXIS2_PLACEMENT_3D ( 'NONE', #14, #305, #16 ) ;
#119 = ORIENTED_EDGE ( 'NONE', *, *, #35, .F. ) ;
#120 = CARTESIAN_POINT ( 'NONE',  ( 0.0000000000000000000, 0.0000000000000000000, 0.5905510000000000481 ) ) ;
#121 = ORIENTED_EDGE ( 'NONE', *, *, #345, .F. ) ;
#122 = CARTESIAN_POINT ( 'NONE',  ( 0.0000000000000000000, 0.0000000000000000000, 0.0000000000000000000 ) ) ;
#123 = CARTESIAN_POINT ( 'NONE',  ( 0.0000000000000000000, 0.0000000000000000000, 0.0000000000000000000 ) ) ;
#124 = CONICAL_SURFACE ( 'NONE', #202, 0.1031100000000002570, 0.7853981633974318477 ) ;
#125 = LENGTH_MEASURE_WITH_UNIT ( LENGTH_MEASURE( 0.02539999999999999897 ), #92 );
#126 = PRODUCT_DEFINITION ( 'UNKNOWN', '', #329, #325 ) ;
#127 = CARTESIAN_POINT ( 'NONE',  ( -0.1031100000000002570, 0.0000000000000000000, 2.244094000000000033 ) ) ;
#128 = VERTEX_POINT ( 'NONE', #273 ) ;
#129 = DIRECTION ( 'NONE',  ( -0.0000000000000000000, -0.0000000000000000000, -1.000000000000000000 ) ) ;
#130 = ORIENTED_EDGE ( 'NONE', *, *, #209, .F. ) ;
#131 = AXIS2_PLACEMENT_3D ( 'NONE', #99, #218, #360 ) ;
#132 = LINE ( 'NONE', #225, #288 ) ;
#133 = EDGE_LOOP ( 'NONE', ( #32, #224, #19, #36 ) ) ;
#134 = CARTESIAN_POINT ( 'NONE',  ( 0.0000000000000000000, 0.0000000000000000000, 2.244094000000000033 ) ) ;
#135 = UNCERTAINTY_MEASURE_WITH_UNIT (LENGTH_MEASURE( 1.000000000000000082E-05 ), #322, 'distance_accuracy_value', 'NONE');
#136 = ORIENTED_EDGE ( 'NONE', *, *, #89, .F. ) ;
#137 = DIRECTION ( 'NONE',  ( -1.000000000000000000, 0.0000000000000000000, 0.0000000000000000000 ) ) ;
#138 = ORIENTED_EDGE ( 'NONE', *, *, #164, .F. ) ;
#139 = AXIS2_PLACEMENT_3D ( 'NONE', #200, #187, #137 ) ;
#140 = FACE_OUTER_BOUND ( 'NONE', #133, .T. ) ;
#141 = ADVANCED_FACE ( 'NONE', ( #238 ), #353, .F. ) ;
#142 = EDGE_CURVE ( 'NONE', #228, #72, #63, .T. ) ;
#143 = CARTESIAN_POINT ( 'NONE',  ( 0.0000000000000000000, 0.0000000000000000000, 0.0000000000000000000 ) ) ;
#144 = PRESENTATION_LAYER_ASSIGNMENT (  '', '', ( #85 ) ) ;
#145 = LINE ( 'NONE', #237, #33 ) ;
#146 = ADVANCED_FACE ( 'NONE', ( #140 ), #195, .T. ) ;
#147 = AXIS2_PLACEMENT_3D ( 'NONE', #112, #173, #264 ) ;
#148 = FACE_BOUND ( 'NONE', #41, .T. ) ;
#149 = CARTESIAN_POINT ( 'NONE',  ( 0.0000000000000000000, 0.0000000000000000000, 0.0000000000000000000 ) ) ;
#150 = CARTESIAN_POINT ( 'NONE',  ( 0.1181100000000000066, 1.446430334472939084E-17, 0.5905510000000000481 ) ) ;
#151 =( GEOMETRIC_REPRESENTATION_CONTEXT ( 3 ) GLOBAL_UNCERTAINTY_ASSIGNED_CONTEXT ( ( #239 ) ) GLOBAL_UNIT_ASSIGNED_CONTEXT ( ( #323, #330, #158 ) ) REPRESENTATION_CONTEXT ( 'NONE', 'WORKASPACE' ) );
#152 = EDGE_CURVE ( 'NONE', #207, #90, #282, .T. ) ;
#153 = EDGE_CURVE ( 'NONE', #251, #372, #341, .T. ) ;
#154 = LENGTH_MEASURE_WITH_UNIT ( LENGTH_MEASURE( 0.02539999999999999897 ), #5 );
#155 = DIRECTION ( 'NONE',  ( -1.000000000000000000, 0.0000000000000000000, 0.0000000000000000000 ) ) ;
#156 = DIRECTION ( 'NONE',  ( 0.0000000000000000000, 0.0000000000000000000, -1.000000000000000000 ) ) ;
#157 = VECTOR ( 'NONE', #223, 39.37007874015748143 ) ;
#158 =( NAMED_UNIT ( * ) SI_UNIT ( $, .STERADIAN. ) SOLID_ANGLE_UNIT ( ) );
#159 = EDGE_LOOP ( 'NONE', ( #201, #248, #253, #136 ) ) ;
#160 = EDGE_CURVE ( 'NONE', #70, #213, #175, .T. ) ;
#161 = CIRCLE ( 'NONE', #306, 0.02952454724999999808 ) ;
#162 = CARTESIAN_POINT ( 'NONE',  ( 0.0000000000000000000, 0.0000000000000000000, 2.244094000000000033 ) ) ;
#163 = EDGE_LOOP ( 'NONE', ( #255, #109, #166, #121 ) ) ;
#164 = EDGE_CURVE ( 'NONE', #207, #2, #376, .T. ) ;
#165 = DIRECTION ( 'NONE',  ( -1.000000000000000000, 0.0000000000000000000, 0.0000000000000000000 ) ) ;
#166 = ORIENTED_EDGE ( 'NONE', *, *, #378, .F. ) ;
#167 = DIRECTION ( 'NONE',  ( -0.0000000000000000000, -0.0000000000000000000, -1.000000000000000000 ) ) ;
#168 = CARTESIAN_POINT ( 'NONE',  ( 0.1181100000000000066, 1.446430334472939084E-17, 2.229093999999999465 ) ) ;
#169 = VERTEX_POINT ( 'NONE', #308 ) ;
#170 = CARTESIAN_POINT ( 'NONE',  ( 0.0000000000000000000, 0.0000000000000000000, 0.5905510000000000481 ) ) ;
#171 = AXIS2_PLACEMENT_3D ( 'NONE', #122, #62, #59 ) ;
#172 = CIRCLE ( 'NONE', #300, 0.1181100000000000066 ) ;
#173 = DIRECTION ( 'NONE',  ( -0.0000000000000000000, -0.0000000000000000000, -1.000000000000000000 ) ) ;
#174 =( CONVERSION_BASED_UNIT ( 'INCH', #83 ) LENGTH_UNIT ( ) NAMED_UNIT ( #31 ) );
#175 = CIRCLE ( 'NONE', #1, 0.1031100000000002570 ) ;
#176 = DIRECTION ( 'NONE',  ( -1.000000000000000000, 0.0000000000000000000, 0.0000000000000000000 ) ) ;
#177 = EDGE_CURVE ( 'NONE', #221, #128, #272, .T. ) ;
#178 = VERTEX_POINT ( 'NONE', #220 ) ;
#179 = DIRECTION ( 'NONE',  ( -1.000000000000000000, 0.0000000000000000000, 0.0000000000000000000 ) ) ;
#180 =( GEOMETRIC_REPRESENTATION_CONTEXT ( 3 ) GLOBAL_UNCERTAINTY_ASSIGNED_CONTEXT ( ( #135 ) ) GLOBAL_UNIT_ASSIGNED_CONTEXT ( ( #322, #98, #243 ) ) REPRESENTATION_CONTEXT ( 'NONE', 'WORKASPACE' ) );
#181 = ORIENTED_EDGE ( 'NONE', *, *, #152, .F. ) ;
#182 = DIRECTION ( 'NONE',  ( -1.000000000000000000, 0.0000000000000000000, 0.0000000000000000000 ) ) ;
#183 = CIRCLE ( 'NONE', #95, 0.02854350000000000637 ) ;
#184 = ADVANCED_FACE ( 'NONE', ( #110 ), #74, .T. ) ;
#185 = DIRECTION ( 'NONE',  ( -0.0000000000000000000, -0.0000000000000000000, -1.000000000000000000 ) ) ;
#186 = SURFACE_STYLE_FILL_AREA ( #304 ) ;
#187 = DIRECTION ( 'NONE',  ( -0.0000000000000000000, -0.0000000000000000000, -1.000000000000000000 ) ) ;
#188 = PRESENTATION_LAYER_ASSIGNMENT (  '', '', ( #60 ) ) ;
#189 = ORIENTED_EDGE ( 'NONE', *, *, #240, .F. ) ;
#190 = DIRECTION ( 'NONE',  ( -1.000000000000000000, 0.0000000000000000000, 0.0000000000000000000 ) ) ;
#191 = CARTESIAN_POINT ( 'NONE',  ( -0.02952454724999999808, 0.0000000000000000000, 0.05905500000000000332 ) ) ;
#192 = EDGE_LOOP ( 'NONE', ( #334, #107 ) ) ;
#193 = CARTESIAN_POINT ( 'NONE',  ( 0.0000000000000000000, 0.0000000000000000000, 2.244094000000000033 ) ) ;
#194 = ORIENTED_EDGE ( 'NONE', *, *, #351, .T. ) ;
#195 = CONICAL_SURFACE ( 'NONE', #115, 0.02952454724999999808, 0.1745329251994336694 ) ;
#196 = CARTESIAN_POINT ( 'NONE',  ( 0.0000000000000000000, 0.0000000000000000000, 0.05905500000000000332 ) ) ;
#197 = ORIENTED_EDGE ( 'NONE', *, *, #152, .T. ) ;
#198 = VECTOR ( 'NONE', #263, 39.37007874015748854 ) ;
#199 = EDGE_CURVE ( 'NONE', #213, #70, #20, .T. ) ;
#200 = CARTESIAN_POINT ( 'NONE',  ( 0.0000000000000000000, 0.0000000000000000000, 0.05905500000000000332 ) ) ;
#201 = ORIENTED_EDGE ( 'NONE', *, *, #142, .F. ) ;
#202 = AXIS2_PLACEMENT_3D ( 'NONE', #268, #156, #356 ) ;
#203 = FILL_AREA_STYLE ('',( #84 ) ) ;
#204 = CIRCLE ( 'NONE', #28, 0.1181100000000000066 ) ;
#205 = DIRECTION ( 'NONE',  ( -0.0000000000000000000, -0.0000000000000000000, -1.000000000000000000 ) ) ;
#206 = CYLINDRICAL_SURFACE ( 'NONE', #147, 0.02952454724999999808 ) ;
#207 = VERTEX_POINT ( 'NONE', #103 ) ;
#208 = PLANE ( 'NONE',  #336 ) ;
#209 = EDGE_CURVE ( 'NONE', #128, #372, #287, .T. ) ;
#210 = DIRECTION ( 'NONE',  ( -0.0000000000000000000, -0.0000000000000000000, -1.000000000000000000 ) ) ;
#211 = SHAPE_DEFINITION_REPRESENTATION ( #82, #102 ) ;
#212 = DIRECTION ( 'NONE',  ( -0.0000000000000000000, -0.0000000000000000000, -1.000000000000000000 ) ) ;
#213 = VERTEX_POINT ( 'NONE', #108 ) ;
#214 = AXIS2_PLACEMENT_3D ( 'NONE', #328, #185, #8 ) ;
#215 = SURFACE_STYLE_USAGE ( .BOTH. , #296 ) ;
#216 = VECTOR ( 'NONE', #250, 39.37007874015748143 ) ;
#217 = APPLICATION_CONTEXT ( 'automotive_design' ) ;
#218 = DIRECTION ( 'NONE',  ( -0.0000000000000000000, -0.0000000000000000000, -1.000000000000000000 ) ) ;
#219 = ORIENTED_EDGE ( 'NONE', *, *, #303, .T. ) ;
#220 = CARTESIAN_POINT ( 'NONE',  ( -0.1181100000000000066, 0.0000000000000000000, 0.5905510000000000481 ) ) ;
#221 = VERTEX_POINT ( 'NONE', #254 ) ;
#222 = EDGE_CURVE ( 'NONE', #2, #207, #302, .T. ) ;
#223 = DIRECTION ( 'NONE',  ( -0.0000000000000000000, -0.0000000000000000000, -1.000000000000000000 ) ) ;
#224 = ORIENTED_EDGE ( 'NONE', *, *, #106, .T. ) ;
#225 = CARTESIAN_POINT ( 'NONE',  ( 0.1031100000000002570, 1.262733314600838667E-17, 2.244094000000000033 ) ) ;
#226 = ORIENTED_EDGE ( 'NONE', *, *, #164, .T. ) ;
#227 = CARTESIAN_POINT ( 'NONE',  ( 0.0000000000000000000, 0.0000000000000000000, 0.0000000000000000000 ) ) ;
#228 = VERTEX_POINT ( 'NONE', #168 ) ;
#229 = CIRCLE ( 'NONE', #214, 0.02952454724999999808 ) ;
#230 = ADVANCED_FACE ( 'NONE', ( #316 ), #280, .T. ) ;
#231 = CYLINDRICAL_SURFACE ( 'NONE', #24, 0.02854350000000003759 ) ;
#232 = EDGE_LOOP ( 'NONE', ( #130, #364, #219, #104 ) ) ;
#233 = DIRECTION ( 'NONE',  ( -0.0000000000000000000, -0.0000000000000000000, -1.000000000000000000 ) ) ;
#234 = DIRECTION ( 'NONE',  ( -1.000000000000000000, 0.0000000000000000000, 0.0000000000000000000 ) ) ;
#235 = CIRCLE ( 'NONE', #320, 0.02854350000000007229 ) ;
#236 = CARTESIAN_POINT ( 'NONE',  ( -0.1181100000000000066, 0.0000000000000000000, 2.229093999999999465 ) ) ;
#237 = CARTESIAN_POINT ( 'NONE',  ( -0.02854350000000003759, 0.0000000000000000000, 0.0000000000000000000 ) ) ;
#238 = FACE_OUTER_BOUND ( 'NONE', #370, .T. ) ;
#239 = UNCERTAINTY_MEASURE_WITH_UNIT (LENGTH_MEASURE( 1.000000000000000082E-05 ), #323, 'distance_accuracy_value', 'NONE');
#240 = EDGE_CURVE ( 'NONE', #213, #228, #132, .T. ) ;
#241 = DIRECTION ( 'NONE',  ( -1.000000000000000000, 0.0000000000000000000, 0.0000000000000000000 ) ) ;
#242 = CARTESIAN_POINT ( 'NONE',  ( 0.02952454724999999808, 3.615714228598728577E-18, 0.05905500000000000332 ) ) ;
#243 =( NAMED_UNIT ( * ) SI_UNIT ( $, .STERADIAN. ) SOLID_ANGLE_UNIT ( ) );
#244 = AXIS2_PLACEMENT_3D ( 'NONE', #134, #363, #100 ) ;
#245 = LINE ( 'NONE', #275, #57 ) ;
#246 = SURFACE_STYLE_USAGE ( .BOTH. , #357 ) ;
#247 = CARTESIAN_POINT ( 'NONE',  ( -0.02952454724999999808, 0.0000000000000000000, 0.0000000000000000000 ) ) ;
#248 = ORIENTED_EDGE ( 'NONE', *, *, #367, .T. ) ;
#249 = ADVANCED_FACE ( 'NONE', ( #259 ), #231, .T. ) ;
#250 = DIRECTION ( 'NONE',  ( -0.0000000000000000000, -0.0000000000000000000, -1.000000000000000000 ) ) ;
#251 = VERTEX_POINT ( 'NONE', #75 ) ;
#252 = CARTESIAN_POINT ( 'NONE',  ( 0.0000000000000000000, 0.0000000000000000000, 0.05905500000000000332 ) ) ;
#253 = ORIENTED_EDGE ( 'NONE', *, *, #65, .T. ) ;
#254 = CARTESIAN_POINT ( 'NONE',  ( -0.02854350000000007229, 0.0000000000000000000, 0.5905510000000000481 ) ) ;
#255 = ORIENTED_EDGE ( 'NONE', *, *, #199, .F. ) ;
#256 = FACE_OUTER_BOUND ( 'NONE', #279, .T. ) ;
#257 = ORIENTED_EDGE ( 'NONE', *, *, #177, .T. ) ;
#258 = COLOUR_RGB ( '',0.7921568627450980005, 0.8196078431372548767, 0.9333333333333333481 ) ;
#259 = FACE_OUTER_BOUND ( 'NONE', #232, .T. ) ;
#260 = CIRCLE ( 'NONE', #29, 0.1181100000000000066 ) ;
#261 = LINE ( 'NONE', #379, #52 ) ;
#262 = FACE_OUTER_BOUND ( 'NONE', #339, .T. ) ;
#263 = DIRECTION ( 'NONE',  ( 0.1736481776669310528, 2.126576849575780543E-17, -0.9848077530122080203 ) ) ;
#264 = DIRECTION ( 'NONE',  ( -1.000000000000000000, 0.0000000000000000000, 0.0000000000000000000 ) ) ;
#265 = ADVANCED_FACE ( 'NONE', ( #338 ), #44, .T. ) ;
#266 = DIRECTION ( 'NONE',  ( 1.000000000000000000, 0.0000000000000000000, 0.0000000000000000000 ) ) ;
#267 = VECTOR ( 'NONE', #97, 39.37007874015748854 ) ;
#268 = CARTESIAN_POINT ( 'NONE',  ( 0.0000000000000000000, 0.0000000000000000000, 2.244094000000000033 ) ) ;
#269 = MECHANICAL_DESIGN_GEOMETRIC_PRESENTATION_REPRESENTATION (  '', ( #60 ), #180 ) ;
#270 = FACE_OUTER_BOUND ( 'NONE', #76, .T. ) ;
#271 = DIRECTION ( 'NONE',  ( 0.0000000000000000000, 0.0000000000000000000, 1.000000000000000000 ) ) ;
#272 = CIRCLE ( 'NONE', #355, 0.02854350000000007229 ) ;
#273 = CARTESIAN_POINT ( 'NONE',  ( 0.02854350000000006882, 3.495570591146256120E-18, 0.5905510000000000481 ) ) ;
#274 = DIMENSIONAL_EXPONENTS ( 1.000000000000000000, 0.0000000000000000000, 0.0000000000000000000, 0.0000000000000000000, 0.0000000000000000000, 0.0000000000000000000, 0.0000000000000000000 ) ;
#275 = CARTESIAN_POINT ( 'NONE',  ( -0.1181100000000000066, 0.0000000000000000000, 2.244094000000000033 ) ) ;
#276 = ADVANCED_FACE ( 'NONE', ( #256 ), #278, .T. ) ;
#277 = EDGE_LOOP ( 'NONE', ( #226, #43, #12, #181 ) ) ;
#278 = CYLINDRICAL_SURFACE ( 'NONE', #314, 0.02952454724999999808 ) ;
#279 = EDGE_LOOP ( 'NONE', ( #368, #281, #197, #309 ) ) ;
#280 = CYLINDRICAL_SURFACE ( 'NONE', #118, 0.1181100000000000066 ) ;
#281 = ORIENTED_EDGE ( 'NONE', *, *, #222, .T. ) ;
#282 = LINE ( 'NONE', #335, #327 ) ;
#283 = ORIENTED_EDGE ( 'NONE', *, *, #142, .T. ) ;
#284 = DIRECTION ( 'NONE',  ( 0.7071067811865358044, 8.659560562354788645E-17, -0.7071067811865590080 ) ) ;
#285 = EDGE_CURVE ( 'NONE', #2, #169, #374, .T. ) ;
#286 = ORIENTED_EDGE ( 'NONE', *, *, #209, .T. ) ;
#287 = LINE ( 'NONE', #333, #157 ) ;
#288 = VECTOR ( 'NONE', #284, 39.37007874015748854 ) ;
#289 = CLOSED_SHELL ( 'NONE', ( #293, #73, #61, #184, #265, #230, #373, #91, #318, #146, #249, #276, #141 ) ) ;
#290 = PRODUCT ( 'Micro_MMBM-015-15X', 'Micro_MMBM-015-15X', '', ( #96 ) ) ;
#291 = FACE_OUTER_BOUND ( 'NONE', #192, .T. ) ;
#292 = DIRECTION ( 'NONE',  ( 0.0000000000000000000, 0.0000000000000000000, -1.000000000000000000 ) ) ;
#293 = ADVANCED_FACE ( 'NONE', ( #116 ), #206, .T. ) ;
#294 = COLOUR_RGB ( '',0.7921568627450980005, 0.8196078431372548767, 0.9333333333333333481 ) ;
#295 = DIRECTION ( 'NONE',  ( 1.000000000000000000, 0.0000000000000000000, -0.0000000000000000000 ) ) ;
#296 = SURFACE_SIDE_STYLE ('',( #186 ) ) ;
#297 = VERTEX_POINT ( 'NONE', #236 ) ;
#298 = AXIS2_PLACEMENT_3D ( 'NONE', #94, #212, #182 ) ;
#299 = DIRECTION ( 'NONE',  ( -0.0000000000000000000, -0.0000000000000000000, -1.000000000000000000 ) ) ;
#300 = AXIS2_PLACEMENT_3D ( 'NONE', #47, #292, #23 ) ;
#301 = FACE_OUTER_BOUND ( 'NONE', #337, .T. ) ;
#302 = CIRCLE ( 'NONE', #139, 0.02952454724999999808 ) ;
#303 = EDGE_CURVE ( 'NONE', #221, #251, #145, .T. ) ;
#304 = FILL_AREA_STYLE ('',( #4 ) ) ;
#305 = DIRECTION ( 'NONE',  ( -0.0000000000000000000, -0.0000000000000000000, -1.000000000000000000 ) ) ;
#306 = AXIS2_PLACEMENT_3D ( 'NONE', #143, #233, #179 ) ;
#307 = ORIENTED_EDGE ( 'NONE', *, *, #160, .T. ) ;
#308 = CARTESIAN_POINT ( 'NONE',  ( 0.02952454724999999808, 3.615714228598728577E-18, 0.0000000000000000000 ) ) ;
#309 = ORIENTED_EDGE ( 'NONE', *, *, #78, .F. ) ;
#310 = EDGE_CURVE ( 'NONE', #372, #2, #347, .T. ) ;
#311 = DIRECTION ( 'NONE',  ( -1.000000000000000000, 0.0000000000000000000, 0.0000000000000000000 ) ) ;
#312 = ORIENTED_EDGE ( 'NONE', *, *, #26, .F. ) ;
#313 = DIRECTION ( 'NONE',  ( 1.000000000000000000, 0.0000000000000000000, 0.0000000000000000000 ) ) ;
#314 = AXIS2_PLACEMENT_3D ( 'NONE', #11, #167, #234 ) ;
#315 = ORIENTED_EDGE ( 'NONE', *, *, #78, .T. ) ;
#316 = FACE_OUTER_BOUND ( 'NONE', #159, .T. ) ;
#317 = CARTESIAN_POINT ( 'NONE',  ( 0.02854350000000000637, 3.555642409872488112E-18, 0.06461879543311090102 ) ) ;
#318 = ADVANCED_FACE ( 'NONE', ( #148, #291 ), #377, .T. ) ;
#319 = CARTESIAN_POINT ( 'NONE',  ( 0.0000000000000000000, 0.0000000000000000000, 2.244094000000000033 ) ) ;
#320 = AXIS2_PLACEMENT_3D ( 'NONE', #120, #359, #155 ) ;
#321 = DIRECTION ( 'NONE',  ( 0.0000000000000000000, 0.0000000000000000000, 1.000000000000000000 ) ) ;
#322 =( CONVERSION_BASED_UNIT ( 'INCH', #154 ) LENGTH_UNIT ( ) NAMED_UNIT ( #326 ) );
#323 =( CONVERSION_BASED_UNIT ( 'INCH', #125 ) LENGTH_UNIT ( ) NAMED_UNIT ( #274 ) );
#324 = CARTESIAN_POINT ( 'NONE',  ( 0.0000000000000000000, 0.0000000000000000000, 0.06461879543311090102 ) ) ;
#325 = PRODUCT_DEFINITION_CONTEXT ( 'detailed design', #10, 'design' ) ;
#326 = DIMENSIONAL_EXPONENTS ( 1.000000000000000000, 0.0000000000000000000, 0.0000000000000000000, 0.0000000000000000000, 0.0000000000000000000, 0.0000000000000000000, 0.0000000000000000000 ) ;
#327 = VECTOR ( 'NONE', #71, 39.37007874015748143 ) ;
#328 = CARTESIAN_POINT ( 'NONE',  ( 0.0000000000000000000, 0.0000000000000000000, 0.0000000000000000000 ) ) ;
#329 = PRODUCT_DEFINITION_FORMATION_WITH_SPECIFIED_SOURCE ( 'ANY', '', #290, .NOT_KNOWN. ) ;
#330 =( NAMED_UNIT ( * ) PLANE_ANGLE_UNIT ( ) SI_UNIT ( $, .RADIAN. ) );
#331 = DIRECTION ( 'NONE',  ( 1.000000000000000000, 0.0000000000000000000, -0.0000000000000000000 ) ) ;
#332 = AXIS2_PLACEMENT_3D ( 'NONE', #162, #105, #37 ) ;
#333 = CARTESIAN_POINT ( 'NONE',  ( 0.02854350000000003759, 3.495570591146252268E-18, 0.0000000000000000000 ) ) ;
#334 = ORIENTED_EDGE ( 'NONE', *, *, #35, .T. ) ;
#335 = CARTESIAN_POINT ( 'NONE',  ( -0.02952454724999999808, 0.0000000000000000000, 0.0000000000000000000 ) ) ;
#336 = AXIS2_PLACEMENT_3D ( 'NONE', #319, #321, #295 ) ;
#337 = EDGE_LOOP ( 'NONE', ( #342, #17, #138, #312 ) ) ;
#338 = FACE_OUTER_BOUND ( 'NONE', #9, .T. ) ;
#339 = EDGE_LOOP ( 'NONE', ( #307, #101 ) ) ;
#340 = DIRECTION ( 'NONE',  ( -1.000000000000000000, 0.0000000000000000000, 0.0000000000000000000 ) ) ;
#341 = CIRCLE ( 'NONE', #64, 0.02854350000000000637 ) ;
#342 = ORIENTED_EDGE ( 'NONE', *, *, #153, .T. ) ;
#343 = DIRECTION ( 'NONE',  ( -0.0000000000000000000, -0.0000000000000000000, -1.000000000000000000 ) ) ;
#344 = ORIENTED_EDGE ( 'NONE', *, *, #65, .F. ) ;
#345 = EDGE_CURVE ( 'NONE', #70, #297, #261, .T. ) ;
#346 =( NAMED_UNIT ( * ) PLANE_ANGLE_UNIT ( ) SI_UNIT ( $, .RADIAN. ) );
#347 = LINE ( 'NONE', #46, #198 ) ;
#348 = CARTESIAN_POINT ( 'NONE',  ( 0.02854350000000007229, 0.0000000000000000000, 0.5905510000000000481 ) ) ;
#349 = MECHANICAL_DESIGN_GEOMETRIC_PRESENTATION_REPRESENTATION (  '', ( #85 ), #151 ) ;
#350 = PRESENTATION_STYLE_ASSIGNMENT (( #246 ) ) ;
#351 = EDGE_CURVE ( 'NONE', #90, #169, #161, .T. ) ;
#352 = DIRECTION ( 'NONE',  ( 0.0000000000000000000, 0.0000000000000000000, 1.000000000000000000 ) ) ;
#353 = PLANE ( 'NONE',  #13 ) ;
#354 = ORIENTED_EDGE ( 'NONE', *, *, #303, .F. ) ;
#355 = AXIS2_PLACEMENT_3D ( 'NONE', #170, #79, #311 ) ;
#356 = DIRECTION ( 'NONE',  ( -1.000000000000000000, 0.0000000000000000000, 0.0000000000000000000 ) ) ;
#357 = SURFACE_SIDE_STYLE ('',( #55 ) ) ;
#358 = VECTOR ( 'NONE', #205, 39.37007874015748143 ) ;
#359 = DIRECTION ( 'NONE',  ( -0.0000000000000000000, -0.0000000000000000000, -1.000000000000000000 ) ) ;
#360 = DIRECTION ( 'NONE',  ( -1.000000000000000000, 0.0000000000000000000, 0.0000000000000000000 ) ) ;
#361 = ORIENTED_EDGE ( 'NONE', *, *, #160, .F. ) ;
#362 = CIRCLE ( 'NONE', #298, 0.1181100000000000066 ) ;
#363 = DIRECTION ( 'NONE',  ( 0.0000000000000000000, 0.0000000000000000000, 1.000000000000000000 ) ) ;
#364 = ORIENTED_EDGE ( 'NONE', *, *, #49, .T. ) ;
#365 = DIRECTION ( 'NONE',  ( 0.0000000000000000000, 0.0000000000000000000, 1.000000000000000000 ) ) ;
#366 = AXIS2_PLACEMENT_3D ( 'NONE', #348, #21, #176 ) ;
#367 = EDGE_CURVE ( 'NONE', #228, #297, #204, .T. ) ;
#368 = ORIENTED_EDGE ( 'NONE', *, *, #285, .F. ) ;
#369 = CARTESIAN_POINT ( 'NONE',  ( 0.0000000000000000000, 0.0000000000000000000, 0.06461879543311090102 ) ) ;
#370 = EDGE_LOOP ( 'NONE', ( #194, #315 ) ) ;
#371 = CARTESIAN_POINT ( 'NONE',  ( 0.1181100000000000066, 1.446430334472939084E-17, 2.244094000000000033 ) ) ;
#372 = VERTEX_POINT ( 'NONE', #317 ) ;
#373 = ADVANCED_FACE ( 'NONE', ( #262 ), #208, .T. ) ;
#374 = LINE ( 'NONE', #86, #358 ) ;
#375 = CARTESIAN_POINT ( 'NONE',  ( 0.0000000000000000000, 0.0000000000000000000, 2.229093999999999465 ) ) ;
#376 = CIRCLE ( 'NONE', #39, 0.02952454724999999808 ) ;
#377 = PLANE ( 'NONE',  #366 ) ;
#378 = EDGE_CURVE ( 'NONE', #297, #228, #172, .T. ) ;
#379 = CARTESIAN_POINT ( 'NONE',  ( -0.1031100000000002570, 0.0000000000000000000, 2.244094000000000033 ) ) ;
ENDSEC;
END-ISO-10303-21;
