ISO-10303-21;
HEADER;
FILE_DESCRIPTION (( 'STEP AP214' ),
    '1' );
FILE_NAME ('59634.STEP',
    '2023-07-24T15:17:37',
    ( '' ),
    ( '' ),
    'SwSTEP 2.0',
    'SolidWorks 2023',
    '' );
FILE_SCHEMA (( 'AUTOMOTIVE_DESIGN' ));
ENDSEC;

DATA;
#1 = AXIS2_PLACEMENT_3D ( 'NONE', #250, #47, #158 ) ;
#2 = VECTOR ( 'NONE', #179, 1000.000000000000000 ) ;
#3 = VECTOR ( 'NONE', #60, 1000.000000000000000 ) ;
#4 = ORIENTED_EDGE ( 'NONE', *, *, #43, .F. ) ;
#5 = DIRECTION ( 'NONE',  ( -1.213614799521464586E-16, 1.000000000000000000, -0.000000000000000000 ) ) ;
#6 = ORIENTED_EDGE ( 'NONE', *, *, #43, .T. ) ;
#7 = UNCERTAINTY_MEASURE_WITH_UNIT (LENGTH_MEASURE( 1.000000000000000082E-05 ), #137, 'distance_accuracy_value', 'NONE');
#8 = EDGE_LOOP ( 'NONE', ( #116, #87, #297, #45 ) ) ;
#9 = CYLINDRICAL_SURFACE ( 'NONE', #310, 2.999999999999995559 ) ;
#10 = EDGE_LOOP ( 'NONE', ( #234, #91 ) ) ;
#11 = ORIENTED_EDGE ( 'NONE', *, *, #263, .F. ) ;
#12 = DIRECTION ( 'NONE',  ( -1.000000000000000000, 0.000000000000000000, 0.000000000000000000 ) ) ;
#13 = CIRCLE ( 'NONE', #253, 0.9999999999999997780 ) ;
#14 =( GEOMETRIC_REPRESENTATION_CONTEXT ( 3 ) GLOBAL_UNCERTAINTY_ASSIGNED_CONTEXT ( ( #331 ) ) GLOBAL_UNIT_ASSIGNED_CONTEXT ( ( #295, #216, #18 ) ) REPRESENTATION_CONTEXT ( 'NONE', 'WORKASPACE' ) );
#15 = EDGE_LOOP ( 'NONE', ( #348, #68, #130, #322 ) ) ;
#16 =( NAMED_UNIT ( * ) PLANE_ANGLE_UNIT ( ) SI_UNIT ( $, .RADIAN. ) );
#17 = SURFACE_STYLE_FILL_AREA ( #222 ) ;
#18 =( NAMED_UNIT ( * ) SI_UNIT ( $, .STERADIAN. ) SOLID_ANGLE_UNIT ( ) );
#19 = CARTESIAN_POINT ( 'NONE',  ( 0.000000000000000000, 0.000000000000000000, 0.000000000000000000 ) ) ;
#20 = FACE_OUTER_BOUND ( 'NONE', #117, .T. ) ;
#21 = FILL_AREA_STYLE_COLOUR ( '', #50 ) ;
#22 =( GEOMETRIC_REPRESENTATION_CONTEXT ( 3 ) GLOBAL_UNCERTAINTY_ASSIGNED_CONTEXT ( ( #349 ) ) GLOBAL_UNIT_ASSIGNED_CONTEXT ( ( #192, #362, #301 ) ) REPRESENTATION_CONTEXT ( 'NONE', 'WORKASPACE' ) );
#23 = AXIS2_PLACEMENT_3D ( 'NONE', #101, #311, #59 ) ;
#24 = COLOUR_RGB ( '',1.000000000000000000, 0.000000000000000000, 0.000000000000000000 ) ;
#25 = DIRECTION ( 'NONE',  ( 0.000000000000000000, -0.000000000000000000, 1.000000000000000000 ) ) ;
#26 = PRODUCT_DEFINITION_CONTEXT ( 'detailed design', #67, 'design' ) ;
#27 = SHAPE_DEFINITION_REPRESENTATION ( #123, #288 ) ;
#28 = PRESENTATION_LAYER_ASSIGNMENT (  '', '', ( #121 ) ) ;
#29 = FILL_AREA_STYLE_COLOUR ( '', #100 ) ;
#30 = DIRECTION ( 'NONE',  ( 0.000000000000000000, -1.000000000000000000, -0.000000000000000000 ) ) ;
#31 = DIRECTION ( 'NONE',  ( -0.000000000000000000, -1.000000000000000000, -0.000000000000000000 ) ) ;
#32 = DIRECTION ( 'NONE',  ( -1.224646799147353207E-16, 0.000000000000000000, -1.000000000000000000 ) ) ;
#33 = CARTESIAN_POINT ( 'NONE',  ( 0.000000000000000000, 0.000000000000000000, 0.000000000000000000 ) ) ;
#34 = DIRECTION ( 'NONE',  ( -1.213614799521464586E-16, 1.000000000000000000, -0.000000000000000000 ) ) ;
#35 = ADVANCED_FACE ( 'NONE', ( #304 ), #244, .T. ) ;
#36 = UNCERTAINTY_MEASURE_WITH_UNIT (LENGTH_MEASURE( 1.000000000000000082E-05 ), #231, 'distance_accuracy_value', 'NONE');
#37 = CARTESIAN_POINT ( 'NONE',  ( 0.000000000000000000, 1.000000000000000000, -3.000000000000000000 ) ) ;
#38 = AXIS2_PLACEMENT_3D ( 'NONE', #175, #306, #168 ) ;
#39 = ORIENTED_EDGE ( 'NONE', *, *, #149, .T. ) ;
#40 = DIRECTION ( 'NONE',  ( -0.000000000000000000, -1.000000000000000000, -0.000000000000000000 ) ) ;
#41 = DIRECTION ( 'NONE',  ( 1.000000000000000000, 0.000000000000000000, 0.000000000000000000 ) ) ;
#42 = ORIENTED_EDGE ( 'NONE', *, *, #187, .F. ) ;
#43 = EDGE_CURVE ( 'NONE', #317, #110, #296, .T. ) ;
#44 = AXIS2_PLACEMENT_3D ( 'NONE', #370, #309, #340 ) ;
#45 = ORIENTED_EDGE ( 'NONE', *, *, #78, .F. ) ;
#46 = DIRECTION ( 'NONE',  ( -1.213614799521464586E-16, 1.000000000000000000, -0.000000000000000000 ) ) ;
#47 = DIRECTION ( 'NONE',  ( 1.213614799521464586E-16, -1.000000000000000000, 0.000000000000000000 ) ) ;
#48 = UNCERTAINTY_MEASURE_WITH_UNIT (LENGTH_MEASURE( 1.000000000000000082E-05 ), #294, 'distance_accuracy_value', 'NONE');
#49 = DIRECTION ( 'NONE',  ( -0.000000000000000000, -1.000000000000000000, -0.000000000000000000 ) ) ;
#50 = COLOUR_RGB ( '',1.000000000000000000, 0.000000000000000000, 0.000000000000000000 ) ;
#51 = STYLED_ITEM ( 'NONE', ( #197 ), #277 ) ;
#52 = SURFACE_STYLE_FILL_AREA ( #367 ) ;
#53 = APPLICATION_PROTOCOL_DEFINITION ( 'draft international standard', 'automotive_design', 1998, #67 ) ;
#54 = PLANE ( 'NONE',  #213 ) ;
#55 = SURFACE_STYLE_USAGE ( .BOTH. , #334 ) ;
#56 = PRESENTATION_STYLE_ASSIGNMENT (( #279 ) ) ;
#57 = STYLED_ITEM ( 'NONE', ( #81 ), #290 ) ;
#58 = FILL_AREA_STYLE_COLOUR ( '', #345 ) ;
#59 = DIRECTION ( 'NONE',  ( 0.000000000000000000, 0.000000000000000000, -1.000000000000000000 ) ) ;
#60 = DIRECTION ( 'NONE',  ( -1.213614799521464586E-16, 1.000000000000000000, -0.000000000000000000 ) ) ;
#61 = ORIENTED_EDGE ( 'NONE', *, *, #217, .F. ) ;
#62 = CARTESIAN_POINT ( 'NONE',  ( 8.023096076392732812E-15, 9.000000000000001776, 0.000000000000000000 ) ) ;
#63 = PRODUCT_DEFINITION_FORMATION_WITH_SPECIFIED_SOURCE ( 'ANY', '', #95, .NOT_KNOWN. ) ;
#64 = ORIENTED_EDGE ( 'NONE', *, *, #78, .T. ) ;
#65 = CYLINDRICAL_SURFACE ( 'NONE', #104, 3.000000000000000000 ) ;
#66 = CARTESIAN_POINT ( 'NONE',  ( 8.023096076392732812E-15, 9.000000000000001776, 0.000000000000000000 ) ) ;
#67 = APPLICATION_CONTEXT ( 'automotive_design' ) ;
#68 = ORIENTED_EDGE ( 'NONE', *, *, #282, .T. ) ;
#69 = AXIS2_PLACEMENT_3D ( 'NONE', #66, #289, #150 ) ;
#70 = TOROIDAL_SURFACE ( 'NONE', #38, 2.000000000000000000, 0.9999999999999997780 ) ;
#71 = FILL_AREA_STYLE_COLOUR ( '', #75 ) ;
#72 = SURFACE_SIDE_STYLE ('',( #17 ) ) ;
#73 = ADVANCED_FACE ( 'NONE', ( #96 ), #330, .F. ) ;
#74 = UNCERTAINTY_MEASURE_WITH_UNIT (LENGTH_MEASURE( 1.000000000000000082E-05 ), #313, 'distance_accuracy_value', 'NONE');
#75 = COLOUR_RGB ( '',1.000000000000000000, 0.000000000000000000, 0.000000000000000000 ) ;
#76 = STYLED_ITEM ( 'NONE', ( #224 ), #356 ) ;
#77 = CARTESIAN_POINT ( 'NONE',  ( 1.469576158976823750E-15, 63.00000000000000000, 0.000000000000000000 ) ) ;
#78 = EDGE_CURVE ( 'NONE', #122, #182, #159, .T. ) ;
#79 = CARTESIAN_POINT ( 'NONE',  ( 3.673940397442059868E-16, 9.000000000000000000, 3.000000000000000000 ) ) ;
#80 = CIRCLE ( 'NONE', #94, 3.000000000000000000 ) ;
#81 = PRESENTATION_STYLE_ASSIGNMENT (( #111 ) ) ;
#82 = CARTESIAN_POINT ( 'NONE',  ( 0.000000000000000000, 0.000000000000000000, 0.000000000000000000 ) ) ;
#83 = SURFACE_STYLE_FILL_AREA ( #262 ) ;
#84 = COLOUR_RGB ( '',0.7921568627450980005, 0.8196078431372548767, 0.9333333333333333481 ) ;
#85 = ORIENTED_EDGE ( 'NONE', *, *, #254, .T. ) ;
#86 = ADVANCED_FACE ( 'NONE', ( #20 ), #54, .F. ) ;
#87 = ORIENTED_EDGE ( 'NONE', *, *, #120, .T. ) ;
#88 =( GEOMETRIC_REPRESENTATION_CONTEXT ( 3 ) GLOBAL_UNCERTAINTY_ASSIGNED_CONTEXT ( ( #36 ) ) GLOBAL_UNIT_ASSIGNED_CONTEXT ( ( #231, #103, #140 ) ) REPRESENTATION_CONTEXT ( 'NONE', 'WORKASPACE' ) );
#89 = DIRECTION ( 'NONE',  ( 0.000000000000000000, 0.000000000000000000, 1.000000000000000000 ) ) ;
#90 = SURFACE_STYLE_FILL_AREA ( #214 ) ;
#91 = ORIENTED_EDGE ( 'NONE', *, *, #343, .T. ) ;
#92 = EDGE_LOOP ( 'NONE', ( #85, #6 ) ) ;
#93 = CARTESIAN_POINT ( 'NONE',  ( 0.000000000000000000, 0.000000000000000000, 0.000000000000000000 ) ) ;
#94 = AXIS2_PLACEMENT_3D ( 'NONE', #114, #350, #318 ) ;
#95 = PRODUCT ( '59634', '59634', '', ( #98 ) ) ;
#96 = FACE_OUTER_BOUND ( 'NONE', #92, .T. ) ;
#97 = ORIENTED_EDGE ( 'NONE', *, *, #324, .T. ) ;
#98 = PRODUCT_CONTEXT ( 'NONE', #236, 'mechanical' ) ;
#99 = CARTESIAN_POINT ( 'NONE',  ( 0.000000000000000000, 9.000000000000000000, 0.000000000000000000 ) ) ;
#100 = COLOUR_RGB ( '',1.000000000000000000, 0.000000000000000000, 0.000000000000000000 ) ;
#101 = CARTESIAN_POINT ( 'NONE',  ( 0.000000000000000000, 9.000000000000000000, 0.000000000000000000 ) ) ;
#102 = FACE_OUTER_BOUND ( 'NONE', #15, .T. ) ;
#103 =( NAMED_UNIT ( * ) PLANE_ANGLE_UNIT ( ) SI_UNIT ( $, .RADIAN. ) );
#104 = AXIS2_PLACEMENT_3D ( 'NONE', #19, #40, #247 ) ;
#105 = CIRCLE ( 'NONE', #160, 2.000000000000000000 ) ;
#106 = CARTESIAN_POINT ( 'NONE',  ( 0.000000000000000000, 0.000000000000000000, -3.000000000000000000 ) ) ;
#107 = CARTESIAN_POINT ( 'NONE',  ( 0.000000000000000000, 0.000000000000000000, 0.000000000000000000 ) ) ;
#108 = ADVANCED_FACE ( 'NONE', ( #357 ), #135, .T. ) ;
#109 = CIRCLE ( 'NONE', #154, 0.9999999999999997780 ) ;
#110 = VERTEX_POINT ( 'NONE', #256 ) ;
#111 = SURFACE_STYLE_USAGE ( .BOTH. , #144 ) ;
#112 = UNCERTAINTY_MEASURE_WITH_UNIT (LENGTH_MEASURE( 1.000000000000000082E-05 ), #227, 'distance_accuracy_value', 'NONE');
#113 = ORIENTED_EDGE ( 'NONE', *, *, #282, .F. ) ;
#114 = CARTESIAN_POINT ( 'NONE',  ( 0.000000000000000000, 1.000000000000000000, 0.000000000000000000 ) ) ;
#115 = CARTESIAN_POINT ( 'NONE',  ( 1.469576158976823750E-15, 63.00000000000000000, 0.000000000000000000 ) ) ;
#116 = ORIENTED_EDGE ( 'NONE', *, *, #149, .F. ) ;
#117 = EDGE_LOOP ( 'NONE', ( #181, #156 ) ) ;
#118 = DIRECTION ( 'NONE',  ( -1.000000000000000000, 0.000000000000000000, 0.000000000000000000 ) ) ;
#119 = SURFACE_STYLE_USAGE ( .BOTH. , #269 ) ;
#120 = EDGE_CURVE ( 'NONE', #238, #155, #278, .T. ) ;
#121 = STYLED_ITEM ( 'NONE', ( #56 ), #305 ) ;
#122 = VERTEX_POINT ( 'NONE', #208 ) ;
#123 = PRODUCT_DEFINITION_SHAPE ( 'NONE', 'NONE',  #143 ) ;
#124 = DIRECTION ( 'NONE',  ( -1.000000000000000000, -1.213614799521464586E-16, 0.000000000000000000 ) ) ;
#125 = FILL_AREA_STYLE ('',( #71 ) ) ;
#126 = AXIS2_PLACEMENT_3D ( 'NONE', #99, #218, #25 ) ;
#127 =( GEOMETRIC_REPRESENTATION_CONTEXT ( 3 ) GLOBAL_UNCERTAINTY_ASSIGNED_CONTEXT ( ( #131 ) ) GLOBAL_UNIT_ASSIGNED_CONTEXT ( ( #229, #241, #272 ) ) REPRESENTATION_CONTEXT ( 'NONE', 'WORKASPACE' ) );
#128 =( NAMED_UNIT ( * ) SI_UNIT ( $, .STERADIAN. ) SOLID_ANGLE_UNIT ( ) );
#129 = DIRECTION ( 'NONE',  ( 0.000000000000000000, 0.000000000000000000, -1.000000000000000000 ) ) ;
#130 = ORIENTED_EDGE ( 'NONE', *, *, #254, .F. ) ;
#131 = UNCERTAINTY_MEASURE_WITH_UNIT (LENGTH_MEASURE( 1.000000000000000082E-05 ), #229, 'distance_accuracy_value', 'NONE');
#132 = AXIS2_PLACEMENT_3D ( 'NONE', #77, #46, #303 ) ;
#133 = AXIS2_PLACEMENT_3D ( 'NONE', #62, #152, #180 ) ;
#134 = CIRCLE ( 'NONE', #133, 2.999999999999992450 ) ;
#135 = CYLINDRICAL_SURFACE ( 'NONE', #338, 3.000000000000000000 ) ;
#136 = DIRECTION ( 'NONE',  ( 0.000000000000000000, 0.000000000000000000, -1.000000000000000000 ) ) ;
#137 =( LENGTH_UNIT ( ) NAMED_UNIT ( * ) SI_UNIT ( .MILLI., .METRE. ) );
#138 = CARTESIAN_POINT ( 'NONE',  ( 3.673940397442059868E-16, 0.000000000000000000, 3.000000000000000000 ) ) ;
#139 = CARTESIAN_POINT ( 'NONE',  ( -2.999999999999984457, 9.000000000000001776, 0.000000000000000000 ) ) ;
#140 =( NAMED_UNIT ( * ) SI_UNIT ( $, .STERADIAN. ) SOLID_ANGLE_UNIT ( ) );
#141 = PRESENTATION_LAYER_ASSIGNMENT (  '', '', ( #261 ) ) ;
#142 = MECHANICAL_DESIGN_GEOMETRIC_PRESENTATION_REPRESENTATION (  '', ( #145 ), #127 ) ;
#143 = PRODUCT_DEFINITION ( 'UNKNOWN', '', #63, #26 ) ;
#144 = SURFACE_SIDE_STYLE ('',( #83 ) ) ;
#145 = STYLED_ITEM ( 'NONE', ( #201 ), #251 ) ;
#146 = MECHANICAL_DESIGN_GEOMETRIC_PRESENTATION_REPRESENTATION (  '', ( #76 ), #359 ) ;
#147 = ORIENTED_EDGE ( 'NONE', *, *, #187, .T. ) ;
#148 = FILL_AREA_STYLE_COLOUR ( '', #84 ) ;
#149 = EDGE_CURVE ( 'NONE', #238, #122, #342, .T. ) ;
#150 = DIRECTION ( 'NONE',  ( -1.000000000000000000, 0.000000000000000000, 0.000000000000000000 ) ) ;
#151 = EDGE_LOOP ( 'NONE', ( #242, #239 ) ) ;
#152 = DIRECTION ( 'NONE',  ( -1.213614799521464586E-16, 1.000000000000000000, -0.000000000000000000 ) ) ;
#153 = AXIS2_PLACEMENT_3D ( 'NONE', #33, #30, #136 ) ;
#154 = AXIS2_PLACEMENT_3D ( 'NONE', #260, #285, #32 ) ;
#155 = VERTEX_POINT ( 'NONE', #233 ) ;
#156 = ORIENTED_EDGE ( 'NONE', *, *, #174, .F. ) ;
#157 = CARTESIAN_POINT ( 'NONE',  ( 0.000000000000000000, 0.000000000000000000, -2.000000000000000000 ) ) ;
#158 = DIRECTION ( 'NONE',  ( 1.000000000000000000, 1.213614799521464586E-16, 0.000000000000000000 ) ) ;
#159 = CIRCLE ( 'NONE', #368, 3.000000000000000000 ) ;
#160 = AXIS2_PLACEMENT_3D ( 'NONE', #82, #49, #202 ) ;
#161 = SURFACE_SIDE_STYLE ('',( #221 ) ) ;
#162 = SURFACE_SIDE_STYLE ('',( #52 ) ) ;
#163 = FACE_OUTER_BOUND ( 'NONE', #326, .T. ) ;
#164 = CARTESIAN_POINT ( 'NONE',  ( 8.023096076392732812E-15, 9.000000000000000000, 0.000000000000000000 ) ) ;
#165 = EDGE_CURVE ( 'NONE', #325, #211, #369, .T. ) ;
#166 = SURFACE_SIDE_STYLE ('',( #360 ) ) ;
#167 =( NAMED_UNIT ( * ) SI_UNIT ( $, .STERADIAN. ) SOLID_ANGLE_UNIT ( ) );
#168 = DIRECTION ( 'NONE',  ( 0.000000000000000000, 0.000000000000000000, -1.000000000000000000 ) ) ;
#169 =( GEOMETRIC_REPRESENTATION_CONTEXT ( 3 ) GLOBAL_UNCERTAINTY_ASSIGNED_CONTEXT ( ( #48 ) ) GLOBAL_UNIT_ASSIGNED_CONTEXT ( ( #294, #16, #210 ) ) REPRESENTATION_CONTEXT ( 'NONE', 'WORKASPACE' ) );
#170 = PRESENTATION_LAYER_ASSIGNMENT (  '', '', ( #76 ) ) ;
#171 = SURFACE_SIDE_STYLE ('',( #286 ) ) ;
#172 = MANIFOLD_SOLID_BREP ( 'Revolve - Tool Body (Straight Shanked)', #363 ) ;
#173 = DIRECTION ( 'NONE',  ( 0.000000000000000000, 0.000000000000000000, -1.000000000000000000 ) ) ;
#174 = EDGE_CURVE ( 'NONE', #211, #325, #134, .T. ) ;
#175 = CARTESIAN_POINT ( 'NONE',  ( 0.000000000000000000, 1.000000000000000000, 0.000000000000000000 ) ) ;
#176 = DIRECTION ( 'NONE',  ( 0.000000000000000000, 0.000000000000000000, -1.000000000000000000 ) ) ;
#177 = COLOUR_RGB ( '',1.000000000000000000, 0.000000000000000000, 0.000000000000000000 ) ;
#178 = CIRCLE ( 'NONE', #196, 2.000000000000000000 ) ;
#179 = DIRECTION ( 'NONE',  ( -0.000000000000000000, -1.000000000000000000, -0.000000000000000000 ) ) ;
#180 = DIRECTION ( 'NONE',  ( -1.000000000000000000, 0.000000000000000000, 0.000000000000000000 ) ) ;
#181 = ORIENTED_EDGE ( 'NONE', *, *, #165, .F. ) ;
#182 = VERTEX_POINT ( 'NONE', #37 ) ;
#183 = FACE_OUTER_BOUND ( 'NONE', #270, .T. ) ;
#184 = EDGE_CURVE ( 'NONE', #325, #110, #266, .T. ) ;
#185 = ORIENTED_EDGE ( 'NONE', *, *, #336, .F. ) ;
#186 = ORIENTED_EDGE ( 'NONE', *, *, #174, .T. ) ;
#187 = EDGE_CURVE ( 'NONE', #182, #122, #80, .T. ) ;
#188 = CIRCLE ( 'NONE', #230, 2.999999999999998668 ) ;
#189 =( GEOMETRIC_REPRESENTATION_CONTEXT ( 3 ) GLOBAL_UNCERTAINTY_ASSIGNED_CONTEXT ( ( #264 ) ) GLOBAL_UNIT_ASSIGNED_CONTEXT ( ( #344, #366, #167 ) ) REPRESENTATION_CONTEXT ( 'NONE', 'WORKASPACE' ) );
#190 = PRESENTATION_LAYER_ASSIGNMENT (  '', '', ( #57 ) ) ;
#191 = SURFACE_STYLE_USAGE ( .BOTH. , #72 ) ;
#192 =( LENGTH_UNIT ( ) NAMED_UNIT ( * ) SI_UNIT ( .MILLI., .METRE. ) );
#193 = DIRECTION ( 'NONE',  ( -1.213614799521464586E-16, 1.000000000000000000, -0.000000000000000000 ) ) ;
#194 = PRESENTATION_STYLE_ASSIGNMENT (( #332 ) ) ;
#195 = FACE_OUTER_BOUND ( 'NONE', #200, .T. ) ;
#196 = AXIS2_PLACEMENT_3D ( 'NONE', #93, #300, #176 ) ;
#197 = PRESENTATION_STYLE_ASSIGNMENT (( #335 ) ) ;
#198 = PRODUCT_RELATED_PRODUCT_CATEGORY ( 'part', '', ( #95 ) ) ;
#199 =( NAMED_UNIT ( * ) PLANE_ANGLE_UNIT ( ) SI_UNIT ( $, .RADIAN. ) );
#200 = EDGE_LOOP ( 'NONE', ( #267, #64, #293, #235 ) ) ;
#201 = PRESENTATION_STYLE_ASSIGNMENT (( #258 ) ) ;
#202 = DIRECTION ( 'NONE',  ( 0.000000000000000000, 0.000000000000000000, -1.000000000000000000 ) ) ;
#203 =( NAMED_UNIT ( * ) SI_UNIT ( $, .STERADIAN. ) SOLID_ANGLE_UNIT ( ) );
#204 = LINE ( 'NONE', #257, #3 ) ;
#205 = TOROIDAL_SURFACE ( 'NONE', #287, 2.000000000000000000, 0.9999999999999997780 ) ;
#206 =( NAMED_UNIT ( * ) SI_UNIT ( $, .STERADIAN. ) SOLID_ANGLE_UNIT ( ) );
#207 = LINE ( 'NONE', #106, #298 ) ;
#208 = CARTESIAN_POINT ( 'NONE',  ( 3.673940397442059375E-16, 1.000000000000000000, 3.000000000000000000 ) ) ;
#209 = ADVANCED_FACE ( 'NONE', ( #183 ), #9, .T. ) ;
#210 =( NAMED_UNIT ( * ) SI_UNIT ( $, .STERADIAN. ) SOLID_ANGLE_UNIT ( ) );
#211 = VERTEX_POINT ( 'NONE', #323 ) ;
#212 = PRESENTATION_STYLE_ASSIGNMENT (( #119 ) ) ;
#213 = AXIS2_PLACEMENT_3D ( 'NONE', #164, #280, #124 ) ;
#214 = FILL_AREA_STYLE ('',( #148 ) ) ;
#215 = EDGE_LOOP ( 'NONE', ( #351, #39, #42, #185 ) ) ;
#216 =( NAMED_UNIT ( * ) PLANE_ANGLE_UNIT ( ) SI_UNIT ( $, .RADIAN. ) );
#217 = EDGE_CURVE ( 'NONE', #275, #299, #178, .T. ) ;
#218 = DIRECTION ( 'NONE',  ( 0.000000000000000000, 1.000000000000000000, 0.000000000000000000 ) ) ;
#219 = VECTOR ( 'NONE', #5, 1000.000000000000000 ) ;
#220 = DIRECTION ( 'NONE',  ( -0.000000000000000000, -1.000000000000000000, -0.000000000000000000 ) ) ;
#221 = SURFACE_STYLE_FILL_AREA ( #361 ) ;
#222 = FILL_AREA_STYLE ('',( #273 ) ) ;
#223 = PRESENTATION_LAYER_ASSIGNMENT (  '', '', ( #319 ) ) ;
#224 = PRESENTATION_STYLE_ASSIGNMENT (( #55 ) ) ;
#225 = APPLICATION_PROTOCOL_DEFINITION ( 'draft international standard', 'automotive_design', 1998, #236 ) ;
#226 = CARTESIAN_POINT ( 'NONE',  ( 3.000000000000000444, 63.00000000000000000, 3.673940397442056910E-16 ) ) ;
#227 =( LENGTH_UNIT ( ) NAMED_UNIT ( * ) SI_UNIT ( .MILLI., .METRE. ) );
#228 = CARTESIAN_POINT ( 'NONE',  ( 1.469576158976823750E-15, 63.00000000000000000, 0.000000000000000000 ) ) ;
#229 =( LENGTH_UNIT ( ) NAMED_UNIT ( * ) SI_UNIT ( .MILLI., .METRE. ) );
#230 = AXIS2_PLACEMENT_3D ( 'NONE', #268, #193, #12 ) ;
#231 =( LENGTH_UNIT ( ) NAMED_UNIT ( * ) SI_UNIT ( .MILLI., .METRE. ) );
#232 = DIRECTION ( 'NONE',  ( 0.000000000000000000, 0.000000000000000000, 1.000000000000000000 ) ) ;
#233 = CARTESIAN_POINT ( 'NONE',  ( 0.000000000000000000, 9.000000000000000000, -3.000000000000000000 ) ) ;
#234 = ORIENTED_EDGE ( 'NONE', *, *, #217, .T. ) ;
#235 = ORIENTED_EDGE ( 'NONE', *, *, #343, .F. ) ;
#236 = APPLICATION_CONTEXT ( 'automotive_design' ) ;
#237 = DIRECTION ( 'NONE',  ( -1.213614799521464586E-16, 1.000000000000000000, -0.000000000000000000 ) ) ;
#238 = VERTEX_POINT ( 'NONE', #79 ) ;
#239 = ORIENTED_EDGE ( 'NONE', *, *, #120, .F. ) ;
#240 = MECHANICAL_DESIGN_GEOMETRIC_PRESENTATION_REPRESENTATION (  '', ( #51 ), #271 ) ;
#241 =( NAMED_UNIT ( * ) PLANE_ANGLE_UNIT ( ) SI_UNIT ( $, .RADIAN. ) );
#242 = ORIENTED_EDGE ( 'NONE', *, *, #337, .F. ) ;
#243 = CARTESIAN_POINT ( 'NONE',  ( 0.000000000000000000, 1.000000000000000000, 0.000000000000000000 ) ) ;
#244 = PLANE ( 'NONE',  #126 ) ;
#245 = PLANE ( 'NONE',  #153 ) ;
#246 = PRESENTATION_STYLE_ASSIGNMENT (( #191 ) ) ;
#247 = DIRECTION ( 'NONE',  ( 0.000000000000000000, 0.000000000000000000, -1.000000000000000000 ) ) ;
#248 = FILL_AREA_STYLE ('',( #29 ) ) ;
#249 = MECHANICAL_DESIGN_GEOMETRIC_PRESENTATION_REPRESENTATION (  '', ( #121 ), #312 ) ;
#250 = CARTESIAN_POINT ( 'NONE',  ( 3.000000000000000000, 63.00000000000000000, 0.000000000000000000 ) ) ;
#251 = ADVANCED_FACE ( 'NONE', ( #307 ), #65, .T. ) ;
#252 =( NAMED_UNIT ( * ) PLANE_ANGLE_UNIT ( ) SI_UNIT ( $, .RADIAN. ) );
#253 = AXIS2_PLACEMENT_3D ( 'NONE', #327, #118, #89 ) ;
#254 = EDGE_CURVE ( 'NONE', #110, #317, #188, .T. ) ;
#255 = SURFACE_STYLE_FILL_AREA ( #248 ) ;
#256 = CARTESIAN_POINT ( 'NONE',  ( -2.999999999999997335, 63.00000000000000000, 0.000000000000000000 ) ) ;
#257 = CARTESIAN_POINT ( 'NONE',  ( 2.999999999999996891, 63.00000000000000000, 3.673940397442054445E-16 ) ) ;
#258 = SURFACE_STYLE_USAGE ( .BOTH. , #171 ) ;
#259 = FILL_AREA_STYLE_COLOUR ( '', #24 ) ;
#260 = CARTESIAN_POINT ( 'NONE',  ( 2.449293598294706414E-16, 1.000000000000000000, 2.000000000000000000 ) ) ;
#261 = STYLED_ITEM ( 'NONE', ( #194 ), #108 ) ;
#262 = FILL_AREA_STYLE ('',( #341 ) ) ;
#263 = EDGE_CURVE ( 'NONE', #182, #275, #13, .T. ) ;
#264 = UNCERTAINTY_MEASURE_WITH_UNIT (LENGTH_MEASURE( 1.000000000000000082E-05 ), #344, 'distance_accuracy_value', 'NONE');
#265 = CARTESIAN_POINT ( 'NONE',  ( -2.999999999999994227, 63.00000000000000000, 0.000000000000000000 ) ) ;
#266 = LINE ( 'NONE', #265, #219 ) ;
#267 = ORIENTED_EDGE ( 'NONE', *, *, #324, .F. ) ;
#268 = CARTESIAN_POINT ( 'NONE',  ( 1.469576158976823750E-15, 63.00000000000000000, 0.000000000000000000 ) ) ;
#269 = SURFACE_SIDE_STYLE ('',( #90 ) ) ;
#270 = EDGE_LOOP ( 'NONE', ( #113, #186, #321, #4 ) ) ;
#271 =( GEOMETRIC_REPRESENTATION_CONTEXT ( 3 ) GLOBAL_UNCERTAINTY_ASSIGNED_CONTEXT ( ( #74 ) ) GLOBAL_UNIT_ASSIGNED_CONTEXT ( ( #313, #199, #203 ) ) REPRESENTATION_CONTEXT ( 'NONE', 'WORKASPACE' ) );
#272 =( NAMED_UNIT ( * ) SI_UNIT ( $, .STERADIAN. ) SOLID_ANGLE_UNIT ( ) );
#273 = FILL_AREA_STYLE_COLOUR ( '', #177 ) ;
#274 = DIRECTION ( 'NONE',  ( 0.000000000000000000, 0.000000000000000000, -1.000000000000000000 ) ) ;
#275 = VERTEX_POINT ( 'NONE', #157 ) ;
#276 = FACE_OUTER_BOUND ( 'NONE', #10, .T. ) ;
#277 = ADVANCED_FACE ( 'NONE', ( #276 ), #245, .T. ) ;
#278 = CIRCLE ( 'NONE', #23, 3.000000000000000000 ) ;
#279 = SURFACE_STYLE_USAGE ( .BOTH. , #162 ) ;
#280 = DIRECTION ( 'NONE',  ( -1.213614799521464586E-16, 1.000000000000000000, 0.000000000000000000 ) ) ;
#281 =( NAMED_UNIT ( * ) PLANE_ANGLE_UNIT ( ) SI_UNIT ( $, .RADIAN. ) );
#282 = EDGE_CURVE ( 'NONE', #211, #317, #204, .T. ) ;
#283 = FILL_AREA_STYLE ('',( #58 ) ) ;
#284 = AXIS2_PLACEMENT_3D ( 'NONE', #228, #34, #364 ) ;
#285 = DIRECTION ( 'NONE',  ( 1.000000000000000000, 0.000000000000000000, -1.224646799147353207E-16 ) ) ;
#286 = SURFACE_STYLE_FILL_AREA ( #283 ) ;
#287 = AXIS2_PLACEMENT_3D ( 'NONE', #243, #355, #274 ) ;
#288 = ADVANCED_BREP_SHAPE_REPRESENTATION ( '59634', ( #290, #172, #339 ), #14 ) ;
#289 = DIRECTION ( 'NONE',  ( -1.213614799521464586E-16, 1.000000000000000000, -0.000000000000000000 ) ) ;
#290 = MANIFOLD_SOLID_BREP ( 'Revolve - Cutting Edge', #291 ) ;
#291 = CLOSED_SHELL ( 'NONE', ( #251, #356, #277, #305, #108, #35 ) ) ;
#292 = MECHANICAL_DESIGN_GEOMETRIC_PRESENTATION_REPRESENTATION (  '', ( #302 ), #169 ) ;
#293 = ORIENTED_EDGE ( 'NONE', *, *, #263, .T. ) ;
#294 =( LENGTH_UNIT ( ) NAMED_UNIT ( * ) SI_UNIT ( .MILLI., .METRE. ) );
#295 =( LENGTH_UNIT ( ) NAMED_UNIT ( * ) SI_UNIT ( .MILLI., .METRE. ) );
#296 = CIRCLE ( 'NONE', #132, 2.999999999999998668 ) ;
#297 = ORIENTED_EDGE ( 'NONE', *, *, #336, .T. ) ;
#298 = VECTOR ( 'NONE', #315, 1000.000000000000000 ) ;
#299 = VERTEX_POINT ( 'NONE', #333 ) ;
#300 = DIRECTION ( 'NONE',  ( -0.000000000000000000, -1.000000000000000000, -0.000000000000000000 ) ) ;
#301 =( NAMED_UNIT ( * ) SI_UNIT ( $, .STERADIAN. ) SOLID_ANGLE_UNIT ( ) );
#302 = STYLED_ITEM ( 'NONE', ( #212 ), #172 ) ;
#303 = DIRECTION ( 'NONE',  ( -1.000000000000000000, 0.000000000000000000, 0.000000000000000000 ) ) ;
#304 = FACE_OUTER_BOUND ( 'NONE', #151, .T. ) ;
#305 = ADVANCED_FACE ( 'NONE', ( #195 ), #70, .T. ) ;
#306 = DIRECTION ( 'NONE',  ( -0.000000000000000000, -1.000000000000000000, -0.000000000000000000 ) ) ;
#307 = FACE_OUTER_BOUND ( 'NONE', #215, .T. ) ;
#308 = MECHANICAL_DESIGN_GEOMETRIC_PRESENTATION_REPRESENTATION (  '', ( #319 ), #22 ) ;
#309 = DIRECTION ( 'NONE',  ( -0.000000000000000000, -1.000000000000000000, -0.000000000000000000 ) ) ;
#310 = AXIS2_PLACEMENT_3D ( 'NONE', #115, #237, #352 ) ;
#311 = DIRECTION ( 'NONE',  ( -0.000000000000000000, -1.000000000000000000, -0.000000000000000000 ) ) ;
#312 =( GEOMETRIC_REPRESENTATION_CONTEXT ( 3 ) GLOBAL_UNCERTAINTY_ASSIGNED_CONTEXT ( ( #7 ) ) GLOBAL_UNIT_ASSIGNED_CONTEXT ( ( #137, #281, #206 ) ) REPRESENTATION_CONTEXT ( 'NONE', 'WORKASPACE' ) );
#313 =( LENGTH_UNIT ( ) NAMED_UNIT ( * ) SI_UNIT ( .MILLI., .METRE. ) );
#314 = ADVANCED_FACE ( 'NONE', ( #102 ), #365, .T. ) ;
#315 = DIRECTION ( 'NONE',  ( -0.000000000000000000, -1.000000000000000000, -0.000000000000000000 ) ) ;
#316 = CARTESIAN_POINT ( 'NONE',  ( 0.000000000000000000, 0.000000000000000000, 0.000000000000000000 ) ) ;
#317 = VERTEX_POINT ( 'NONE', #226 ) ;
#318 = DIRECTION ( 'NONE',  ( 0.000000000000000000, 0.000000000000000000, -1.000000000000000000 ) ) ;
#319 = STYLED_ITEM ( 'NONE', ( #246 ), #35 ) ;
#320 = PRESENTATION_LAYER_ASSIGNMENT (  '', '', ( #51 ) ) ;
#321 = ORIENTED_EDGE ( 'NONE', *, *, #184, .T. ) ;
#322 = ORIENTED_EDGE ( 'NONE', *, *, #184, .F. ) ;
#323 = CARTESIAN_POINT ( 'NONE',  ( 3.000000000000000888, 9.000000000000001776, 3.673940397442056910E-16 ) ) ;
#324 = EDGE_CURVE ( 'NONE', #122, #299, #109, .T. ) ;
#325 = VERTEX_POINT ( 'NONE', #139 ) ;
#326 = EDGE_LOOP ( 'NONE', ( #147, #97, #61, #11 ) ) ;
#327 = CARTESIAN_POINT ( 'NONE',  ( 0.000000000000000000, 1.000000000000000000, -2.000000000000000000 ) ) ;
#328 = CARTESIAN_POINT ( 'NONE',  ( 0.000000000000000000, 1.000000000000000000, 0.000000000000000000 ) ) ;
#329 = CIRCLE ( 'NONE', #44, 3.000000000000000000 ) ;
#330 = PLANE ( 'NONE',  #1 ) ;
#331 = UNCERTAINTY_MEASURE_WITH_UNIT (LENGTH_MEASURE( 1.000000000000000082E-05 ), #295, 'distance_accuracy_value', 'NONE');
#332 = SURFACE_STYLE_USAGE ( .BOTH. , #161 ) ;
#333 = CARTESIAN_POINT ( 'NONE',  ( 3.061616997868383141E-16, 0.000000000000000000, 2.000000000000000000 ) ) ;
#334 = SURFACE_SIDE_STYLE ('',( #255 ) ) ;
#335 = SURFACE_STYLE_USAGE ( .BOTH. , #166 ) ;
#336 = EDGE_CURVE ( 'NONE', #155, #182, #207, .T. ) ;
#337 = EDGE_CURVE ( 'NONE', #155, #238, #329, .T. ) ;
#338 = AXIS2_PLACEMENT_3D ( 'NONE', #316, #31, #173 ) ;
#339 = AXIS2_PLACEMENT_3D ( 'NONE', #107, #232, #41 ) ;
#340 = DIRECTION ( 'NONE',  ( 0.000000000000000000, 0.000000000000000000, -1.000000000000000000 ) ) ;
#341 = FILL_AREA_STYLE_COLOUR ( '', #347 ) ;
#342 = LINE ( 'NONE', #138, #2 ) ;
#343 = EDGE_CURVE ( 'NONE', #299, #275, #105, .T. ) ;
#344 =( LENGTH_UNIT ( ) NAMED_UNIT ( * ) SI_UNIT ( .MILLI., .METRE. ) );
#345 = COLOUR_RGB ( '',1.000000000000000000, 0.000000000000000000, 0.000000000000000000 ) ;
#346 = MECHANICAL_DESIGN_GEOMETRIC_PRESENTATION_REPRESENTATION (  '', ( #57 ), #189 ) ;
#347 = COLOUR_RGB ( '',0.7921568627450980005, 0.8196078431372548767, 0.9333333333333333481 ) ;
#348 = ORIENTED_EDGE ( 'NONE', *, *, #165, .T. ) ;
#349 = UNCERTAINTY_MEASURE_WITH_UNIT (LENGTH_MEASURE( 1.000000000000000082E-05 ), #192, 'distance_accuracy_value', 'NONE');
#350 = DIRECTION ( 'NONE',  ( -0.000000000000000000, -1.000000000000000000, -0.000000000000000000 ) ) ;
#351 = ORIENTED_EDGE ( 'NONE', *, *, #337, .T. ) ;
#352 = DIRECTION ( 'NONE',  ( -1.000000000000000000, 0.000000000000000000, 0.000000000000000000 ) ) ;
#353 = MECHANICAL_DESIGN_GEOMETRIC_PRESENTATION_REPRESENTATION (  '', ( #261 ), #88 ) ;
#354 = PRESENTATION_LAYER_ASSIGNMENT (  '', '', ( #302 ) ) ;
#355 = DIRECTION ( 'NONE',  ( -0.000000000000000000, -1.000000000000000000, -0.000000000000000000 ) ) ;
#356 = ADVANCED_FACE ( 'NONE', ( #163 ), #205, .T. ) ;
#357 = FACE_OUTER_BOUND ( 'NONE', #8, .T. ) ;
#358 = PRESENTATION_LAYER_ASSIGNMENT (  '', '', ( #145 ) ) ;
#359 =( GEOMETRIC_REPRESENTATION_CONTEXT ( 3 ) GLOBAL_UNCERTAINTY_ASSIGNED_CONTEXT ( ( #112 ) ) GLOBAL_UNIT_ASSIGNED_CONTEXT ( ( #227, #252, #128 ) ) REPRESENTATION_CONTEXT ( 'NONE', 'WORKASPACE' ) );
#360 = SURFACE_STYLE_FILL_AREA ( #125 ) ;
#361 = FILL_AREA_STYLE ('',( #21 ) ) ;
#362 =( NAMED_UNIT ( * ) PLANE_ANGLE_UNIT ( ) SI_UNIT ( $, .RADIAN. ) );
#363 = CLOSED_SHELL ( 'NONE', ( #314, #86, #209, #73 ) ) ;
#364 = DIRECTION ( 'NONE',  ( -1.000000000000000000, 0.000000000000000000, 0.000000000000000000 ) ) ;
#365 = CYLINDRICAL_SURFACE ( 'NONE', #284, 2.999999999999995559 ) ;
#366 =( NAMED_UNIT ( * ) PLANE_ANGLE_UNIT ( ) SI_UNIT ( $, .RADIAN. ) );
#367 = FILL_AREA_STYLE ('',( #259 ) ) ;
#368 = AXIS2_PLACEMENT_3D ( 'NONE', #328, #220, #129 ) ;
#369 = CIRCLE ( 'NONE', #69, 2.999999999999992450 ) ;
#370 = CARTESIAN_POINT ( 'NONE',  ( 0.000000000000000000, 9.000000000000000000, 0.000000000000000000 ) ) ;
ENDSEC;
END-ISO-10303-21;
