ISO-10303-21;
HEADER;
FILE_DESCRIPTION (( 'STEP AP214' ),
    '1' );
FILE_NAME ('Micro_GEC-375-2-010.STEP',
    '2021-09-03T17:20:01',
    ( '' ),
    ( '' ),
    'SwSTEP 2.0',
    'SolidWorks 2020',
    '' );
FILE_SCHEMA (( 'AUTOMOTIVE_DESIGN' ));
ENDSEC;

DATA;
#1 = LENGTH_MEASURE_WITH_UNIT ( LENGTH_MEASURE( 0.02539999999999999897 ), #61 );
#2 = CARTESIAN_POINT ( 'NONE',  ( 1.071565949253934025E-16, 0.0000000000000000000, 0.8750000000000000000 ) ) ;
#3 = AXIS2_PLACEMENT_3D ( 'NONE', #64, #338, #306 ) ;
#4 = MECHANICAL_DESIGN_GEOMETRIC_PRESENTATION_REPRESENTATION (  '', ( #12 ), #50 ) ;
#5 =( NAMED_UNIT ( * ) PLANE_ANGLE_UNIT ( ) SI_UNIT ( $, .RADIAN. ) );
#6 = CIRCLE ( 'NONE', #299, 0.1724999999999995981 ) ;
#7 = CIRCLE ( 'NONE', #342, 0.01000000000000000021 ) ;
#8 = DIRECTION ( 'NONE',  ( -1.000000000000000000, 0.0000000000000000000, 0.0000000000000000000 ) ) ;
#9 = EDGE_CURVE ( 'NONE', #53, #177, #6, .T. ) ;
#10 = CARTESIAN_POINT ( 'NONE',  ( 0.1875000000000000833, 2.296212748401288650E-17, 0.8760633653411785682 ) ) ;
#11 = TOROIDAL_SURFACE ( 'NONE', #274, 0.1773124999999999840, 0.01000000000000000021 ) ;
#12 = STYLED_ITEM ( 'NONE', ( #48 ), #242 ) ;
#13 = FACE_OUTER_BOUND ( 'NONE', #256, .T. ) ;
#14 = ORIENTED_EDGE ( 'NONE', *, *, #329, .T. ) ;
#15 = DIRECTION ( 'NONE',  ( 1.000000000000000000, 0.0000000000000000000, 0.0000000000000000000 ) ) ;
#16 = ORIENTED_EDGE ( 'NONE', *, *, #17, .T. ) ;
#17 = EDGE_CURVE ( 'NONE', #226, #78, #331, .T. ) ;
#18 = DIRECTION ( 'NONE',  ( 1.000000000000000000, 0.0000000000000000000, 0.0000000000000000000 ) ) ;
#19 = ORIENTED_EDGE ( 'NONE', *, *, #25, .F. ) ;
#20 = AXIS2_PLACEMENT_3D ( 'NONE', #38, #224, #253 ) ;
#21 = CARTESIAN_POINT ( 'NONE',  ( 0.1875000000000000278, 2.296212748401287726E-17, 2.484999999999999432 ) ) ;
#22 = EDGE_LOOP ( 'NONE', ( #68, #204, #318, #286 ) ) ;
#23 = CARTESIAN_POINT ( 'NONE',  ( 0.0000000000000000000, 0.0000000000000000000, 2.500000000000000000 ) ) ;
#24 = EDGE_LOOP ( 'NONE', ( #153, #129, #66, #19 ) ) ;
#25 = EDGE_CURVE ( 'NONE', #53, #226, #171, .T. ) ;
#26 = CYLINDRICAL_SURFACE ( 'NONE', #245, 0.1875000000000000278 ) ;
#27 = ADVANCED_BREP_SHAPE_REPRESENTATION ( 'Micro_GEC-375-2-010', ( #242, #110 ), #82 ) ;
#28 = LINE ( 'NONE', #290, #99 ) ;
#29 = CARTESIAN_POINT ( 'NONE',  ( 1.224646799147353577E-18, 0.0000000000000000000, 0.01000000000000000194 ) ) ;
#30 = DIRECTION ( 'NONE',  ( 0.0000000000000000000, 0.0000000000000000000, 1.000000000000000000 ) ) ;
#31 = CONICAL_SURFACE ( 'NONE', #191, 0.1724999999999995981, 0.7853981633974357335 ) ;
#32 = ADVANCED_FACE ( 'NONE', ( #285 ), #261, .T. ) ;
#33 = CARTESIAN_POINT ( 'NONE',  ( -0.1773124999999999840, 2.171451855738150547E-17, 0.01000000000000000021 ) ) ;
#34 = SURFACE_STYLE_FILL_AREA ( #276 ) ;
#35 = CIRCLE ( 'NONE', #251, 0.1873124999999999374 ) ;
#36 = VECTOR ( 'NONE', #40, 39.37007874015748143 ) ;
#37 = PRODUCT_DEFINITION_FORMATION_WITH_SPECIFIED_SOURCE ( 'ANY', '', #316, .NOT_KNOWN. ) ;
#38 = CARTESIAN_POINT ( 'NONE',  ( 1.072868196215332765E-16, 0.0000000000000000000, 0.8760633653411785682 ) ) ;
#39 = DIRECTION ( 'NONE',  ( 0.0000000000000000000, 0.0000000000000000000, 1.000000000000000000 ) ) ;
#40 = DIRECTION ( 'NONE',  ( -0.0000000000000000000, -0.0000000000000000000, -1.000000000000000000 ) ) ;
#41 = CYLINDRICAL_SURFACE ( 'NONE', #116, 0.1875000000000000278 ) ;
#42 = APPLICATION_PROTOCOL_DEFINITION ( 'draft international standard', 'automotive_design', 1998, #211 ) ;
#43 = CARTESIAN_POINT ( 'NONE',  ( 1.224646799147353384E-18, 0.0000000000000000000, 0.01000000000000000021 ) ) ;
#44 = ORIENTED_EDGE ( 'NONE', *, *, #205, .T. ) ;
#45 = ADVANCED_FACE ( 'NONE', ( #143 ), #11, .T. ) ;
#46 = LINE ( 'NONE', #88, #108 ) ;
#47 = VERTEX_POINT ( 'NONE', #115 ) ;
#48 = PRESENTATION_STYLE_ASSIGNMENT (( #210 ) ) ;
#49 = VERTEX_POINT ( 'NONE', #10 ) ;
#50 =( GEOMETRIC_REPRESENTATION_CONTEXT ( 3 ) GLOBAL_UNCERTAINTY_ASSIGNED_CONTEXT ( ( #238 ) ) GLOBAL_UNIT_ASSIGNED_CONTEXT ( ( #185, #326, #209 ) ) REPRESENTATION_CONTEXT ( 'NONE', 'WORKASPACE' ) );
#51 = FACE_OUTER_BOUND ( 'NONE', #144, .T. ) ;
#52 = EDGE_CURVE ( 'NONE', #339, #122, #284, .T. ) ;
#53 = VERTEX_POINT ( 'NONE', #89 ) ;
#54 = PLANE ( 'NONE',  #279 ) ;
#55 = VECTOR ( 'NONE', #287, 39.37007874015748143 ) ;
#56 = AXIS2_PLACEMENT_3D ( 'NONE', #102, #107, #297 ) ;
#57 = DIRECTION ( 'NONE',  ( 1.000000000000000000, 0.0000000000000000000, 0.0000000000000000000 ) ) ;
#58 = FACE_OUTER_BOUND ( 'NONE', #327, .T. ) ;
#59 = DIRECTION ( 'NONE',  ( 1.000000000000000000, 0.0000000000000000000, 0.0000000000000000000 ) ) ;
#60 = COLOUR_RGB ( '',0.7921568627450980005, 0.8196078431372548767, 0.9333333333333333481 ) ;
#61 =( LENGTH_UNIT ( ) NAMED_UNIT ( * ) SI_UNIT ( $, .METRE. ) );
#62 = DIMENSIONAL_EXPONENTS ( 1.000000000000000000, 0.0000000000000000000, 0.0000000000000000000, 0.0000000000000000000, 0.0000000000000000000, 0.0000000000000000000, 0.0000000000000000000 ) ;
#63 = ADVANCED_FACE ( 'NONE', ( #249 ), #41, .T. ) ;
#64 = CARTESIAN_POINT ( 'NONE',  ( 1.071565949253934025E-16, 0.0000000000000000000, 0.8750000000000000000 ) ) ;
#65 = DIRECTION ( 'NONE',  ( -1.000000000000000000, 0.0000000000000000000, 1.224646799147352961E-16 ) ) ;
#66 = ORIENTED_EDGE ( 'NONE', *, *, #205, .F. ) ;
#67 = CARTESIAN_POINT ( 'NONE',  ( 0.0000000000000000000, 0.0000000000000000000, 0.0000000000000000000 ) ) ;
#68 = ORIENTED_EDGE ( 'NONE', *, *, #169, .F. ) ;
#69 = ADVANCED_FACE ( 'NONE', ( #13 ), #119, .T. ) ;
#70 = CIRCLE ( 'NONE', #20, 0.1875000000000000278 ) ;
#71 = CIRCLE ( 'NONE', #77, 0.1875000000000000278 ) ;
#72 = CARTESIAN_POINT ( 'NONE',  ( 0.1875000000000000278, 2.296212748401287726E-17, 2.500000000000000000 ) ) ;
#73 = ORIENTED_EDGE ( 'NONE', *, *, #289, .T. ) ;
#74 = ORIENTED_EDGE ( 'NONE', *, *, #131, .F. ) ;
#75 = EDGE_CURVE ( 'NONE', #122, #339, #35, .T. ) ;
#76 = ORIENTED_EDGE ( 'NONE', *, *, #93, .F. ) ;
#77 = AXIS2_PLACEMENT_3D ( 'NONE', #179, #79, #128 ) ;
#78 = VERTEX_POINT ( 'NONE', #170 ) ;
#79 = DIRECTION ( 'NONE',  ( -1.224646799147353207E-16, -0.0000000000000000000, -1.000000000000000000 ) ) ;
#80 = CARTESIAN_POINT ( 'NONE',  ( -0.1873124999999998541, 2.293916535652885288E-17, 0.8750000000000000000 ) ) ;
#81 = EDGE_CURVE ( 'NONE', #232, #226, #335, .T. ) ;
#82 =( GEOMETRIC_REPRESENTATION_CONTEXT ( 3 ) GLOBAL_UNCERTAINTY_ASSIGNED_CONTEXT ( ( #214 ) ) GLOBAL_UNIT_ASSIGNED_CONTEXT ( ( #244, #163, #111 ) ) REPRESENTATION_CONTEXT ( 'NONE', 'WORKASPACE' ) );
#83 = ORIENTED_EDGE ( 'NONE', *, *, #139, .F. ) ;
#84 = AXIS2_PLACEMENT_3D ( 'NONE', #317, #133, #295 ) ;
#85 = PRODUCT_DEFINITION ( 'UNKNOWN', '', #37, #257 ) ;
#86 = ADVANCED_FACE ( 'NONE', ( #337 ), #166, .T. ) ;
#87 = DIRECTION ( 'NONE',  ( 1.000000000000000000, 0.0000000000000000000, 0.0000000000000000000 ) ) ;
#88 = CARTESIAN_POINT ( 'NONE',  ( -0.1873124999999999929, 0.0000000000000000000, 2.293916535652885596E-17 ) ) ;
#89 = CARTESIAN_POINT ( 'NONE',  ( -0.1724999999999995981, 0.0000000000000000000, 2.500000000000000000 ) ) ;
#90 = AXIS2_PLACEMENT_3D ( 'NONE', #281, #92, #222 ) ;
#91 = CIRCLE ( 'NONE', #303, 0.1773124999999999840 ) ;
#92 = DIRECTION ( 'NONE',  ( 0.0000000000000000000, 0.0000000000000000000, -1.000000000000000000 ) ) ;
#93 = EDGE_CURVE ( 'NONE', #49, #78, #70, .T. ) ;
#94 = DIRECTION ( 'NONE',  ( 0.0000000000000000000, 0.0000000000000000000, 1.000000000000000000 ) ) ;
#95 = LINE ( 'NONE', #194, #145 ) ;
#96 = ORIENTED_EDGE ( 'NONE', *, *, #142, .T. ) ;
#97 = DIRECTION ( 'NONE',  ( -1.000000000000000000, 0.0000000000000000000, 0.0000000000000000000 ) ) ;
#98 = EDGE_LOOP ( 'NONE', ( #264, #288, #96, #73 ) ) ;
#99 = VECTOR ( 'NONE', #324, 39.37007874015748854 ) ;
#100 = DIRECTION ( 'NONE',  ( -1.224646799147353207E-16, -0.0000000000000000000, -1.000000000000000000 ) ) ;
#101 = ORIENTED_EDGE ( 'NONE', *, *, #151, .T. ) ;
#102 = CARTESIAN_POINT ( 'NONE',  ( 0.0000000000000000000, 0.0000000000000000000, 0.0000000000000000000 ) ) ;
#103 = ORIENTED_EDGE ( 'NONE', *, *, #52, .F. ) ;
#104 = ORIENTED_EDGE ( 'NONE', *, *, #17, .F. ) ;
#105 = AXIS2_PLACEMENT_3D ( 'NONE', #314, #250, #225 ) ;
#106 = PRESENTATION_LAYER_ASSIGNMENT (  '', '', ( #275 ) ) ;
#107 = DIRECTION ( 'NONE',  ( -1.224646799147353207E-16, -0.0000000000000000000, -1.000000000000000000 ) ) ;
#108 = VECTOR ( 'NONE', #190, 39.37007874015748143 ) ;
#109 = CARTESIAN_POINT ( 'NONE',  ( 0.1873124999999999929, 2.293916535652885596E-17, 0.01000000000000000194 ) ) ;
#110 = AXIS2_PLACEMENT_3D ( 'NONE', #246, #39, #87 ) ;
#111 =( NAMED_UNIT ( * ) SI_UNIT ( $, .STERADIAN. ) SOLID_ANGLE_UNIT ( ) );
#112 = CIRCLE ( 'NONE', #323, 0.009999999999999995004 ) ;
#113 = DIRECTION ( 'NONE',  ( 0.0000000000000000000, 0.0000000000000000000, -1.000000000000000000 ) ) ;
#114 = PRODUCT_CONTEXT ( 'NONE', #213, 'mechanical' ) ;
#115 = CARTESIAN_POINT ( 'NONE',  ( -0.1773124999999999840, 2.232684195695518071E-17, 0.0000000000000000000 ) ) ;
#116 = AXIS2_PLACEMENT_3D ( 'NONE', #147, #280, #8 ) ;
#117 = AXIS2_PLACEMENT_3D ( 'NONE', #2, #162, #304 ) ;
#118 = ADVANCED_FACE ( 'NONE', ( #340 ), #123, .F. ) ;
#119 = CYLINDRICAL_SURFACE ( 'NONE', #219, 0.1873124999999999929 ) ;
#120 = ORIENTED_EDGE ( 'NONE', *, *, #135, .F. ) ;
#121 = DIRECTION ( 'NONE',  ( -1.224646799147353207E-16, -0.0000000000000000000, -1.000000000000000000 ) ) ;
#122 = VERTEX_POINT ( 'NONE', #334 ) ;
#123 = PLANE ( 'NONE',  #268 ) ;
#124 = EDGE_CURVE ( 'NONE', #47, #346, #313, .T. ) ;
#125 = ORIENTED_EDGE ( 'NONE', *, *, #93, .T. ) ;
#126 = FILL_AREA_STYLE ('',( #343 ) ) ;
#127 = EDGE_LOOP ( 'NONE', ( #14, #195 ) ) ;
#128 = DIRECTION ( 'NONE',  ( 1.000000000000000000, 0.0000000000000000000, 0.0000000000000000000 ) ) ;
#129 = ORIENTED_EDGE ( 'NONE', *, *, #169, .T. ) ;
#130 = SURFACE_SIDE_STYLE ('',( #201 ) ) ;
#131 = EDGE_CURVE ( 'NONE', #122, #49, #95, .T. ) ;
#132 = DIRECTION ( 'NONE',  ( 0.0000000000000000000, -1.000000000000000000, 0.0000000000000000000 ) ) ;
#133 = DIRECTION ( 'NONE',  ( 0.0000000000000000000, 0.0000000000000000000, -1.000000000000000000 ) ) ;
#134 = CARTESIAN_POINT ( 'NONE',  ( 0.0000000000000000000, 0.0000000000000000000, 2.500000000000000000 ) ) ;
#135 = EDGE_CURVE ( 'NONE', #322, #173, #158, .T. ) ;
#136 = CARTESIAN_POINT ( 'NONE',  ( -0.1873124999999998541, 2.295064642027086199E-17, 0.8750000000000000000 ) ) ;
#137 = ORIENTED_EDGE ( 'NONE', *, *, #81, .T. ) ;
#138 = CARTESIAN_POINT ( 'NONE',  ( 1.224646799147353384E-18, 0.0000000000000000000, 0.01000000000000000021 ) ) ;
#139 = EDGE_CURVE ( 'NONE', #232, #49, #227, .T. ) ;
#140 = DIRECTION ( 'NONE',  ( 1.000000000000000000, 0.0000000000000000000, 0.0000000000000000000 ) ) ;
#141 = DIRECTION ( 'NONE',  ( -1.000000000000000000, 0.0000000000000000000, 0.0000000000000000000 ) ) ;
#142 = EDGE_CURVE ( 'NONE', #339, #173, #46, .T. ) ;
#143 = FACE_OUTER_BOUND ( 'NONE', #320, .T. ) ;
#144 = EDGE_LOOP ( 'NONE', ( #44, #344, #259, #104 ) ) ;
#145 = VECTOR ( 'NONE', #311, 39.37007874015748143 ) ;
#146 = MECHANICAL_DESIGN_GEOMETRIC_PRESENTATION_REPRESENTATION (  '', ( #275 ), #294 ) ;
#147 = CARTESIAN_POINT ( 'NONE',  ( 0.0000000000000000000, 0.0000000000000000000, 2.500000000000000000 ) ) ;
#148 = ORIENTED_EDGE ( 'NONE', *, *, #9, .T. ) ;
#149 = DIRECTION ( 'NONE',  ( -1.224646799147353207E-16, -0.0000000000000000000, -1.000000000000000000 ) ) ;
#150 = ORIENTED_EDGE ( 'NONE', *, *, #52, .T. ) ;
#151 = EDGE_CURVE ( 'NONE', #122, #322, #270, .T. ) ;
#152 = DIRECTION ( 'NONE',  ( -1.000000000000000000, 0.0000000000000000000, 0.0000000000000000000 ) ) ;
#153 = ORIENTED_EDGE ( 'NONE', *, *, #336, .F. ) ;
#154 = CARTESIAN_POINT ( 'NONE',  ( 0.1873124999999999929, 2.293916535652885596E-17, -2.293916535652885596E-17 ) ) ;
#155 = ORIENTED_EDGE ( 'NONE', *, *, #142, .F. ) ;
#156 = ADVANCED_FACE ( 'NONE', ( #51 ), #26, .T. ) ;
#157 = DIRECTION ( 'NONE',  ( 1.000000000000000000, 0.0000000000000000000, -0.0000000000000000000 ) ) ;
#158 = CIRCLE ( 'NONE', #198, 0.1873124999999999929 ) ;
#159 = DIRECTION ( 'NONE',  ( 1.000000000000000000, 0.0000000000000000000, 0.0000000000000000000 ) ) ;
#160 = CARTESIAN_POINT ( 'NONE',  ( 0.1773124999999999840, 0.0000000000000000000, 0.01000000000000000021 ) ) ;
#161 = DIRECTION ( 'NONE',  ( 1.224646799147353207E-16, 1.000000000000000000, -0.0000000000000000000 ) ) ;
#162 = DIRECTION ( 'NONE',  ( 1.224646799147353207E-16, 0.0000000000000000000, 1.000000000000000000 ) ) ;
#163 =( NAMED_UNIT ( * ) PLANE_ANGLE_UNIT ( ) SI_UNIT ( $, .RADIAN. ) );
#164 = CIRCLE ( 'NONE', #200, 0.1724999999999995981 ) ;
#165 = PRESENTATION_STYLE_ASSIGNMENT (( #189 ) ) ;
#166 = CONICAL_SURFACE ( 'NONE', #90, 0.1724999999999995981, 0.7853981633974357335 ) ;
#167 = PRESENTATION_LAYER_ASSIGNMENT (  '', '', ( #12 ) ) ;
#168 = DIRECTION ( 'NONE',  ( 0.0000000000000000000, 0.0000000000000000000, 1.000000000000000000 ) ) ;
#169 = EDGE_CURVE ( 'NONE', #177, #232, #28, .T. ) ;
#170 = CARTESIAN_POINT ( 'NONE',  ( -0.1874999999999999167, 0.0000000000000000000, 0.8760633653411785682 ) ) ;
#171 = LINE ( 'NONE', #258, #328 ) ;
#172 = DIRECTION ( 'NONE',  ( 0.0000000000000000000, 0.0000000000000000000, 1.000000000000000000 ) ) ;
#173 = VERTEX_POINT ( 'NONE', #266 ) ;
#174 = UNCERTAINTY_MEASURE_WITH_UNIT (LENGTH_MEASURE( 1.000000000000000082E-05 ), #277, 'distance_accuracy_value', 'NONE');
#175 = SHAPE_DEFINITION_REPRESENTATION ( #349, #27 ) ;
#176 = CARTESIAN_POINT ( 'NONE',  ( 0.0000000000000000000, 0.0000000000000000000, 0.0000000000000000000 ) ) ;
#177 = VERTEX_POINT ( 'NONE', #263 ) ;
#178 = ORIENTED_EDGE ( 'NONE', *, *, #215, .F. ) ;
#179 = CARTESIAN_POINT ( 'NONE',  ( 1.072868196215332765E-16, 0.0000000000000000000, 0.8760633653411785682 ) ) ;
#180 = ORIENTED_EDGE ( 'NONE', *, *, #273, .F. ) ;
#181 = AXIS2_PLACEMENT_3D ( 'NONE', #309, #149, #141 ) ;
#182 = AXIS2_PLACEMENT_3D ( 'NONE', #138, #212, #218 ) ;
#183 = EDGE_LOOP ( 'NONE', ( #148, #230 ) ) ;
#184 = DIRECTION ( 'NONE',  ( 0.0000000000000000000, 0.0000000000000000000, -1.000000000000000000 ) ) ;
#185 =( CONVERSION_BASED_UNIT ( 'INCH', #350 ) LENGTH_UNIT ( ) NAMED_UNIT ( #62 ) );
#186 = VECTOR ( 'NONE', #319, 39.37007874015748143 ) ;
#187 = APPLICATION_PROTOCOL_DEFINITION ( 'draft international standard', 'automotive_design', 1998, #213 ) ;
#188 = ADVANCED_FACE ( 'NONE', ( #351 ), #298, .T. ) ;
#189 = SURFACE_STYLE_USAGE ( .BOTH. , #300 ) ;
#190 = DIRECTION ( 'NONE',  ( -1.224646799147353207E-16, -0.0000000000000000000, -1.000000000000000000 ) ) ;
#191 = AXIS2_PLACEMENT_3D ( 'NONE', #23, #203, #231 ) ;
#192 = DIRECTION ( 'NONE',  ( -1.224646799147353207E-16, -0.0000000000000000000, -1.000000000000000000 ) ) ;
#193 = DIRECTION ( 'NONE',  ( 1.000000000000000000, 0.0000000000000000000, -0.0000000000000000000 ) ) ;
#194 = CARTESIAN_POINT ( 'NONE',  ( 0.1873125000000000484, 0.0000000000000000000, 0.8750000000000000000 ) ) ;
#195 = ORIENTED_EDGE ( 'NONE', *, *, #124, .T. ) ;
#196 = CARTESIAN_POINT ( 'NONE',  ( 0.0000000000000000000, 0.0000000000000000000, 2.484999999999999432 ) ) ;
#197 = EDGE_LOOP ( 'NONE', ( #83, #137, #16, #76 ) ) ;
#198 = AXIS2_PLACEMENT_3D ( 'NONE', #255, #172, #15 ) ;
#199 = ADVANCED_FACE ( 'NONE', ( #233 ), #31, .T. ) ;
#200 = AXIS2_PLACEMENT_3D ( 'NONE', #134, #30, #59 ) ;
#201 = SURFACE_STYLE_FILL_AREA ( #126 ) ;
#202 = ORIENTED_EDGE ( 'NONE', *, *, #131, .T. ) ;
#203 = DIRECTION ( 'NONE',  ( 0.0000000000000000000, 0.0000000000000000000, -1.000000000000000000 ) ) ;
#204 = ORIENTED_EDGE ( 'NONE', *, *, #9, .F. ) ;
#205 = EDGE_CURVE ( 'NONE', #226, #232, #307, .T. ) ;
#206 = CARTESIAN_POINT ( 'NONE',  ( 0.0000000000000000000, 0.0000000000000000000, 2.500000000000000000 ) ) ;
#207 = EDGE_LOOP ( 'NONE', ( #103, #312, #293, #74 ) ) ;
#208 = AXIS2_PLACEMENT_3D ( 'NONE', #196, #113, #18 ) ;
#209 =( NAMED_UNIT ( * ) SI_UNIT ( $, .STERADIAN. ) SOLID_ANGLE_UNIT ( ) );
#210 = SURFACE_STYLE_USAGE ( .BOTH. , #130 ) ;
#211 = APPLICATION_CONTEXT ( 'automotive_design' ) ;
#212 = DIRECTION ( 'NONE',  ( 0.0000000000000000000, 0.0000000000000000000, 1.000000000000000000 ) ) ;
#213 = APPLICATION_CONTEXT ( 'automotive_design' ) ;
#214 = UNCERTAINTY_MEASURE_WITH_UNIT (LENGTH_MEASURE( 1.000000000000000082E-05 ), #244, 'distance_accuracy_value', 'NONE');
#215 = EDGE_CURVE ( 'NONE', #339, #78, #347, .T. ) ;
#216 = VECTOR ( 'NONE', #100, 39.37007874015748143 ) ;
#217 = CIRCLE ( 'NONE', #269, 0.1873124999999999929 ) ;
#218 = DIRECTION ( 'NONE',  ( 1.000000000000000000, 0.0000000000000000000, 0.0000000000000000000 ) ) ;
#219 = AXIS2_PLACEMENT_3D ( 'NONE', #176, #121, #65 ) ;
#220 = DIRECTION ( 'NONE',  ( 1.000000000000000000, 0.0000000000000000000, 0.0000000000000000000 ) ) ;
#221 = CARTESIAN_POINT ( 'NONE',  ( 0.0000000000000000000, 0.0000000000000000000, 2.500000000000000000 ) ) ;
#222 = DIRECTION ( 'NONE',  ( -1.000000000000000000, 0.0000000000000000000, 0.0000000000000000000 ) ) ;
#223 = COLOUR_RGB ( '',0.7921568627450980005, 0.8196078431372548767, 0.9333333333333333481 ) ;
#224 = DIRECTION ( 'NONE',  ( -1.224646799147353207E-16, -0.0000000000000000000, -1.000000000000000000 ) ) ;
#225 = DIRECTION ( 'NONE',  ( 1.000000000000000000, 0.0000000000000000000, 0.0000000000000000000 ) ) ;
#226 = VERTEX_POINT ( 'NONE', #260 ) ;
#227 = LINE ( 'NONE', #72, #55 ) ;
#228 = EDGE_LOOP ( 'NONE', ( #178, #254, #202, #125 ) ) ;
#229 = DIRECTION ( 'NONE',  ( 0.0000000000000000000, 0.0000000000000000000, 1.000000000000000000 ) ) ;
#230 = ORIENTED_EDGE ( 'NONE', *, *, #336, .T. ) ;
#231 = DIRECTION ( 'NONE',  ( -1.000000000000000000, 0.0000000000000000000, 0.0000000000000000000 ) ) ;
#232 = VERTEX_POINT ( 'NONE', #21 ) ;
#233 = FACE_OUTER_BOUND ( 'NONE', #24, .T. ) ;
#234 = ORIENTED_EDGE ( 'NONE', *, *, #289, .F. ) ;
#235 = CLOSED_SHELL ( 'NONE', ( #45, #69, #32, #199, #156, #63, #241, #86, #283, #188, #118, #305 ) ) ;
#236 = TOROIDAL_SURFACE ( 'NONE', #182, 0.1773124999999999840, 0.01000000000000000021 ) ;
#237 = DIRECTION ( 'NONE',  ( 0.0000000000000000000, 0.0000000000000000000, 1.000000000000000000 ) ) ;
#238 = UNCERTAINTY_MEASURE_WITH_UNIT (LENGTH_MEASURE( 1.000000000000000082E-05 ), #185, 'distance_accuracy_value', 'NONE');
#239 = CARTESIAN_POINT ( 'NONE',  ( -0.1875000000000000278, 0.0000000000000000000, 2.500000000000000000 ) ) ;
#240 =( LENGTH_UNIT ( ) NAMED_UNIT ( * ) SI_UNIT ( $, .METRE. ) );
#241 = ADVANCED_FACE ( 'NONE', ( #292 ), #54, .T. ) ;
#242 = MANIFOLD_SOLID_BREP ( 'Fillet1', #235 ) ;
#243 = FACE_OUTER_BOUND ( 'NONE', #228, .T. ) ;
#244 =( CONVERSION_BASED_UNIT ( 'INCH', #330 ) LENGTH_UNIT ( ) NAMED_UNIT ( #248 ) );
#245 = AXIS2_PLACEMENT_3D ( 'NONE', #267, #345, #152 ) ;
#246 = CARTESIAN_POINT ( 'NONE',  ( 0.0000000000000000000, 0.0000000000000000000, 0.0000000000000000000 ) ) ;
#247 = EDGE_CURVE ( 'NONE', #78, #49, #71, .T. ) ;
#248 = DIMENSIONAL_EXPONENTS ( 1.000000000000000000, 0.0000000000000000000, 0.0000000000000000000, 0.0000000000000000000, 0.0000000000000000000, 0.0000000000000000000, 0.0000000000000000000 ) ;
#249 = FACE_OUTER_BOUND ( 'NONE', #197, .T. ) ;
#250 = DIRECTION ( 'NONE',  ( -0.0000000000000000000, -0.0000000000000000000, -1.000000000000000000 ) ) ;
#251 = AXIS2_PLACEMENT_3D ( 'NONE', #308, #192, #97 ) ;
#252 = CONICAL_SURFACE ( 'NONE', #117, 0.1873124999999999374, 0.1745329251994340025 ) ;
#253 = DIRECTION ( 'NONE',  ( 1.000000000000000000, 0.0000000000000000000, 0.0000000000000000000 ) ) ;
#254 = ORIENTED_EDGE ( 'NONE', *, *, #75, .F. ) ;
#255 = CARTESIAN_POINT ( 'NONE',  ( 1.224646799147353577E-18, 0.0000000000000000000, 0.01000000000000000194 ) ) ;
#256 = EDGE_LOOP ( 'NONE', ( #150, #101, #315, #155 ) ) ;
#257 = PRODUCT_DEFINITION_CONTEXT ( 'detailed design', #211, 'design' ) ;
#258 = CARTESIAN_POINT ( 'NONE',  ( -0.1724999999999995981, 0.0000000000000000000, 2.500000000000000000 ) ) ;
#259 = ORIENTED_EDGE ( 'NONE', *, *, #247, .F. ) ;
#260 = CARTESIAN_POINT ( 'NONE',  ( -0.1875000000000000278, 0.0000000000000000000, 2.484999999999999432 ) ) ;
#261 = CONICAL_SURFACE ( 'NONE', #3, 0.1873124999999999374, 0.1745329251994340025 ) ;
#262 = ORIENTED_EDGE ( 'NONE', *, *, #273, .T. ) ;
#263 = CARTESIAN_POINT ( 'NONE',  ( 0.1724999999999995981, 2.204364238465233357E-17, 2.500000000000000000 ) ) ;
#264 = ORIENTED_EDGE ( 'NONE', *, *, #151, .F. ) ;
#265 = PRODUCT_RELATED_PRODUCT_CATEGORY ( 'part', '', ( #316 ) ) ;
#266 = CARTESIAN_POINT ( 'NONE',  ( -0.1873124999999999929, 0.0000000000000000000, 0.01000000000000000194 ) ) ;
#267 = CARTESIAN_POINT ( 'NONE',  ( 0.0000000000000000000, 0.0000000000000000000, 2.500000000000000000 ) ) ;
#268 = AXIS2_PLACEMENT_3D ( 'NONE', #67, #229, #193 ) ;
#269 = AXIS2_PLACEMENT_3D ( 'NONE', #29, #278, #220 ) ;
#270 = LINE ( 'NONE', #154, #216 ) ;
#271 = DIRECTION ( 'NONE',  ( -1.000000000000000000, 1.224646799147354933E-16, 0.0000000000000000000 ) ) ;
#272 = DIRECTION ( 'NONE',  ( -0.0000000000000000000, -0.0000000000000000000, -1.000000000000000000 ) ) ;
#273 = EDGE_CURVE ( 'NONE', #346, #322, #7, .T. ) ;
#274 = AXIS2_PLACEMENT_3D ( 'NONE', #43, #168, #140 ) ;
#275 = STYLED_ITEM ( 'NONE', ( #165 ), #27 ) ;
#276 = FILL_AREA_STYLE ('',( #302 ) ) ;
#277 =( CONVERSION_BASED_UNIT ( 'INCH', #1 ) LENGTH_UNIT ( ) NAMED_UNIT ( #325 ) );
#278 = DIRECTION ( 'NONE',  ( 0.0000000000000000000, 0.0000000000000000000, 1.000000000000000000 ) ) ;
#279 = AXIS2_PLACEMENT_3D ( 'NONE', #206, #237, #157 ) ;
#280 = DIRECTION ( 'NONE',  ( -0.0000000000000000000, -0.0000000000000000000, -1.000000000000000000 ) ) ;
#281 = CARTESIAN_POINT ( 'NONE',  ( 0.0000000000000000000, 0.0000000000000000000, 2.500000000000000000 ) ) ;
#282 = DIRECTION ( 'NONE',  ( -0.7071067811865385799, 0.0000000000000000000, -0.7071067811865563435 ) ) ;
#283 = ADVANCED_FACE ( 'NONE', ( #243 ), #252, .T. ) ;
#284 = CIRCLE ( 'NONE', #181, 0.1873124999999999374 ) ;
#285 = FACE_OUTER_BOUND ( 'NONE', #207, .T. ) ;
#286 = ORIENTED_EDGE ( 'NONE', *, *, #81, .F. ) ;
#287 = DIRECTION ( 'NONE',  ( -0.0000000000000000000, -0.0000000000000000000, -1.000000000000000000 ) ) ;
#288 = ORIENTED_EDGE ( 'NONE', *, *, #75, .T. ) ;
#289 = EDGE_CURVE ( 'NONE', #173, #322, #217, .T. ) ;
#290 = CARTESIAN_POINT ( 'NONE',  ( 0.1724999999999995981, 2.112515728529179297E-17, 2.500000000000000000 ) ) ;
#291 = ORIENTED_EDGE ( 'NONE', *, *, #301, .T. ) ;
#292 = FACE_OUTER_BOUND ( 'NONE', #183, .T. ) ;
#293 = ORIENTED_EDGE ( 'NONE', *, *, #247, .T. ) ;
#294 =( GEOMETRIC_REPRESENTATION_CONTEXT ( 3 ) GLOBAL_UNCERTAINTY_ASSIGNED_CONTEXT ( ( #174 ) ) GLOBAL_UNIT_ASSIGNED_CONTEXT ( ( #277, #5, #310 ) ) REPRESENTATION_CONTEXT ( 'NONE', 'WORKASPACE' ) );
#295 = DIRECTION ( 'NONE',  ( 1.000000000000000000, 0.0000000000000000000, 0.0000000000000000000 ) ) ;
#296 = ORIENTED_EDGE ( 'NONE', *, *, #124, .F. ) ;
#297 = DIRECTION ( 'NONE',  ( -1.000000000000000000, 0.0000000000000000000, 1.224646799147352961E-16 ) ) ;
#298 = CYLINDRICAL_SURFACE ( 'NONE', #56, 0.1873124999999999929 ) ;
#299 = AXIS2_PLACEMENT_3D ( 'NONE', #221, #94, #159 ) ;
#300 = SURFACE_SIDE_STYLE ('',( #34 ) ) ;
#301 = EDGE_CURVE ( 'NONE', #47, #173, #112, .T. ) ;
#302 = FILL_AREA_STYLE_COLOUR ( '', #60 ) ;
#303 = AXIS2_PLACEMENT_3D ( 'NONE', #332, #272, #57 ) ;
#304 = DIRECTION ( 'NONE',  ( 1.000000000000000000, 0.0000000000000000000, 0.0000000000000000000 ) ) ;
#305 = ADVANCED_FACE ( 'NONE', ( #58 ), #236, .T. ) ;
#306 = DIRECTION ( 'NONE',  ( 1.000000000000000000, 0.0000000000000000000, 0.0000000000000000000 ) ) ;
#307 = CIRCLE ( 'NONE', #84, 0.1875000000000000278 ) ;
#308 = CARTESIAN_POINT ( 'NONE',  ( 1.071565949253934025E-16, 0.0000000000000000000, 0.8750000000000000000 ) ) ;
#309 = CARTESIAN_POINT ( 'NONE',  ( 1.071565949253934025E-16, 0.0000000000000000000, 0.8750000000000000000 ) ) ;
#310 =( NAMED_UNIT ( * ) SI_UNIT ( $, .STERADIAN. ) SOLID_ANGLE_UNIT ( ) );
#311 = DIRECTION ( 'NONE',  ( 0.1736481776669314969, 0.0000000000000000000, 0.9848077530122077983 ) ) ;
#312 = ORIENTED_EDGE ( 'NONE', *, *, #215, .T. ) ;
#313 = CIRCLE ( 'NONE', #105, 0.1773124999999999840 ) ;
#314 = CARTESIAN_POINT ( 'NONE',  ( 1.224646799147353384E-18, 0.0000000000000000000, 0.0000000000000000000 ) ) ;
#315 = ORIENTED_EDGE ( 'NONE', *, *, #135, .T. ) ;
#316 = PRODUCT ( 'Micro_GEC-375-2-010', 'Micro_GEC-375-2-010', '', ( #114 ) ) ;
#317 = CARTESIAN_POINT ( 'NONE',  ( 0.0000000000000000000, 0.0000000000000000000, 2.484999999999999432 ) ) ;
#318 = ORIENTED_EDGE ( 'NONE', *, *, #25, .T. ) ;
#319 = DIRECTION ( 'NONE',  ( -0.1736481776669312749, 2.126576849575784241E-17, 0.9848077530122077983 ) ) ;
#320 = EDGE_LOOP ( 'NONE', ( #296, #291, #120, #180 ) ) ;
#321 =( LENGTH_UNIT ( ) NAMED_UNIT ( * ) SI_UNIT ( $, .METRE. ) );
#322 = VERTEX_POINT ( 'NONE', #109 ) ;
#323 = AXIS2_PLACEMENT_3D ( 'NONE', #33, #161, #271 ) ;
#324 = DIRECTION ( 'NONE',  ( 0.7071067811865385799, 8.659560562354823157E-17, -0.7071067811865563435 ) ) ;
#325 = DIMENSIONAL_EXPONENTS ( 1.000000000000000000, 0.0000000000000000000, 0.0000000000000000000, 0.0000000000000000000, 0.0000000000000000000, 0.0000000000000000000, 0.0000000000000000000 ) ;
#326 =( NAMED_UNIT ( * ) PLANE_ANGLE_UNIT ( ) SI_UNIT ( $, .RADIAN. ) );
#327 = EDGE_LOOP ( 'NONE', ( #348, #341, #262, #234 ) ) ;
#328 = VECTOR ( 'NONE', #282, 39.37007874015748854 ) ;
#329 = EDGE_CURVE ( 'NONE', #346, #47, #91, .T. ) ;
#330 = LENGTH_MEASURE_WITH_UNIT ( LENGTH_MEASURE( 0.02539999999999999897 ), #240 );
#331 = LINE ( 'NONE', #239, #36 ) ;
#332 = CARTESIAN_POINT ( 'NONE',  ( 1.224646799147353384E-18, 0.0000000000000000000, 0.0000000000000000000 ) ) ;
#333 = CARTESIAN_POINT ( 'NONE',  ( 0.1773124999999999840, 0.0000000000000000000, 0.0000000000000000000 ) ) ;
#334 = CARTESIAN_POINT ( 'NONE',  ( 0.1873125000000000484, 0.0000000000000000000, 0.8750000000000000000 ) ) ;
#335 = CIRCLE ( 'NONE', #208, 0.1875000000000000278 ) ;
#336 = EDGE_CURVE ( 'NONE', #177, #53, #164, .T. ) ;
#337 = FACE_OUTER_BOUND ( 'NONE', #22, .T. ) ;
#338 = DIRECTION ( 'NONE',  ( 1.224646799147353207E-16, 0.0000000000000000000, 1.000000000000000000 ) ) ;
#339 = VERTEX_POINT ( 'NONE', #136 ) ;
#340 = FACE_OUTER_BOUND ( 'NONE', #127, .T. ) ;
#341 = ORIENTED_EDGE ( 'NONE', *, *, #329, .F. ) ;
#342 = AXIS2_PLACEMENT_3D ( 'NONE', #160, #132, #184 ) ;
#343 = FILL_AREA_STYLE_COLOUR ( '', #223 ) ;
#344 = ORIENTED_EDGE ( 'NONE', *, *, #139, .T. ) ;
#345 = DIRECTION ( 'NONE',  ( -0.0000000000000000000, -0.0000000000000000000, -1.000000000000000000 ) ) ;
#346 = VERTEX_POINT ( 'NONE', #333 ) ;
#347 = LINE ( 'NONE', #80, #186 ) ;
#348 = ORIENTED_EDGE ( 'NONE', *, *, #301, .F. ) ;
#349 = PRODUCT_DEFINITION_SHAPE ( 'NONE', 'NONE',  #85 ) ;
#350 = LENGTH_MEASURE_WITH_UNIT ( LENGTH_MEASURE( 0.02539999999999999897 ), #321 );
#351 = FACE_OUTER_BOUND ( 'NONE', #98, .T. ) ;
ENDSEC;
END-ISO-10303-21;
