ISO-10303-21;
HEADER;
FILE_DESCRIPTION (( 'STEP AP214' ),
    '1' );
FILE_NAME ('Micro_DM-187-2120X.STEP',
    '2021-09-02T15:59:28',
    ( '' ),
    ( '' ),
    'SwSTEP 2.0',
    'SolidWorks 2020',
    '' );
FILE_SCHEMA (( 'AUTOMOTIVE_DESIGN' ));
ENDSEC;

DATA;
#1 = DIRECTION ( 'NONE',  ( -1.000000000000000000, 0.0000000000000000000, 0.0000000000000000000 ) ) ;
#2 = CARTESIAN_POINT ( 'NONE',  ( 0.0000000000000000000, 0.0000000000000000000, 1.707404996040164512E-17 ) ) ;
#3 = DIRECTION ( 'NONE',  ( -1.000000000000000000, 0.0000000000000000000, 0.0000000000000000000 ) ) ;
#4 = FACE_OUTER_BOUND ( 'NONE', #137, .T. ) ;
#5 = PRESENTATION_STYLE_ASSIGNMENT (( #233 ) ) ;
#6 = AXIS2_PLACEMENT_3D ( 'NONE', #282, #122, #97 ) ;
#7 = UNCERTAINTY_MEASURE_WITH_UNIT (LENGTH_MEASURE( 1.000000000000000082E-05 ), #61, 'distance_accuracy_value', 'NONE');
#8 = FACE_OUTER_BOUND ( 'NONE', #162, .T. ) ;
#9 = FILL_AREA_STYLE_COLOUR ( '', #60 ) ;
#10 = CARTESIAN_POINT ( 'NONE',  ( 0.007499999999999999722, 0.0000000000000000000, 1.707404996040164512E-17 ) ) ;
#11 = SURFACE_SIDE_STYLE ('',( #32 ) ) ;
#12 = DIMENSIONAL_EXPONENTS ( 1.000000000000000000, 0.0000000000000000000, 0.0000000000000000000, 0.0000000000000000000, 0.0000000000000000000, 0.0000000000000000000, 0.0000000000000000000 ) ;
#13 = VECTOR ( 'NONE', #146, 39.37007874015748143 ) ;
#14 = CARTESIAN_POINT ( 'NONE',  ( 0.0000000000000000000, 0.0000000000000000000, 2.000000000000000000 ) ) ;
#15 = UNCERTAINTY_MEASURE_WITH_UNIT (LENGTH_MEASURE( 1.000000000000000082E-05 ), #328, 'distance_accuracy_value', 'NONE');
#16 = AXIS2_PLACEMENT_3D ( 'NONE', #2, #279, #101 ) ;
#17 = AXIS2_PLACEMENT_3D ( 'NONE', #186, #140, #264 ) ;
#18 = ORIENTED_EDGE ( 'NONE', *, *, #284, .T. ) ;
#19 = ORIENTED_EDGE ( 'NONE', *, *, #219, .F. ) ;
#20 = EDGE_LOOP ( 'NONE', ( #290, #18 ) ) ;
#21 = AXIS2_PLACEMENT_3D ( 'NONE', #209, #82, #108 ) ;
#22 = ORIENTED_EDGE ( 'NONE', *, *, #160, .T. ) ;
#23 = ORIENTED_EDGE ( 'NONE', *, *, #214, .F. ) ;
#24 = DIRECTION ( 'NONE',  ( 0.0000000000000000000, 0.0000000000000000000, -1.000000000000000000 ) ) ;
#25 = CIRCLE ( 'NONE', #6, 0.09370000000000001938 ) ;
#26 = FACE_OUTER_BOUND ( 'NONE', #164, .T. ) ;
#27 = CARTESIAN_POINT ( 'NONE',  ( 0.0000000000000000000, 0.0000000000000000000, 1.984999999999999654 ) ) ;
#28 = CYLINDRICAL_SURFACE ( 'NONE', #71, 0.09375000000000001388 ) ;
#29 = CARTESIAN_POINT ( 'NONE',  ( 0.09375000000000001388, 1.148106374200643863E-17, 2.000000000000000000 ) ) ;
#30 = CARTESIAN_POINT ( 'NONE',  ( 0.09370000000000008877, 1.147494050801071143E-17, 0.6250000000000000000 ) ) ;
#31 = CARTESIAN_POINT ( 'NONE',  ( 0.0000000000000000000, 0.0000000000000000000, 0.6250000000000000000 ) ) ;
#32 = SURFACE_STYLE_FILL_AREA ( #237 ) ;
#33 = DIRECTION ( 'NONE',  ( 0.0000000000000000000, 0.0000000000000000000, -1.000000000000000000 ) ) ;
#34 = AXIS2_PLACEMENT_3D ( 'NONE', #148, #206, #74 ) ;
#35 = PRESENTATION_LAYER_ASSIGNMENT (  '', '', ( #285 ) ) ;
#36 = PLANE ( 'NONE',  #329 ) ;
#37 = EDGE_CURVE ( 'NONE', #247, #218, #297, .T. ) ;
#38 = APPLICATION_PROTOCOL_DEFINITION ( 'draft international standard', 'automotive_design', 1998, #213 ) ;
#39 = EDGE_LOOP ( 'NONE', ( #325, #190 ) ) ;
#40 =( NAMED_UNIT ( * ) PLANE_ANGLE_UNIT ( ) SI_UNIT ( $, .RADIAN. ) );
#41 = ORIENTED_EDGE ( 'NONE', *, *, #202, .T. ) ;
#42 = ADVANCED_FACE ( 'NONE', ( #153 ), #79, .T. ) ;
#43 = EDGE_LOOP ( 'NONE', ( #246, #66, #216, #294 ) ) ;
#44 = ORIENTED_EDGE ( 'NONE', *, *, #240, .F. ) ;
#45 = STYLED_ITEM ( 'NONE', ( #193 ), #207 ) ;
#46 = ORIENTED_EDGE ( 'NONE', *, *, #284, .F. ) ;
#47 = CARTESIAN_POINT ( 'NONE',  ( 0.0000000000000000000, 0.0000000000000000000, 1.984999999999999654 ) ) ;
#48 = ADVANCED_FACE ( 'NONE', ( #306 ), #200, .F. ) ;
#49 = DIRECTION ( 'NONE',  ( -1.000000000000000000, 0.0000000000000000000, 0.0000000000000000000 ) ) ;
#50 = CIRCLE ( 'NONE', #174, 0.07874999999999980627 ) ;
#51 = FACE_OUTER_BOUND ( 'NONE', #20, .T. ) ;
#52 = DIRECTION ( 'NONE',  ( -0.0000000000000000000, -0.0000000000000000000, -1.000000000000000000 ) ) ;
#53 = LINE ( 'NONE', #126, #263 ) ;
#54 = ADVANCED_FACE ( 'NONE', ( #4 ), #313, .T. ) ;
#55 = DIRECTION ( 'NONE',  ( -0.0000000000000000000, -0.0000000000000000000, -1.000000000000000000 ) ) ;
#56 = CARTESIAN_POINT ( 'NONE',  ( 0.0000000000000000000, 0.0000000000000000000, 2.000000000000000000 ) ) ;
#57 = DIRECTION ( 'NONE',  ( -0.0000000000000000000, -0.0000000000000000000, -1.000000000000000000 ) ) ;
#58 =( GEOMETRIC_REPRESENTATION_CONTEXT ( 3 ) GLOBAL_UNCERTAINTY_ASSIGNED_CONTEXT ( ( #15 ) ) GLOBAL_UNIT_ASSIGNED_CONTEXT ( ( #328, #304, #217 ) ) REPRESENTATION_CONTEXT ( 'NONE', 'WORKASPACE' ) );
#59 = PRODUCT_DEFINITION_CONTEXT ( 'detailed design', #213, 'design' ) ;
#60 = COLOUR_RGB ( '',0.7921568627450980005, 0.8196078431372548767, 0.9333333333333333481 ) ;
#61 =( CONVERSION_BASED_UNIT ( 'INCH', #83 ) LENGTH_UNIT ( ) NAMED_UNIT ( #12 ) );
#62 = EDGE_CURVE ( 'NONE', #242, #163, #227, .T. ) ;
#63 = CARTESIAN_POINT ( 'NONE',  ( 0.0000000000000000000, 0.0000000000000000000, 0.0000000000000000000 ) ) ;
#64 = AXIS2_PLACEMENT_3D ( 'NONE', #271, #52, #98 ) ;
#65 =( NAMED_UNIT ( * ) SI_UNIT ( $, .STERADIAN. ) SOLID_ANGLE_UNIT ( ) );
#66 = ORIENTED_EDGE ( 'NONE', *, *, #219, .T. ) ;
#67 = AXIS2_PLACEMENT_3D ( 'NONE', #229, #197, #175 ) ;
#68 = ORIENTED_EDGE ( 'NONE', *, *, #243, .F. ) ;
#69 = ORIENTED_EDGE ( 'NONE', *, *, #171, .T. ) ;
#70 = ORIENTED_EDGE ( 'NONE', *, *, #315, .F. ) ;
#71 = AXIS2_PLACEMENT_3D ( 'NONE', #172, #55, #256 ) ;
#72 = ORIENTED_EDGE ( 'NONE', *, *, #231, .F. ) ;
#73 = LINE ( 'NONE', #10, #132 ) ;
#74 = DIRECTION ( 'NONE',  ( 1.000000000000000000, 0.0000000000000000000, -0.0000000000000000000 ) ) ;
#75 = DIRECTION ( 'NONE',  ( -0.0000000000000000000, -0.0000000000000000000, -1.000000000000000000 ) ) ;
#76 = CONICAL_SURFACE ( 'NONE', #241, 0.07874999999999980627, 0.7853981633974466137 ) ;
#77 = DIRECTION ( 'NONE',  ( -1.000000000000000000, 0.0000000000000000000, 0.0000000000000000000 ) ) ;
#78 =( LENGTH_UNIT ( ) NAMED_UNIT ( * ) SI_UNIT ( $, .METRE. ) );
#79 = CYLINDRICAL_SURFACE ( 'NONE', #221, 0.09375000000000001388 ) ;
#80 = FACE_OUTER_BOUND ( 'NONE', #43, .T. ) ;
#81 = DIRECTION ( 'NONE',  ( -0.0000000000000000000, -0.0000000000000000000, -1.000000000000000000 ) ) ;
#82 = DIRECTION ( 'NONE',  ( -0.0000000000000000000, -0.0000000000000000000, -1.000000000000000000 ) ) ;
#83 = LENGTH_MEASURE_WITH_UNIT ( LENGTH_MEASURE( 0.02539999999999999897 ), #184 );
#84 = CIRCLE ( 'NONE', #234, 0.09375000000000001388 ) ;
#85 = LINE ( 'NONE', #288, #96 ) ;
#86 = ADVANCED_FACE ( 'NONE', ( #203 ), #144, .T. ) ;
#87 = CARTESIAN_POINT ( 'NONE',  ( 0.09370000000000008877, 0.0000000000000000000, 0.6250000000000000000 ) ) ;
#88 = VERTEX_POINT ( 'NONE', #254 ) ;
#89 = VERTEX_POINT ( 'NONE', #302 ) ;
#90 = CIRCLE ( 'NONE', #64, 0.09370000000000001938 ) ;
#91 = EDGE_CURVE ( 'NONE', #324, #191, #226, .T. ) ;
#92 = ORIENTED_EDGE ( 'NONE', *, *, #198, .T. ) ;
#93 = ORIENTED_EDGE ( 'NONE', *, *, #182, .T. ) ;
#94 = EDGE_CURVE ( 'NONE', #88, #242, #84, .T. ) ;
#95 = EDGE_LOOP ( 'NONE', ( #93, #145 ) ) ;
#96 = VECTOR ( 'NONE', #283, 39.37007874015748143 ) ;
#97 = DIRECTION ( 'NONE',  ( -1.000000000000000000, 0.0000000000000000000, 0.0000000000000000000 ) ) ;
#98 = DIRECTION ( 'NONE',  ( -1.000000000000000000, 0.0000000000000000000, 0.0000000000000000000 ) ) ;
#99 = FACE_BOUND ( 'NONE', #224, .T. ) ;
#100 = ADVANCED_FACE ( 'NONE', ( #26 ), #28, .T. ) ;
#101 = DIRECTION ( 'NONE',  ( -1.000000000000000000, 0.0000000000000000000, 0.0000000000000000000 ) ) ;
#102 = CARTESIAN_POINT ( 'NONE',  ( 0.0000000000000000000, 0.0000000000000000000, 2.000000000000000000 ) ) ;
#103 = AXIS2_PLACEMENT_3D ( 'NONE', #63, #178, #317 ) ;
#104 = CARTESIAN_POINT ( 'NONE',  ( 0.0000000000000000000, 0.0000000000000000000, 1.707404996040164512E-17 ) ) ;
#105 = MECHANICAL_DESIGN_GEOMETRIC_PRESENTATION_REPRESENTATION (  '', ( #285 ), #157 ) ;
#106 = DIRECTION ( 'NONE',  ( 0.0000000000000000000, 0.0000000000000000000, 1.000000000000000000 ) ) ;
#107 = CARTESIAN_POINT ( 'NONE',  ( 0.09370000000000003326, 0.0000000000000000000, 0.04976759320414544940 ) ) ;
#108 = DIRECTION ( 'NONE',  ( -1.000000000000000000, 0.0000000000000000000, 0.0000000000000000000 ) ) ;
#109 = AXIS2_PLACEMENT_3D ( 'NONE', #104, #106, #255 ) ;
#110 = ADVANCED_FACE ( 'NONE', ( #51 ), #303, .T. ) ;
#111 = CIRCLE ( 'NONE', #321, 0.07874999999999980627 ) ;
#112 = PRODUCT_CONTEXT ( 'NONE', #194, 'mechanical' ) ;
#113 = ORIENTED_EDGE ( 'NONE', *, *, #291, .F. ) ;
#114 = CARTESIAN_POINT ( 'NONE',  ( -0.09370000000000004714, 0.0000000000000000000, 0.0000000000000000000 ) ) ;
#115 = LENGTH_MEASURE_WITH_UNIT ( LENGTH_MEASURE( 0.02539999999999999897 ), #314 );
#116 = ORIENTED_EDGE ( 'NONE', *, *, #243, .T. ) ;
#117 = ORIENTED_EDGE ( 'NONE', *, *, #91, .T. ) ;
#118 = CONICAL_SURFACE ( 'NONE', #239, 0.007499999999999999722, 1.047197551196600518 ) ;
#119 = VERTEX_POINT ( 'NONE', #150 ) ;
#120 = ORIENTED_EDGE ( 'NONE', *, *, #128, .F. ) ;
#121 = CARTESIAN_POINT ( 'NONE',  ( -0.09375000000000001388, 0.0000000000000000000, 2.000000000000000000 ) ) ;
#122 = DIRECTION ( 'NONE',  ( -0.0000000000000000000, -0.0000000000000000000, -1.000000000000000000 ) ) ;
#123 = LENGTH_MEASURE_WITH_UNIT ( LENGTH_MEASURE( 0.02539999999999999897 ), #78 );
#124 = CIRCLE ( 'NONE', #125, 0.09370000000000008877 ) ;
#125 = AXIS2_PLACEMENT_3D ( 'NONE', #31, #81, #251 ) ;
#126 = CARTESIAN_POINT ( 'NONE',  ( 0.07874999999999980627, 9.644093543285380530E-18, 2.000000000000000000 ) ) ;
#127 = DIRECTION ( 'NONE',  ( 0.0000000000000000000, 0.0000000000000000000, -1.000000000000000000 ) ) ;
#128 = EDGE_CURVE ( 'NONE', #191, #324, #124, .T. ) ;
#129 = CARTESIAN_POINT ( 'NONE',  ( -0.09370000000000003326, 1.147494050801070064E-17, 0.04976759320414544940 ) ) ;
#130 = FILL_AREA_STYLE_COLOUR ( '', #272 ) ;
#131 = CARTESIAN_POINT ( 'NONE',  ( 0.0000000000000000000, 0.0000000000000000000, 2.000000000000000000 ) ) ;
#132 = VECTOR ( 'NONE', #312, 39.37007874015748143 ) ;
#133 = DIRECTION ( 'NONE',  ( -1.000000000000000000, 0.0000000000000000000, 0.0000000000000000000 ) ) ;
#134 = APPLICATION_PROTOCOL_DEFINITION ( 'draft international standard', 'automotive_design', 1998, #194 ) ;
#135 = PRESENTATION_LAYER_ASSIGNMENT (  '', '', ( #45 ) ) ;
#136 = SHAPE_DEFINITION_REPRESENTATION ( #199, #258 ) ;
#137 = EDGE_LOOP ( 'NONE', ( #192, #244, #161, #68 ) ) ;
#138 = EDGE_LOOP ( 'NONE', ( #298, #44, #270, #23 ) ) ;
#139 = DIRECTION ( 'NONE',  ( -0.0000000000000000000, 0.0000000000000000000, -1.000000000000000000 ) ) ;
#140 = DIRECTION ( 'NONE',  ( 0.0000000000000000000, 0.0000000000000000000, 1.000000000000000000 ) ) ;
#141 = VERTEX_POINT ( 'NONE', #129 ) ;
#142 = VERTEX_POINT ( 'NONE', #151 ) ;
#143 = CLOSED_SHELL ( 'NONE', ( #319, #54, #86, #100, #42, #110, #278, #187, #155, #323, #48 ) ) ;
#144 = CONICAL_SURFACE ( 'NONE', #211, 0.07874999999999980627, 0.7853981633974466137 ) ;
#145 = ORIENTED_EDGE ( 'NONE', *, *, #289, .T. ) ;
#146 = DIRECTION ( 'NONE',  ( -0.0000000000000000000, -0.0000000000000000000, -1.000000000000000000 ) ) ;
#147 = DIRECTION ( 'NONE',  ( 1.000000000000000000, 0.0000000000000000000, 0.0000000000000000000 ) ) ;
#148 = CARTESIAN_POINT ( 'NONE',  ( 0.0000000000000000000, 0.0000000000000000000, 2.000000000000000000 ) ) ;
#149 = AXIS2_PLACEMENT_3D ( 'NONE', #27, #127, #280 ) ;
#150 = CARTESIAN_POINT ( 'NONE',  ( 0.07874999999999980627, 1.056257864264590573E-17, 2.000000000000000000 ) ) ;
#151 = CARTESIAN_POINT ( 'NONE',  ( -0.07874999999999980627, 0.0000000000000000000, 2.000000000000000000 ) ) ;
#152 =( NAMED_UNIT ( * ) SI_UNIT ( $, .STERADIAN. ) SOLID_ANGLE_UNIT ( ) );
#153 = FACE_OUTER_BOUND ( 'NONE', #293, .T. ) ;
#154 = LINE ( 'NONE', #287, #166 ) ;
#155 = ADVANCED_FACE ( 'NONE', ( #8 ), #118, .T. ) ;
#156 = AXIS2_PLACEMENT_3D ( 'NONE', #230, #296, #3 ) ;
#157 =( GEOMETRIC_REPRESENTATION_CONTEXT ( 3 ) GLOBAL_UNCERTAINTY_ASSIGNED_CONTEXT ( ( #238 ) ) GLOBAL_UNIT_ASSIGNED_CONTEXT ( ( #189, #40, #65 ) ) REPRESENTATION_CONTEXT ( 'NONE', 'WORKASPACE' ) );
#158 = CYLINDRICAL_SURFACE ( 'NONE', #103, 0.09370000000000004714 ) ;
#159 = CIRCLE ( 'NONE', #21, 0.09375000000000001388 ) ;
#160 = EDGE_CURVE ( 'NONE', #119, #242, #53, .T. ) ;
#161 = ORIENTED_EDGE ( 'NONE', *, *, #223, .T. ) ;
#162 = EDGE_LOOP ( 'NONE', ( #70, #72, #116, #69 ) ) ;
#163 = VERTEX_POINT ( 'NONE', #250 ) ;
#164 = EDGE_LOOP ( 'NONE', ( #188, #269, #322, #220 ) ) ;
#165 = DIRECTION ( 'NONE',  ( 0.0000000000000000000, 0.0000000000000000000, 1.000000000000000000 ) ) ;
#166 = VECTOR ( 'NONE', #212, 39.37007874015748143 ) ;
#167 = ORIENTED_EDGE ( 'NONE', *, *, #171, .F. ) ;
#168 = SURFACE_STYLE_USAGE ( .BOTH. , #277 ) ;
#169 = DIRECTION ( 'NONE',  ( -0.0000000000000000000, -0.0000000000000000000, -1.000000000000000000 ) ) ;
#170 = FILL_AREA_STYLE ('',( #130 ) ) ;
#171 = EDGE_CURVE ( 'NONE', #248, #141, #25, .T. ) ;
#172 = CARTESIAN_POINT ( 'NONE',  ( 0.0000000000000000000, 0.0000000000000000000, 2.000000000000000000 ) ) ;
#173 = LINE ( 'NONE', #114, #196 ) ;
#174 = AXIS2_PLACEMENT_3D ( 'NONE', #14, #309, #236 ) ;
#175 = DIRECTION ( 'NONE',  ( 1.000000000000000000, 0.0000000000000000000, -0.0000000000000000000 ) ) ;
#176 = CARTESIAN_POINT ( 'NONE',  ( 0.09370000000000004714, 1.147494050801070527E-17, 0.0000000000000000000 ) ) ;
#177 = DIRECTION ( 'NONE',  ( 0.7071067811865463515, 8.659560562354916834E-17, -0.7071067811865486830 ) ) ;
#178 = DIRECTION ( 'NONE',  ( -0.0000000000000000000, -0.0000000000000000000, -1.000000000000000000 ) ) ;
#179 = FACE_OUTER_BOUND ( 'NONE', #138, .T. ) ;
#180 = CIRCLE ( 'NONE', #156, 0.007499999999999999722 ) ;
#181 = CARTESIAN_POINT ( 'NONE',  ( -0.007499999999999999722, 6.196712803685608298E-18, 1.707404996040164512E-17 ) ) ;
#182 = EDGE_CURVE ( 'NONE', #89, #163, #253, .T. ) ;
#183 = CYLINDRICAL_SURFACE ( 'NONE', #204, 0.09370000000000004714 ) ;
#184 =( LENGTH_UNIT ( ) NAMED_UNIT ( * ) SI_UNIT ( $, .METRE. ) );
#185 = AXIS2_PLACEMENT_3D ( 'NONE', #327, #169, #1 ) ;
#186 = CARTESIAN_POINT ( 'NONE',  ( 0.0000000000000000000, 0.0000000000000000000, 0.0000000000000000000 ) ) ;
#187 = ADVANCED_FACE ( 'NONE', ( #99, #316 ), #36, .T. ) ;
#188 = ORIENTED_EDGE ( 'NONE', *, *, #94, .T. ) ;
#189 =( CONVERSION_BASED_UNIT ( 'INCH', #115 ) LENGTH_UNIT ( ) NAMED_UNIT ( #311 ) );
#190 = ORIENTED_EDGE ( 'NONE', *, *, #37, .T. ) ;
#191 = VERTEX_POINT ( 'NONE', #268 ) ;
#192 = ORIENTED_EDGE ( 'NONE', *, *, #37, .F. ) ;
#193 = PRESENTATION_STYLE_ASSIGNMENT (( #168 ) ) ;
#194 = APPLICATION_CONTEXT ( 'automotive_design' ) ;
#195 = ORIENTED_EDGE ( 'NONE', *, *, #94, .F. ) ;
#196 = VECTOR ( 'NONE', #275, 39.37007874015748143 ) ;
#197 = DIRECTION ( 'NONE',  ( 0.0000000000000000000, 0.0000000000000000000, 1.000000000000000000 ) ) ;
#198 = EDGE_CURVE ( 'NONE', #88, #89, #299, .T. ) ;
#199 = PRODUCT_DEFINITION_SHAPE ( 'NONE', 'NONE',  #205 ) ;
#200 = PLANE ( 'NONE',  #67 ) ;
#201 = DIRECTION ( 'NONE',  ( -0.0000000000000000000, -0.0000000000000000000, -1.000000000000000000 ) ) ;
#202 = EDGE_CURVE ( 'NONE', #191, #141, #173, .T. ) ;
#203 = FACE_OUTER_BOUND ( 'NONE', #295, .T. ) ;
#204 = AXIS2_PLACEMENT_3D ( 'NONE', #286, #57, #260 ) ;
#205 = PRODUCT_DEFINITION ( 'UNKNOWN', '', #273, #59 ) ;
#206 = DIRECTION ( 'NONE',  ( 0.0000000000000000000, 0.0000000000000000000, 1.000000000000000000 ) ) ;
#207 = MANIFOLD_SOLID_BREP ( 'Cut-Revolve4', #143 ) ;
#208 = CARTESIAN_POINT ( 'NONE',  ( 0.0000000000000000000, 0.0000000000000000000, 1.707404996040164512E-17 ) ) ;
#209 = CARTESIAN_POINT ( 'NONE',  ( 0.0000000000000000000, 0.0000000000000000000, 0.6250000000000000000 ) ) ;
#210 = FACE_OUTER_BOUND ( 'NONE', #320, .T. ) ;
#211 = AXIS2_PLACEMENT_3D ( 'NONE', #131, #24, #133 ) ;
#212 = DIRECTION ( 'NONE',  ( -0.8660254037844400399, 1.060575238724908640E-16, 0.4999999999999976685 ) ) ;
#213 = APPLICATION_CONTEXT ( 'automotive_design' ) ;
#214 = EDGE_CURVE ( 'NONE', #242, #88, #292, .T. ) ;
#215 =( GEOMETRIC_REPRESENTATION_CONTEXT ( 3 ) GLOBAL_UNCERTAINTY_ASSIGNED_CONTEXT ( ( #7 ) ) GLOBAL_UNIT_ASSIGNED_CONTEXT ( ( #61, #259, #152 ) ) REPRESENTATION_CONTEXT ( 'NONE', 'WORKASPACE' ) );
#216 = ORIENTED_EDGE ( 'NONE', *, *, #223, .F. ) ;
#217 =( NAMED_UNIT ( * ) SI_UNIT ( $, .STERADIAN. ) SOLID_ANGLE_UNIT ( ) );
#218 = VERTEX_POINT ( 'NONE', #228 ) ;
#219 = EDGE_CURVE ( 'NONE', #324, #248, #252, .T. ) ;
#220 = ORIENTED_EDGE ( 'NONE', *, *, #198, .F. ) ;
#221 = AXIS2_PLACEMENT_3D ( 'NONE', #235, #75, #77 ) ;
#222 = ORIENTED_EDGE ( 'NONE', *, *, #62, .F. ) ;
#223 = EDGE_CURVE ( 'NONE', #141, #248, #90, .T. ) ;
#224 = EDGE_LOOP ( 'NONE', ( #120, #318 ) ) ;
#225 = SURFACE_STYLE_FILL_AREA ( #170 ) ;
#226 = CIRCLE ( 'NONE', #262, 0.09370000000000008877 ) ;
#227 = LINE ( 'NONE', #29, #265 ) ;
#228 = CARTESIAN_POINT ( 'NONE',  ( 0.007499999999999999722, 0.0000000000000000000, 1.707404996040164512E-17 ) ) ;
#229 = CARTESIAN_POINT ( 'NONE',  ( 0.0000000000000000000, 0.0000000000000000000, 0.0000000000000000000 ) ) ;
#230 = CARTESIAN_POINT ( 'NONE',  ( 0.0000000000000000000, 0.0000000000000000000, 1.707404996040164512E-17 ) ) ;
#231 = EDGE_CURVE ( 'NONE', #218, #247, #180, .T. ) ;
#232 = DIRECTION ( 'NONE',  ( 1.000000000000000000, 0.0000000000000000000, 0.0000000000000000000 ) ) ;
#233 = SURFACE_STYLE_USAGE ( .BOTH. , #11 ) ;
#234 = AXIS2_PLACEMENT_3D ( 'NONE', #47, #281, #232 ) ;
#235 = CARTESIAN_POINT ( 'NONE',  ( 0.0000000000000000000, 0.0000000000000000000, 2.000000000000000000 ) ) ;
#236 = DIRECTION ( 'NONE',  ( 1.000000000000000000, 0.0000000000000000000, 0.0000000000000000000 ) ) ;
#237 = FILL_AREA_STYLE ('',( #9 ) ) ;
#238 = UNCERTAINTY_MEASURE_WITH_UNIT (LENGTH_MEASURE( 1.000000000000000082E-05 ), #189, 'distance_accuracy_value', 'NONE');
#239 = AXIS2_PLACEMENT_3D ( 'NONE', #208, #274, #147 ) ;
#240 = EDGE_CURVE ( 'NONE', #142, #119, #111, .T. ) ;
#241 = AXIS2_PLACEMENT_3D ( 'NONE', #56, #33, #307 ) ;
#242 = VERTEX_POINT ( 'NONE', #326 ) ;
#243 = EDGE_CURVE ( 'NONE', #218, #248, #73, .T. ) ;
#244 = ORIENTED_EDGE ( 'NONE', *, *, #315, .T. ) ;
#245 = DIRECTION ( 'NONE',  ( -1.000000000000000000, 0.0000000000000000000, 0.0000000000000000000 ) ) ;
#246 = ORIENTED_EDGE ( 'NONE', *, *, #128, .T. ) ;
#247 = VERTEX_POINT ( 'NONE', #181 ) ;
#248 = VERTEX_POINT ( 'NONE', #107 ) ;
#249 = DIRECTION ( 'NONE',  ( 1.000000000000000000, 0.0000000000000000000, 0.0000000000000000000 ) ) ;
#250 = CARTESIAN_POINT ( 'NONE',  ( 0.09375000000000001388, 1.148106374200643863E-17, 0.6250000000000000000 ) ) ;
#251 = DIRECTION ( 'NONE',  ( -1.000000000000000000, 0.0000000000000000000, 0.0000000000000000000 ) ) ;
#252 = LINE ( 'NONE', #176, #13 ) ;
#253 = CIRCLE ( 'NONE', #185, 0.09375000000000001388 ) ;
#254 = CARTESIAN_POINT ( 'NONE',  ( -0.09375000000000001388, 0.0000000000000000000, 1.984999999999999654 ) ) ;
#255 = DIRECTION ( 'NONE',  ( 1.000000000000000000, 0.0000000000000000000, 0.0000000000000000000 ) ) ;
#256 = DIRECTION ( 'NONE',  ( -1.000000000000000000, 0.0000000000000000000, 0.0000000000000000000 ) ) ;
#257 = VECTOR ( 'NONE', #201, 39.37007874015748143 ) ;
#258 = ADVANCED_BREP_SHAPE_REPRESENTATION ( 'Micro_DM-187-2120X', ( #207, #17 ), #215 ) ;
#259 =( NAMED_UNIT ( * ) PLANE_ANGLE_UNIT ( ) SI_UNIT ( $, .RADIAN. ) );
#260 = DIRECTION ( 'NONE',  ( -1.000000000000000000, 0.0000000000000000000, 0.0000000000000000000 ) ) ;
#261 = DIMENSIONAL_EXPONENTS ( 1.000000000000000000, 0.0000000000000000000, 0.0000000000000000000, 0.0000000000000000000, 0.0000000000000000000, 0.0000000000000000000, 0.0000000000000000000 ) ;
#262 = AXIS2_PLACEMENT_3D ( 'NONE', #276, #300, #49 ) ;
#263 = VECTOR ( 'NONE', #177, 39.37007874015748143 ) ;
#264 = DIRECTION ( 'NONE',  ( 1.000000000000000000, 0.0000000000000000000, 0.0000000000000000000 ) ) ;
#265 = VECTOR ( 'NONE', #308, 39.37007874015748143 ) ;
#266 = ORIENTED_EDGE ( 'NONE', *, *, #289, .F. ) ;
#267 = ORIENTED_EDGE ( 'NONE', *, *, #214, .T. ) ;
#268 = CARTESIAN_POINT ( 'NONE',  ( -0.09370000000000008877, 0.0000000000000000000, 0.6250000000000000000 ) ) ;
#269 = ORIENTED_EDGE ( 'NONE', *, *, #62, .T. ) ;
#270 = ORIENTED_EDGE ( 'NONE', *, *, #291, .T. ) ;
#271 = CARTESIAN_POINT ( 'NONE',  ( 0.0000000000000000000, 0.0000000000000000000, 0.04976759320414544940 ) ) ;
#272 = COLOUR_RGB ( '',0.7921568627450980005, 0.8196078431372548767, 0.9333333333333333481 ) ;
#273 = PRODUCT_DEFINITION_FORMATION_WITH_SPECIFIED_SOURCE ( 'ANY', '', #301, .NOT_KNOWN. ) ;
#274 = DIRECTION ( 'NONE',  ( 0.0000000000000000000, 0.0000000000000000000, 1.000000000000000000 ) ) ;
#275 = DIRECTION ( 'NONE',  ( -0.0000000000000000000, -0.0000000000000000000, -1.000000000000000000 ) ) ;
#276 = CARTESIAN_POINT ( 'NONE',  ( 0.0000000000000000000, 0.0000000000000000000, 0.6250000000000000000 ) ) ;
#277 = SURFACE_SIDE_STYLE ('',( #225 ) ) ;
#278 = ADVANCED_FACE ( 'NONE', ( #179 ), #76, .T. ) ;
#279 = DIRECTION ( 'NONE',  ( -0.0000000000000000000, -0.0000000000000000000, -1.000000000000000000 ) ) ;
#280 = DIRECTION ( 'NONE',  ( 1.000000000000000000, 0.0000000000000000000, 0.0000000000000000000 ) ) ;
#281 = DIRECTION ( 'NONE',  ( 0.0000000000000000000, 0.0000000000000000000, -1.000000000000000000 ) ) ;
#282 = CARTESIAN_POINT ( 'NONE',  ( 0.0000000000000000000, 0.0000000000000000000, 0.04976759320414544940 ) ) ;
#283 = DIRECTION ( 'NONE',  ( -0.7071067811865463515, 0.0000000000000000000, -0.7071067811865486830 ) ) ;
#284 = EDGE_CURVE ( 'NONE', #119, #142, #50, .T. ) ;
#285 = STYLED_ITEM ( 'NONE', ( #5 ), #258 ) ;
#286 = CARTESIAN_POINT ( 'NONE',  ( 0.0000000000000000000, 0.0000000000000000000, 0.0000000000000000000 ) ) ;
#287 = CARTESIAN_POINT ( 'NONE',  ( -0.007499999999999999722, 9.184850993605147975E-19, 1.707404996040164512E-17 ) ) ;
#288 = CARTESIAN_POINT ( 'NONE',  ( -0.07874999999999980627, 0.0000000000000000000, 2.000000000000000000 ) ) ;
#289 = EDGE_CURVE ( 'NONE', #163, #89, #159, .T. ) ;
#290 = ORIENTED_EDGE ( 'NONE', *, *, #240, .T. ) ;
#291 = EDGE_CURVE ( 'NONE', #142, #88, #85, .T. ) ;
#292 = CIRCLE ( 'NONE', #149, 0.09375000000000001388 ) ;
#293 = EDGE_LOOP ( 'NONE', ( #222, #267, #92, #266 ) ) ;
#294 = ORIENTED_EDGE ( 'NONE', *, *, #202, .F. ) ;
#295 = EDGE_LOOP ( 'NONE', ( #46, #22, #195, #113 ) ) ;
#296 = DIRECTION ( 'NONE',  ( -0.0000000000000000000, -0.0000000000000000000, -1.000000000000000000 ) ) ;
#297 = CIRCLE ( 'NONE', #16, 0.007499999999999999722 ) ;
#298 = ORIENTED_EDGE ( 'NONE', *, *, #160, .F. ) ;
#299 = LINE ( 'NONE', #121, #257 ) ;
#300 = DIRECTION ( 'NONE',  ( -0.0000000000000000000, -0.0000000000000000000, -1.000000000000000000 ) ) ;
#301 = PRODUCT ( 'Micro_DM-187-2120X', 'Micro_DM-187-2120X', '', ( #112 ) ) ;
#302 = CARTESIAN_POINT ( 'NONE',  ( -0.09375000000000001388, 0.0000000000000000000, 0.6250000000000000000 ) ) ;
#303 = PLANE ( 'NONE',  #34 ) ;
#304 =( NAMED_UNIT ( * ) PLANE_ANGLE_UNIT ( ) SI_UNIT ( $, .RADIAN. ) );
#305 = MECHANICAL_DESIGN_GEOMETRIC_PRESENTATION_REPRESENTATION (  '', ( #45 ), #58 ) ;
#306 = FACE_OUTER_BOUND ( 'NONE', #39, .T. ) ;
#307 = DIRECTION ( 'NONE',  ( -1.000000000000000000, 0.0000000000000000000, 0.0000000000000000000 ) ) ;
#308 = DIRECTION ( 'NONE',  ( -0.0000000000000000000, -0.0000000000000000000, -1.000000000000000000 ) ) ;
#309 = DIRECTION ( 'NONE',  ( 0.0000000000000000000, 0.0000000000000000000, 1.000000000000000000 ) ) ;
#310 = PRODUCT_RELATED_PRODUCT_CATEGORY ( 'part', '', ( #301 ) ) ;
#311 = DIMENSIONAL_EXPONENTS ( 1.000000000000000000, 0.0000000000000000000, 0.0000000000000000000, 0.0000000000000000000, 0.0000000000000000000, 0.0000000000000000000, 0.0000000000000000000 ) ;
#312 = DIRECTION ( 'NONE',  ( 0.8660254037844400399, 0.0000000000000000000, 0.4999999999999976685 ) ) ;
#313 = CONICAL_SURFACE ( 'NONE', #109, 0.007499999999999999722, 1.047197551196600518 ) ;
#314 =( LENGTH_UNIT ( ) NAMED_UNIT ( * ) SI_UNIT ( $, .METRE. ) );
#315 = EDGE_CURVE ( 'NONE', #247, #141, #154, .T. ) ;
#316 = FACE_OUTER_BOUND ( 'NONE', #95, .T. ) ;
#317 = DIRECTION ( 'NONE',  ( -1.000000000000000000, 0.0000000000000000000, 0.0000000000000000000 ) ) ;
#318 = ORIENTED_EDGE ( 'NONE', *, *, #91, .F. ) ;
#319 = ADVANCED_FACE ( 'NONE', ( #80 ), #183, .T. ) ;
#320 = EDGE_LOOP ( 'NONE', ( #19, #117, #41, #167 ) ) ;
#321 = AXIS2_PLACEMENT_3D ( 'NONE', #102, #165, #249 ) ;
#322 = ORIENTED_EDGE ( 'NONE', *, *, #182, .F. ) ;
#323 = ADVANCED_FACE ( 'NONE', ( #210 ), #158, .T. ) ;
#324 = VERTEX_POINT ( 'NONE', #30 ) ;
#325 = ORIENTED_EDGE ( 'NONE', *, *, #231, .T. ) ;
#326 = CARTESIAN_POINT ( 'NONE',  ( 0.09375000000000001388, 1.148106374200643863E-17, 1.984999999999999654 ) ) ;
#327 = CARTESIAN_POINT ( 'NONE',  ( 0.0000000000000000000, 0.0000000000000000000, 0.6250000000000000000 ) ) ;
#328 =( CONVERSION_BASED_UNIT ( 'INCH', #123 ) LENGTH_UNIT ( ) NAMED_UNIT ( #261 ) );
#329 = AXIS2_PLACEMENT_3D ( 'NONE', #87, #139, #245 ) ;
ENDSEC;
END-ISO-10303-21;
