ISO-10303-21;
HEADER;
FILE_DESCRIPTION (( 'STEP AP214' ),
    '1' );
FILE_NAME ('59682.STEP',
    '2023-07-24T15:52:58',
    ( '' ),
    ( '' ),
    'SwSTEP 2.0',
    'SolidWorks 2023',
    '' );
FILE_SCHEMA (( 'AUTOMOTIVE_DESIGN' ));
ENDSEC;

DATA;
#1 = CARTESIAN_POINT ( 'NONE',  ( 0.000000000000000000, 0.000000000000000000, 0.000000000000000000 ) ) ;
#2 = DIRECTION ( 'NONE',  ( -7.227423732672903446E-17, 1.000000000000000000, -0.000000000000000000 ) ) ;
#3 = FILL_AREA_STYLE_COLOUR ( '', #104 ) ;
#4 =( GEOMETRIC_REPRESENTATION_CONTEXT ( 3 ) GLOBAL_UNCERTAINTY_ASSIGNED_CONTEXT ( ( #202 ) ) GLOBAL_UNIT_ASSIGNED_CONTEXT ( ( #81, #227, #247 ) ) REPRESENTATION_CONTEXT ( 'NONE', 'WORKASPACE' ) );
#5 =( NAMED_UNIT ( * ) PLANE_ANGLE_UNIT ( ) SI_UNIT ( $, .RADIAN. ) );
#6 = DIRECTION ( 'NONE',  ( 0.000000000000000000, -0.000000000000000000, 1.000000000000000000 ) ) ;
#7 = FACE_OUTER_BOUND ( 'NONE', #176, .T. ) ;
#8 = UNCERTAINTY_MEASURE_WITH_UNIT (LENGTH_MEASURE( 1.000000000000000082E-05 ), #173, 'distance_accuracy_value', 'NONE');
#9 = PRESENTATION_LAYER_ASSIGNMENT (  '', '', ( #11 ) ) ;
#10 = VECTOR ( 'NONE', #68, 1000.000000000000000 ) ;
#11 = STYLED_ITEM ( 'NONE', ( #189 ), #39 ) ;
#12 = CARTESIAN_POINT ( 'NONE',  ( 0.000000000000000000, 64.00000000000000000, 0.000000000000000000 ) ) ;
#13 = ORIENTED_EDGE ( 'NONE', *, *, #143, .F. ) ;
#14 = LINE ( 'NONE', #166, #38 ) ;
#15 = FILL_AREA_STYLE ('',( #82 ) ) ;
#16 = COLOUR_RGB ( '',1.000000000000000000, 0.000000000000000000, 0.000000000000000000 ) ;
#17 = APPLICATION_PROTOCOL_DEFINITION ( 'draft international standard', 'automotive_design', 1998, #83 ) ;
#18 = PLANE ( 'NONE',  #152 ) ;
#19 = CYLINDRICAL_SURFACE ( 'NONE', #287, 12.50000000000000000 ) ;
#20 = EDGE_CURVE ( 'NONE', #286, #78, #86, .T. ) ;
#21 = PRODUCT_CONTEXT ( 'NONE', #83, 'mechanical' ) ;
#22 = STYLED_ITEM ( 'NONE', ( #266 ), #51 ) ;
#23 = PRODUCT_DEFINITION_SHAPE ( 'NONE', 'NONE',  #263 ) ;
#24 = FACE_OUTER_BOUND ( 'NONE', #29, .T. ) ;
#25 =( GEOMETRIC_REPRESENTATION_CONTEXT ( 3 ) GLOBAL_UNCERTAINTY_ASSIGNED_CONTEXT ( ( #206 ) ) GLOBAL_UNIT_ASSIGNED_CONTEXT ( ( #201, #5, #195 ) ) REPRESENTATION_CONTEXT ( 'NONE', 'WORKASPACE' ) );
#26 = SURFACE_SIDE_STYLE ('',( #134 ) ) ;
#27 = VERTEX_POINT ( 'NONE', #49 ) ;
#28 = DIRECTION ( 'NONE',  ( 0.000000000000000000, 0.000000000000000000, -1.000000000000000000 ) ) ;
#29 = EDGE_LOOP ( 'NONE', ( #13, #124, #123, #277 ) ) ;
#30 = VERTEX_POINT ( 'NONE', #236 ) ;
#31 = EDGE_CURVE ( 'NONE', #30, #142, #76, .T. ) ;
#32 = CARTESIAN_POINT ( 'NONE',  ( 3.264728363225220430E-32, 64.00000000000000000, 0.000000000000000000 ) ) ;
#33 = EDGE_LOOP ( 'NONE', ( #258, #118 ) ) ;
#34 =( GEOMETRIC_REPRESENTATION_CONTEXT ( 3 ) GLOBAL_UNCERTAINTY_ASSIGNED_CONTEXT ( ( #75 ) ) GLOBAL_UNIT_ASSIGNED_CONTEXT ( ( #58, #149, #110 ) ) REPRESENTATION_CONTEXT ( 'NONE', 'WORKASPACE' ) );
#35 = DIRECTION ( 'NONE',  ( 0.000000000000000000, 0.000000000000000000, -1.000000000000000000 ) ) ;
#36 = ADVANCED_FACE ( 'NONE', ( #186 ), #282, .T. ) ;
#37 = DIRECTION ( 'NONE',  ( -7.227423732672903446E-17, 1.000000000000000000, 0.000000000000000000 ) ) ;
#38 = VECTOR ( 'NONE', #285, 1000.000000000000000 ) ;
#39 = MANIFOLD_SOLID_BREP ( 'Revolve - Cutting Edge', #275 ) ;
#40 = ADVANCED_FACE ( 'NONE', ( #217 ), #127, .T. ) ;
#41 = SURFACE_STYLE_USAGE ( .BOTH. , #131 ) ;
#42 = FILL_AREA_STYLE ('',( #3 ) ) ;
#43 = COLOUR_RGB ( '',0.7921568627450980005, 0.8196078431372548767, 0.9333333333333333481 ) ;
#44 = DIRECTION ( 'NONE',  ( 1.000000000000000000, 0.000000000000000000, 0.000000000000000000 ) ) ;
#45 = CARTESIAN_POINT ( 'NONE',  ( 0.000000000000000000, 0.000000000000000000, 0.000000000000000000 ) ) ;
#46 = STYLED_ITEM ( 'NONE', ( #264 ), #36 ) ;
#47 = ORIENTED_EDGE ( 'NONE', *, *, #170, .T. ) ;
#48 = UNCERTAINTY_MEASURE_WITH_UNIT (LENGTH_MEASURE( 1.000000000000000082E-05 ), #172, 'distance_accuracy_value', 'NONE');
#49 = CARTESIAN_POINT ( 'NONE',  ( 0.000000000000000000, 0.000000000000000000, -12.50000000000000000 ) ) ;
#50 =( GEOMETRIC_REPRESENTATION_CONTEXT ( 3 ) GLOBAL_UNCERTAINTY_ASSIGNED_CONTEXT ( ( #141 ) ) GLOBAL_UNIT_ASSIGNED_CONTEXT ( ( #159, #66, #88 ) ) REPRESENTATION_CONTEXT ( 'NONE', 'WORKASPACE' ) );
#51 = ADVANCED_FACE ( 'NONE', ( #251 ), #135, .T. ) ;
#52 = CIRCLE ( 'NONE', #214, 12.50000000000000533 ) ;
#53 = DIRECTION ( 'NONE',  ( -1.000000000000000000, 0.000000000000000000, 0.000000000000000000 ) ) ;
#54 = ORIENTED_EDGE ( 'NONE', *, *, #222, .F. ) ;
#55 = DIRECTION ( 'NONE',  ( -0.000000000000000000, -1.000000000000000000, -0.000000000000000000 ) ) ;
#56 = STYLED_ITEM ( 'NONE', ( #226 ), #91 ) ;
#57 = ADVANCED_FACE ( 'NONE', ( #112 ), #274, .F. ) ;
#58 =( LENGTH_UNIT ( ) NAMED_UNIT ( * ) SI_UNIT ( .MILLI., .METRE. ) );
#59 = DIRECTION ( 'NONE',  ( 0.000000000000000000, 0.000000000000000000, -1.000000000000000000 ) ) ;
#60 = CARTESIAN_POINT ( 'NONE',  ( 0.000000000000000000, 0.000000000000000000, 0.000000000000000000 ) ) ;
#61 = MECHANICAL_DESIGN_GEOMETRIC_PRESENTATION_REPRESENTATION (  '', ( #46 ), #4 ) ;
#62 =( NAMED_UNIT ( * ) SI_UNIT ( $, .STERADIAN. ) SOLID_ANGLE_UNIT ( ) );
#63 = SURFACE_STYLE_USAGE ( .BOTH. , #156 ) ;
#64 = SURFACE_SIDE_STYLE ('',( #133 ) ) ;
#65 = LINE ( 'NONE', #138, #10 ) ;
#66 =( NAMED_UNIT ( * ) PLANE_ANGLE_UNIT ( ) SI_UNIT ( $, .RADIAN. ) );
#67 = DIRECTION ( 'NONE',  ( 0.000000000000000000, 0.000000000000000000, -1.000000000000000000 ) ) ;
#68 = DIRECTION ( 'NONE',  ( -7.227423732672903446E-17, 1.000000000000000000, -0.000000000000000000 ) ) ;
#69 = DIRECTION ( 'NONE',  ( 7.227423732672903446E-17, -1.000000000000000000, 0.000000000000000000 ) ) ;
#70 = AXIS2_PLACEMENT_3D ( 'NONE', #32, #37, #126 ) ;
#71 = PRESENTATION_STYLE_ASSIGNMENT (( #63 ) ) ;
#72 = UNCERTAINTY_MEASURE_WITH_UNIT (LENGTH_MEASURE( 1.000000000000000082E-05 ), #198, 'distance_accuracy_value', 'NONE');
#73 = ORIENTED_EDGE ( 'NONE', *, *, #222, .T. ) ;
#74 = VERTEX_POINT ( 'NONE', #154 ) ;
#75 = UNCERTAINTY_MEASURE_WITH_UNIT (LENGTH_MEASURE( 1.000000000000000082E-05 ), #58, 'distance_accuracy_value', 'NONE');
#76 = CIRCLE ( 'NONE', #187, 12.50000000000000000 ) ;
#77 = LINE ( 'NONE', #80, #87 ) ;
#78 = VERTEX_POINT ( 'NONE', #92 ) ;
#79 = EDGE_CURVE ( 'NONE', #78, #286, #111, .T. ) ;
#80 = CARTESIAN_POINT ( 'NONE',  ( -12.50000000000000888, 124.9999999999999858, 0.000000000000000000 ) ) ;
#81 =( LENGTH_UNIT ( ) NAMED_UNIT ( * ) SI_UNIT ( .MILLI., .METRE. ) );
#82 = FILL_AREA_STYLE_COLOUR ( '', #146 ) ;
#83 = APPLICATION_CONTEXT ( 'automotive_design' ) ;
#84 = SURFACE_STYLE_USAGE ( .BOTH. , #26 ) ;
#85 =( NAMED_UNIT ( * ) SI_UNIT ( $, .STERADIAN. ) SOLID_ANGLE_UNIT ( ) );
#86 = CIRCLE ( 'NONE', #237, 12.50000000000000000 ) ;
#87 = VECTOR ( 'NONE', #148, 1000.000000000000000 ) ;
#88 =( NAMED_UNIT ( * ) SI_UNIT ( $, .STERADIAN. ) SOLID_ANGLE_UNIT ( ) );
#89 = SURFACE_STYLE_USAGE ( .BOTH. , #64 ) ;
#90 = DIRECTION ( 'NONE',  ( -1.000000000000000000, 0.000000000000000000, 0.000000000000000000 ) ) ;
#91 = ADVANCED_FACE ( 'NONE', ( #24 ), #19, .T. ) ;
#92 = CARTESIAN_POINT ( 'NONE',  ( -12.50000000000000000, 64.00000000000000000, 0.000000000000000000 ) ) ;
#93 = ORIENTED_EDGE ( 'NONE', *, *, #196, .F. ) ;
#94 = CIRCLE ( 'NONE', #260, 12.50000000000000000 ) ;
#95 = ORIENTED_EDGE ( 'NONE', *, *, #165, .F. ) ;
#96 = ADVANCED_FACE ( 'NONE', ( #7 ), #18, .T. ) ;
#97 = ORIENTED_EDGE ( 'NONE', *, *, #143, .T. ) ;
#98 = ORIENTED_EDGE ( 'NONE', *, *, #280, .T. ) ;
#99 = DIRECTION ( 'NONE',  ( -0.000000000000000000, -1.000000000000000000, -0.000000000000000000 ) ) ;
#100 = CARTESIAN_POINT ( 'NONE',  ( 0.000000000000000000, 64.00000000000000000, 0.000000000000000000 ) ) ;
#101 = DIRECTION ( 'NONE',  ( -0.000000000000000000, -1.000000000000000000, -0.000000000000000000 ) ) ;
#102 = APPLICATION_CONTEXT ( 'automotive_design' ) ;
#103 = CARTESIAN_POINT ( 'NONE',  ( 0.000000000000000000, 64.00000000000000000, 0.000000000000000000 ) ) ;
#104 = COLOUR_RGB ( '',1.000000000000000000, 0.000000000000000000, 0.000000000000000000 ) ;
#105 = MECHANICAL_DESIGN_GEOMETRIC_PRESENTATION_REPRESENTATION (  '', ( #238 ), #25 ) ;
#106 = CARTESIAN_POINT ( 'NONE',  ( -4.408728476930469278E-15, 124.9999999999999858, 0.000000000000000000 ) ) ;
#107 = FILL_AREA_STYLE ('',( #108 ) ) ;
#108 = FILL_AREA_STYLE_COLOUR ( '', #43 ) ;
#109 = CARTESIAN_POINT ( 'NONE',  ( 12.50000000000000000, 64.00000000000000000, 1.530808498934191916E-15 ) ) ;
#110 =( NAMED_UNIT ( * ) SI_UNIT ( $, .STERADIAN. ) SOLID_ANGLE_UNIT ( ) );
#111 = CIRCLE ( 'NONE', #278, 12.50000000000000000 ) ;
#112 = FACE_OUTER_BOUND ( 'NONE', #234, .T. ) ;
#113 = DIRECTION ( 'NONE',  ( -1.000000000000000000, 0.000000000000000000, 0.000000000000000000 ) ) ;
#114 = DIRECTION ( 'NONE',  ( 1.000000000000000000, 7.227423732672903446E-17, 0.000000000000000000 ) ) ;
#115 = AXIS2_PLACEMENT_3D ( 'NONE', #103, #276, #6 ) ;
#116 = ADVANCED_BREP_SHAPE_REPRESENTATION ( '59682', ( #39, #239, #257 ), #191 ) ;
#117 = ORIENTED_EDGE ( 'NONE', *, *, #190, .T. ) ;
#118 = ORIENTED_EDGE ( 'NONE', *, *, #20, .F. ) ;
#119 = MECHANICAL_DESIGN_GEOMETRIC_PRESENTATION_REPRESENTATION (  '', ( #136 ), #50 ) ;
#120 = EDGE_LOOP ( 'NONE', ( #281, #244, #117, #253 ) ) ;
#121 = FILL_AREA_STYLE_COLOUR ( '', #160 ) ;
#122 = EDGE_CURVE ( 'NONE', #74, #139, #140, .T. ) ;
#123 = ORIENTED_EDGE ( 'NONE', *, *, #196, .T. ) ;
#124 = ORIENTED_EDGE ( 'NONE', *, *, #165, .T. ) ;
#125 = DIRECTION ( 'NONE',  ( -0.000000000000000000, -1.000000000000000000, -0.000000000000000000 ) ) ;
#126 = DIRECTION ( 'NONE',  ( -1.000000000000000000, -7.227423732672903446E-17, 0.000000000000000000 ) ) ;
#127 = CYLINDRICAL_SURFACE ( 'NONE', #283, 12.50000000000000355 ) ;
#128 = CIRCLE ( 'NONE', #163, 12.50000000000000000 ) ;
#129 = AXIS2_PLACEMENT_3D ( 'NONE', #1, #99, #35 ) ;
#130 = PRESENTATION_STYLE_ASSIGNMENT (( #270 ) ) ;
#131 = SURFACE_SIDE_STYLE ('',( #168 ) ) ;
#132 = FILL_AREA_STYLE_COLOUR ( '', #16 ) ;
#133 = SURFACE_STYLE_FILL_AREA ( #15 ) ;
#134 = SURFACE_STYLE_FILL_AREA ( #42 ) ;
#135 = PLANE ( 'NONE',  #115 ) ;
#136 = STYLED_ITEM ( 'NONE', ( #71 ), #96 ) ;
#137 = CARTESIAN_POINT ( 'NONE',  ( 0.000000000000000000, 0.000000000000000000, 0.000000000000000000 ) ) ;
#138 = CARTESIAN_POINT ( 'NONE',  ( 12.49999999999999822, 124.9999999999999858, 1.530808498934191916E-15 ) ) ;
#139 = VERTEX_POINT ( 'NONE', #279 ) ;
#140 = CIRCLE ( 'NONE', #219, 12.50000000000000533 ) ;
#141 = UNCERTAINTY_MEASURE_WITH_UNIT (LENGTH_MEASURE( 1.000000000000000082E-05 ), #159, 'distance_accuracy_value', 'NONE');
#142 = VERTEX_POINT ( 'NONE', #150 ) ;
#143 = EDGE_CURVE ( 'NONE', #142, #179, #14, .T. ) ;
#144 = AXIS2_PLACEMENT_3D ( 'NONE', #200, #69, #114 ) ;
#145 = DIRECTION ( 'NONE',  ( 0.000000000000000000, 0.000000000000000000, -1.000000000000000000 ) ) ;
#146 = COLOUR_RGB ( '',1.000000000000000000, 0.000000000000000000, 0.000000000000000000 ) ;
#147 = ORIENTED_EDGE ( 'NONE', *, *, #190, .F. ) ;
#148 = DIRECTION ( 'NONE',  ( -7.227423732672903446E-17, 1.000000000000000000, -0.000000000000000000 ) ) ;
#149 =( NAMED_UNIT ( * ) PLANE_ANGLE_UNIT ( ) SI_UNIT ( $, .RADIAN. ) );
#150 = CARTESIAN_POINT ( 'NONE',  ( 1.530808498934191521E-15, 64.00000000000000000, 12.50000000000000000 ) ) ;
#151 = DIRECTION ( 'NONE',  ( -7.227423732672903446E-17, 1.000000000000000000, -0.000000000000000000 ) ) ;
#152 = AXIS2_PLACEMENT_3D ( 'NONE', #45, #235, #28 ) ;
#153 = APPLICATION_PROTOCOL_DEFINITION ( 'draft international standard', 'automotive_design', 1998, #102 ) ;
#154 = CARTESIAN_POINT ( 'NONE',  ( 12.50000000000000000, 125.0000000000000000, 1.530808498934191916E-15 ) ) ;
#155 =( NAMED_UNIT ( * ) PLANE_ANGLE_UNIT ( ) SI_UNIT ( $, .RADIAN. ) );
#156 = SURFACE_SIDE_STYLE ('',( #269 ) ) ;
#157 = DIRECTION ( 'NONE',  ( -7.227423732672903446E-17, 1.000000000000000000, -0.000000000000000000 ) ) ;
#158 = ORIENTED_EDGE ( 'NONE', *, *, #79, .T. ) ;
#159 =( LENGTH_UNIT ( ) NAMED_UNIT ( * ) SI_UNIT ( .MILLI., .METRE. ) );
#160 = COLOUR_RGB ( '',0.7921568627450980005, 0.8196078431372548767, 0.9333333333333333481 ) ;
#161 = ORIENTED_EDGE ( 'NONE', *, *, #122, .T. ) ;
#162 = ORIENTED_EDGE ( 'NONE', *, *, #243, .F. ) ;
#163 = AXIS2_PLACEMENT_3D ( 'NONE', #261, #101, #59 ) ;
#164 = DIRECTION ( 'NONE',  ( -7.227423732672903446E-17, 1.000000000000000000, -0.000000000000000000 ) ) ;
#165 = EDGE_CURVE ( 'NONE', #142, #30, #94, .T. ) ;
#166 = CARTESIAN_POINT ( 'NONE',  ( 1.530808498934191521E-15, 0.000000000000000000, 12.50000000000000000 ) ) ;
#167 = FACE_OUTER_BOUND ( 'NONE', #33, .T. ) ;
#168 = SURFACE_STYLE_FILL_AREA ( #107 ) ;
#169 = MECHANICAL_DESIGN_GEOMETRIC_PRESENTATION_REPRESENTATION (  '', ( #11 ), #34 ) ;
#170 = EDGE_CURVE ( 'NONE', #179, #27, #128, .T. ) ;
#171 = SURFACE_SIDE_STYLE ('',( #265 ) ) ;
#172 =( LENGTH_UNIT ( ) NAMED_UNIT ( * ) SI_UNIT ( .MILLI., .METRE. ) );
#173 =( LENGTH_UNIT ( ) NAMED_UNIT ( * ) SI_UNIT ( .MILLI., .METRE. ) );
#174 = CARTESIAN_POINT ( 'NONE',  ( 0.000000000000000000, 0.000000000000000000, 0.000000000000000000 ) ) ;
#175 = DIRECTION ( 'NONE',  ( -0.000000000000000000, -1.000000000000000000, -0.000000000000000000 ) ) ;
#176 = EDGE_LOOP ( 'NONE', ( #73, #47 ) ) ;
#177 =( GEOMETRIC_REPRESENTATION_CONTEXT ( 3 ) GLOBAL_UNCERTAINTY_ASSIGNED_CONTEXT ( ( #8 ) ) GLOBAL_UNIT_ASSIGNED_CONTEXT ( ( #173, #271, #273 ) ) REPRESENTATION_CONTEXT ( 'NONE', 'WORKASPACE' ) );
#178 = FILL_AREA_STYLE ('',( #132 ) ) ;
#179 = VERTEX_POINT ( 'NONE', #246 ) ;
#180 = PRESENTATION_LAYER_ASSIGNMENT (  '', '', ( #46 ) ) ;
#181 = CARTESIAN_POINT ( 'NONE',  ( 7.703719777548943412E-31, 64.00000000000000000, 0.000000000000000000 ) ) ;
#182 = DIRECTION ( 'NONE',  ( -1.000000000000000000, 0.000000000000000000, 0.000000000000000000 ) ) ;
#183 = PRODUCT_DEFINITION_CONTEXT ( 'detailed design', #102, 'design' ) ;
#184 = DIRECTION ( 'NONE',  ( 0.000000000000000000, 0.000000000000000000, -1.000000000000000000 ) ) ;
#185 = ADVANCED_FACE ( 'NONE', ( #167 ), #211, .F. ) ;
#186 = FACE_OUTER_BOUND ( 'NONE', #209, .T. ) ;
#187 = AXIS2_PLACEMENT_3D ( 'NONE', #12, #210, #184 ) ;
#188 = CARTESIAN_POINT ( 'NONE',  ( 0.000000000000000000, 0.000000000000000000, -12.50000000000000000 ) ) ;
#189 = PRESENTATION_STYLE_ASSIGNMENT (( #41 ) ) ;
#190 = EDGE_CURVE ( 'NONE', #78, #139, #77, .T. ) ;
#191 =( GEOMETRIC_REPRESENTATION_CONTEXT ( 3 ) GLOBAL_UNCERTAINTY_ASSIGNED_CONTEXT ( ( #72 ) ) GLOBAL_UNIT_ASSIGNED_CONTEXT ( ( #198, #267, #62 ) ) REPRESENTATION_CONTEXT ( 'NONE', 'WORKASPACE' ) );
#192 = SURFACE_STYLE_FILL_AREA ( #225 ) ;
#193 = DIRECTION ( 'NONE',  ( -7.227423732672903446E-17, 1.000000000000000000, -0.000000000000000000 ) ) ;
#194 = DIRECTION ( 'NONE',  ( -1.000000000000000000, 0.000000000000000000, 0.000000000000000000 ) ) ;
#195 =( NAMED_UNIT ( * ) SI_UNIT ( $, .STERADIAN. ) SOLID_ANGLE_UNIT ( ) );
#196 = EDGE_CURVE ( 'NONE', #30, #27, #245, .T. ) ;
#197 = CARTESIAN_POINT ( 'NONE',  ( -4.408728476930469278E-15, 124.9999999999999858, 0.000000000000000000 ) ) ;
#198 =( LENGTH_UNIT ( ) NAMED_UNIT ( * ) SI_UNIT ( .MILLI., .METRE. ) );
#199 = MECHANICAL_DESIGN_GEOMETRIC_PRESENTATION_REPRESENTATION (  '', ( #22 ), #242 ) ;
#200 = CARTESIAN_POINT ( 'NONE',  ( 12.50000000000000000, 125.0000000000000000, 0.000000000000000000 ) ) ;
#201 =( LENGTH_UNIT ( ) NAMED_UNIT ( * ) SI_UNIT ( .MILLI., .METRE. ) );
#202 = UNCERTAINTY_MEASURE_WITH_UNIT (LENGTH_MEASURE( 1.000000000000000082E-05 ), #81, 'distance_accuracy_value', 'NONE');
#203 = ORIENTED_EDGE ( 'NONE', *, *, #243, .T. ) ;
#204 = PRODUCT_DEFINITION_FORMATION_WITH_SPECIFIED_SOURCE ( 'ANY', '', #249, .NOT_KNOWN. ) ;
#205 = CARTESIAN_POINT ( 'NONE',  ( -4.408728476930470067E-15, 125.0000000000000000, 0.000000000000000000 ) ) ;
#206 = UNCERTAINTY_MEASURE_WITH_UNIT (LENGTH_MEASURE( 1.000000000000000082E-05 ), #201, 'distance_accuracy_value', 'NONE');
#207 = PRESENTATION_LAYER_ASSIGNMENT (  '', '', ( #136 ) ) ;
#208 = DIRECTION ( 'NONE',  ( -7.227423732672903446E-17, 1.000000000000000000, -0.000000000000000000 ) ) ;
#209 = EDGE_LOOP ( 'NONE', ( #256, #97, #54, #93 ) ) ;
#210 = DIRECTION ( 'NONE',  ( -0.000000000000000000, -1.000000000000000000, -0.000000000000000000 ) ) ;
#211 = PLANE ( 'NONE',  #70 ) ;
#212 = ORIENTED_EDGE ( 'NONE', *, *, #31, .F. ) ;
#213 = CLOSED_SHELL ( 'NONE', ( #233, #185, #40, #57 ) ) ;
#214 = AXIS2_PLACEMENT_3D ( 'NONE', #240, #2, #113 ) ;
#215 = DIRECTION ( 'NONE',  ( -0.000000000000000000, -1.000000000000000000, -0.000000000000000000 ) ) ;
#216 = EDGE_LOOP ( 'NONE', ( #212, #95 ) ) ;
#217 = FACE_OUTER_BOUND ( 'NONE', #120, .T. ) ;
#218 = CYLINDRICAL_SURFACE ( 'NONE', #232, 12.50000000000000355 ) ;
#219 = AXIS2_PLACEMENT_3D ( 'NONE', #205, #208, #182 ) ;
#220 = CIRCLE ( 'NONE', #129, 12.50000000000000000 ) ;
#221 = SURFACE_SIDE_STYLE ('',( #192 ) ) ;
#222 = EDGE_CURVE ( 'NONE', #27, #179, #220, .T. ) ;
#223 = SURFACE_STYLE_USAGE ( .BOTH. , #221 ) ;
#224 = FILL_AREA_STYLE ('',( #121 ) ) ;
#225 = FILL_AREA_STYLE ('',( #241 ) ) ;
#226 = PRESENTATION_STYLE_ASSIGNMENT (( #84 ) ) ;
#227 =( NAMED_UNIT ( * ) PLANE_ANGLE_UNIT ( ) SI_UNIT ( $, .RADIAN. ) );
#228 = MECHANICAL_DESIGN_GEOMETRIC_PRESENTATION_REPRESENTATION (  '', ( #56 ), #177 ) ;
#229 = VECTOR ( 'NONE', #215, 1000.000000000000000 ) ;
#230 = CARTESIAN_POINT ( 'NONE',  ( 7.703719777548943412E-31, 64.00000000000000000, 0.000000000000000000 ) ) ;
#231 = AXIS2_PLACEMENT_3D ( 'NONE', #60, #125, #262 ) ;
#232 = AXIS2_PLACEMENT_3D ( 'NONE', #106, #193, #53 ) ;
#233 = ADVANCED_FACE ( 'NONE', ( #288 ), #218, .T. ) ;
#234 = EDGE_LOOP ( 'NONE', ( #203, #161 ) ) ;
#235 = DIRECTION ( 'NONE',  ( 0.000000000000000000, -1.000000000000000000, -0.000000000000000000 ) ) ;
#236 = CARTESIAN_POINT ( 'NONE',  ( 0.000000000000000000, 64.00000000000000000, -12.50000000000000000 ) ) ;
#237 = AXIS2_PLACEMENT_3D ( 'NONE', #181, #164, #259 ) ;
#238 = STYLED_ITEM ( 'NONE', ( #130 ), #239 ) ;
#239 = MANIFOLD_SOLID_BREP ( 'Revolve - Tool Body (Straight Shanked)', #213 ) ;
#240 = CARTESIAN_POINT ( 'NONE',  ( -4.408728476930470067E-15, 125.0000000000000000, 0.000000000000000000 ) ) ;
#241 = FILL_AREA_STYLE_COLOUR ( '', #255 ) ;
#242 =( GEOMETRIC_REPRESENTATION_CONTEXT ( 3 ) GLOBAL_UNCERTAINTY_ASSIGNED_CONTEXT ( ( #48 ) ) GLOBAL_UNIT_ASSIGNED_CONTEXT ( ( #172, #155, #85 ) ) REPRESENTATION_CONTEXT ( 'NONE', 'WORKASPACE' ) );
#243 = EDGE_CURVE ( 'NONE', #139, #74, #52, .T. ) ;
#244 = ORIENTED_EDGE ( 'NONE', *, *, #20, .T. ) ;
#245 = LINE ( 'NONE', #188, #229 ) ;
#246 = CARTESIAN_POINT ( 'NONE',  ( 1.530808498934191521E-15, 0.000000000000000000, 12.50000000000000000 ) ) ;
#247 =( NAMED_UNIT ( * ) SI_UNIT ( $, .STERADIAN. ) SOLID_ANGLE_UNIT ( ) );
#248 = PRESENTATION_LAYER_ASSIGNMENT (  '', '', ( #22 ) ) ;
#249 = PRODUCT ( '59682', '59682', '', ( #21 ) ) ;
#250 = PRESENTATION_LAYER_ASSIGNMENT (  '', '', ( #238 ) ) ;
#251 = FACE_OUTER_BOUND ( 'NONE', #216, .T. ) ;
#252 = PRODUCT_RELATED_PRODUCT_CATEGORY ( 'part', '', ( #249 ) ) ;
#253 = ORIENTED_EDGE ( 'NONE', *, *, #122, .F. ) ;
#254 = DIRECTION ( 'NONE',  ( 0.000000000000000000, 0.000000000000000000, 1.000000000000000000 ) ) ;
#255 = COLOUR_RGB ( '',1.000000000000000000, 0.000000000000000000, 0.000000000000000000 ) ;
#256 = ORIENTED_EDGE ( 'NONE', *, *, #31, .T. ) ;
#257 = AXIS2_PLACEMENT_3D ( 'NONE', #174, #254, #44 ) ;
#258 = ORIENTED_EDGE ( 'NONE', *, *, #79, .F. ) ;
#259 = DIRECTION ( 'NONE',  ( -1.000000000000000000, 0.000000000000000000, 0.000000000000000000 ) ) ;
#260 = AXIS2_PLACEMENT_3D ( 'NONE', #100, #55, #145 ) ;
#261 = CARTESIAN_POINT ( 'NONE',  ( 0.000000000000000000, 0.000000000000000000, 0.000000000000000000 ) ) ;
#262 = DIRECTION ( 'NONE',  ( 0.000000000000000000, 0.000000000000000000, -1.000000000000000000 ) ) ;
#263 = PRODUCT_DEFINITION ( 'UNKNOWN', '', #204, #183 ) ;
#264 = PRESENTATION_STYLE_ASSIGNMENT (( #223 ) ) ;
#265 = SURFACE_STYLE_FILL_AREA ( #224 ) ;
#266 = PRESENTATION_STYLE_ASSIGNMENT (( #89 ) ) ;
#267 =( NAMED_UNIT ( * ) PLANE_ANGLE_UNIT ( ) SI_UNIT ( $, .RADIAN. ) );
#268 = PRESENTATION_LAYER_ASSIGNMENT (  '', '', ( #56 ) ) ;
#269 = SURFACE_STYLE_FILL_AREA ( #178 ) ;
#270 = SURFACE_STYLE_USAGE ( .BOTH. , #171 ) ;
#271 =( NAMED_UNIT ( * ) PLANE_ANGLE_UNIT ( ) SI_UNIT ( $, .RADIAN. ) );
#272 = SHAPE_DEFINITION_REPRESENTATION ( #23, #116 ) ;
#273 =( NAMED_UNIT ( * ) SI_UNIT ( $, .STERADIAN. ) SOLID_ANGLE_UNIT ( ) );
#274 = PLANE ( 'NONE',  #144 ) ;
#275 = CLOSED_SHELL ( 'NONE', ( #36, #51, #91, #96 ) ) ;
#276 = DIRECTION ( 'NONE',  ( 0.000000000000000000, 1.000000000000000000, 0.000000000000000000 ) ) ;
#277 = ORIENTED_EDGE ( 'NONE', *, *, #170, .F. ) ;
#278 = AXIS2_PLACEMENT_3D ( 'NONE', #230, #157, #90 ) ;
#279 = CARTESIAN_POINT ( 'NONE',  ( -12.50000000000001066, 125.0000000000000000, 0.000000000000000000 ) ) ;
#280 = EDGE_CURVE ( 'NONE', #286, #74, #65, .T. ) ;
#281 = ORIENTED_EDGE ( 'NONE', *, *, #280, .F. ) ;
#282 = CYLINDRICAL_SURFACE ( 'NONE', #231, 12.50000000000000000 ) ;
#283 = AXIS2_PLACEMENT_3D ( 'NONE', #197, #151, #194 ) ;
#284 = EDGE_LOOP ( 'NONE', ( #158, #98, #162, #147 ) ) ;
#285 = DIRECTION ( 'NONE',  ( -0.000000000000000000, -1.000000000000000000, -0.000000000000000000 ) ) ;
#286 = VERTEX_POINT ( 'NONE', #109 ) ;
#287 = AXIS2_PLACEMENT_3D ( 'NONE', #137, #175, #67 ) ;
#288 = FACE_OUTER_BOUND ( 'NONE', #284, .T. ) ;
ENDSEC;
END-ISO-10303-21;
